  0
SECTION
  2
HEADER
  0
ENDSEC
  0
SECTION
  2
TABLES
  0
TABLE
  2
LTYPE
 70
     4
  0
LTYPE
  2
CONTINUOUS
 70
    64
  3
Solid line
 72
    65
 73
     0
 40
0.000000
  0
LTYPE
  2
DASHED
 70
    64
  3
__ __ __ __ __ __ __ __ __ __ __ __ __ __ __
 72
    65
 73
     2
 40
3.500000
 49
2.000000
 49
-1.500000
  0
LTYPE
  2
CENTER
 70
    64
  3
____ _ ____ _ ____ _ ____ _ ____ _ ____ _ ____
 72
    65
 73
     4
 40
17.500000
 49
13.000000
 49
-1.500000
 49
1.500000
 49
-1.500000
  0
LTYPE
  2
PHANTOM
 70
    64
  3
_____ _ _ _____ _ _ _____ _ _ _____ _ _ ____  
 72
    65
 73
     6
 40
15.500000
 49
8.000000
 49
-1.500000
 49
1.500000
 49
-1.500000
 49
1.500000
 49
-1.500000
  0
LTYPE
  2
DASHED1
 70
    64
  3
__ __ __ __ __ __ __ __ __ __ __ __ __ __ __
 72
    65
 73
     2
 40
1.500000
 49
1.000000
 49
-0.500000
  0
LTYPE
  2
DASHED2
 70
    64
  3
__ __ __ __ __ __ __ __ __ __ __ __ __ __ __
 72
    65
 73
     2
 40
3.500000
 49
2.500000
 49
-1.000000
  0
LTYPE
  2
DASHED3
 70
    64
  3
__ __ __ __ __ __ __ __ __ __ __ __ __ __ __
 72
    65
 73
     2
 40
6.000000
 49
4.000000
 49
-2.000000
  0
LTYPE
  2
DASHED4
 70
    64
  3
__ __ __ __ __ __ __ __ __ __ __ __ __ __ __
 72
    65
 73
     2
 40
12.000000
 49
10.000000
 49
-2.000000
  0
LTYPE
  2
DASHED5
 70
    64
  3
__ __ __ __ __ __ __ __ __ __ __ __ __ __ __
 72
    65
 73
     2
 40
17.000000
 49
15.000000
 49
-2.000000
  0
LTYPE
  2
DASHED6
 70
    64
  3
__ __ __ __ __ __ __ __ __ __ __ __ __ __ __
 72
    65
 73
     2
 40
29.000000
 49
27.000000
 49
-2.000000
  0
LTYPE
  2
PHANTOM1
 70
    64
  3
_____ _ _ _____ _ _ _____ _ _ _____ _ _ ____  
 72
    65
 73
     6
 40
31.000000
 49
25.000000
 49
-1.500000
 49
1.000000
 49
-1.000000
 49
1.000000
 49
-1.500000
  0
LTYPE
  2
PHANTOM2
 70
    64
  3
_____ _ _ _____ _ _ _____ _ _ _____ _ _ ____  
 72
    65
 73
     6
 40
36.000000
 49
27.000000
 49
-1.500000
 49
2.500000
 49
-1.000000
 49
2.500000
 49
-1.500000
  0
LTYPE
  2
PHANTOM3
 70
    64
  3
_____ _ _ _____ _ _ _____ _ _ _____ _ _ ____  
 72
    65
 73
     6
 40
78.000000
 49
64.000000
 49
-2.000000
 49
4.000000
 49
-2.000000
 49
4.000000
 49
-2.000000
  0
LTYPE
  2
CENTER1
 70
    64
  3
____ _ ____ _ ____ _ ____ _ ____ _ ____ _ ____
 72
    65
 73
     4
 40
19.000000
 49
14.000000
 49
-1.000000
 49
3.000000
 49
-1.000000
  0
LTYPE
  2
CENTER2
 70
    64
  3
____ _ ____ _ ____ _ ____ _ ____ _ ____ _ ____
 72
    65
 73
     4
 40
28.500000
 49
25.000000
 49
-1.000000
 49
1.500000
 49
-1.000000
  0
LTYPE
  2
CENTER3
 70
    64
  3
____ _ ____ _ ____ _ ____ _ ____ _ ____ _ ____
 72
    65
 73
     4
 40
31.500000
 49
27.000000
 49
-1.000000
 49
2.500000
 49
-1.000000
  0
LTYPE
  2
CENTER4
 70
    64
  3
____ _ ____ _ ____ _ ____ _ ____ _ ____ _ ____
 72
    65
 73
     4
 40
50.000000
 49
45.000000
 49
-1.000000
 49
3.000000
 49
-1.000000
  0
LTYPE
  2
CENTER5
 70
    64
  3
____ _ ____ _ ____ _ ____ _ ____ _ ____ _ ____
 72
    65
 73
     4
 40
100.000000
 49
92.000000
 49
-2.000000
 49
4.000000
 49
-2.000000
  0
LTYPE
  2
SBK1
 70
    64
  3
______ _ _ _ ______ _ _ _ ______ _ _ _ _____  
 72
    65
 73
     8
 40
60.500000
 49
45.000000
 49
-2.000000
 49
2.500000
 49
-2.000000
 49
2.500000
 49
-2.000000
 49
2.500000
 49
-2.000000
  0
LTYPE
  2
SBK2
 70
    64
  3
______ _ _ _ ______ _ _ _ ______ _ _ _ _____  
 72
    65
 73
     8
 40
84.000000
 49
64.000000
 49
-2.000000
 49
4.000000
 49
-2.000000
 49
4.000000
 49
-2.000000
 49
4.000000
 49
-2.000000
  0
LTYPE
  2
STCH
 70
    64
  3
__ __ __ __ __ __ __ __ __ __ __ __ __ __ __
 72
    65
 73
     2
 40
3.000000
 49
1.000000
 49
-2.000000
  0
LTYPE
  2
MTCH
 70
    64
  3
_____ _ _ _____ _ _ _____ _ _ _____ _ _ ____  
 72
    65
 73
     6
 40
80.000000
 49
66.000000
 49
-2.000000
 49
4.000000
 49
-2.000000
 49
4.000000
 49
-2.000000
  0
ENDTAB
  0
TABLE
  2
LAYER
 70
     1
  0
LAYER
  2
0
 70
     0
 62
     7
  6
CONTINUOUS
  0
ENDTAB
  0
TABLE
  2
STYLE
 70
     1
  0
STYLE
  2
STANDARD
 70
     0
 40
0.000000
 41
1.000000
 50
0.000000
 71
     0
 42
0.200000
  3
txt
  4
BIGFONT
  0
ENDTAB
  0
TABLE
  2
VIEW
 70
     0
  0
ENDTAB
  0
ENDSEC
  0
SECTION
  2
BLOCKS
  0
ENDSEC
  0
SECTION
  2
ENTITIES
  0
LINE
  8
0
 10
89.584961
 20
8.907698
 11
89.584961
 21
23.907698
  0
LINE
  8
0
 10
120.584961
 20
8.907698
 11
120.584961
 21
23.907698
  0
LINE
  8
0
 10
120.584961
 20
36.257698
 11
120.584961
 21
40.557697
  0
LINE
  8
0
 10
89.584961
 20
36.257698
 11
89.584961
 21
40.557697
  0
LINE
  8
0
 10
120.584961
 20
-7.742302
 11
120.584961
 21
-3.442303
  0
LINE
  8
0
 10
89.584961
 20
-13.585636
 11
89.584961
 21
-8.510635
  0
LINE
  8
0
  6
CENTER
 62
     2
 10
118.434959
 20
-13.592302
 11
111.894958
 21
-13.592302
  0
LINE
  8
0
  6
CENTER
 62
     2
 10
115.084961
 20
-16.792303
 11
115.084961
 21
-10.182302
  0
LINE
  8
0
  6
CENTER
 62
     2
 10
95.584961
 20
-4.222301
 11
95.584961
 21
-1.042303
  0
LINE
  8
0
  6
CENTER
 62
     2
 10
95.194962
 20
38.407700
 11
87.973038
 21
38.407700
  0
LINE
  8
0
 10
111.084961
 20
39.907700
 11
114.584961
 21
39.907700
  0
LINE
  8
0
 10
110.274963
 20
36.907700
 11
114.584961
 21
36.907700
  0
LINE
  8
0
 10
111.084961
 20
-7.092302
 11
114.584961
 21
-7.092302
  0
LINE
  8
0
 10
110.274963
 20
-4.092302
 11
114.584961
 21
-4.092302
  0
LINE
  8
0
  6
CENTER
 62
     2
 10
113.364960
 20
-5.592302
 11
116.514961
 21
-5.592302
  0
LINE
  8
0
  6
CENTER
 62
     2
 10
113.494965
 20
38.407700
 11
121.661850
 21
38.407700
  0
LINE
  8
0
 10
89.084961
 20
-14.182304
 11
92.084961
 21
-10.602304
  0
LINE
  8
0
 10
89.084961
 20
-8.092302
 11
89.084961
 21
8.407698
  0
LINE
  8
0
 10
92.084969
 20
-10.602304
 11
89.084961
 21
-8.092302
  0
LINE
  8
0
 10
89.084961
 20
-16.592302
 11
89.084961
 21
-14.182302
  0
LINE
  8
0
 10
90.084961
 20
-17.592299
 11
89.084961
 21
-16.592304
  0
LINE
  8
0
 10
120.084961
 20
-17.592302
 11
90.084961
 21
-17.592302
  0
LINE
  8
0
  6
CENTER
 62
     2
 10
94.044960
 20
-2.592302
 11
97.184959
 21
-2.592302
  0
LINE
  8
0
 10
118.084961
 20
-7.742302
 11
118.084961
 21
-9.242302
  0
LINE
  8
0
 10
118.084961
 20
-1.942303
 11
118.084961
 21
-3.442303
  0
LINE
  8
0
 10
118.084961
 20
-3.442303
 11
120.784958
 21
-3.442303
  0
LINE
  8
0
 10
118.084961
 20
-7.742302
 11
120.784958
 21
-7.742302
  0
LINE
  8
0
 10
114.584961
 20
-1.942303
 11
118.084961
 21
-1.942303
  0
LINE
  8
0
 10
114.584961
 20
-9.242302
 11
118.084961
 21
-9.242302
  0
LINE
  8
0
 10
114.584961
 20
-1.942303
 11
114.584961
 21
-9.242302
  0
LINE
  8
0
 10
118.084961
 20
40.557697
 11
118.084961
 21
42.057697
  0
LINE
  8
0
 10
118.084961
 20
34.757698
 11
118.084961
 21
36.257698
  0
LINE
  8
0
 10
114.584961
 20
34.757698
 11
114.584961
 21
42.057697
  0
LINE
  8
0
 10
118.084961
 20
36.257698
 11
120.784958
 21
36.257698
  0
LINE
  8
0
 10
118.084961
 20
40.557697
 11
120.784958
 21
40.557697
  0
LINE
  8
0
 10
114.584961
 20
34.757698
 11
118.084961
 21
34.757698
  0
LINE
  8
0
 10
114.584961
 20
42.057697
 11
118.084961
 21
42.057697
  0
LINE
  8
0
 10
121.084961
 20
-8.042303
 11
121.084961
 21
-16.592302
  0
LINE
  8
0
 10
121.084961
 20
8.407698
 11
121.084961
 21
-3.142302
  0
LINE
  8
0
 10
121.084961
 20
40.857697
 11
121.084961
 21
49.407700
  0
LINE
  8
0
 10
121.084961
 20
24.407698
 11
121.084961
 21
35.957695
  0
LINE
  8
0
  6
CENTER
 62
     2
 10
118.434959
 20
46.407700
 11
111.723282
 21
46.407700
  0
LINE
  8
0
  6
CENTER
 62
     2
 10
115.084961
 20
49.607697
 11
115.084961
 21
42.997696
  0
LINE
  8
0
  6
CENTER
 62
     2
 10
95.084961
 20
-16.792303
 11
95.084961
 21
-10.182302
  0
LINE
  8
0
  6
CENTER
 62
     2
 10
91.724960
 20
46.407700
 11
98.496223
 21
46.407700
  0
LINE
  8
0
  6
CENTER
 62
     2
 10
95.084961
 20
49.607697
 11
95.084961
 21
42.997696
  0
LINE
  8
0
  6
CENTER
 62
     2
 10
112.504959
 20
-7.092302
 11
98.064964
 21
-7.092302
  0
LINE
  8
0
 10
120.084953
 20
-17.592302
 11
121.084953
 21
-16.592300
  0
LINE
  8
0
 10
89.084961
 20
24.407698
 11
89.084961
 21
35.957695
  0
LINE
  8
0
 10
90.584961
 20
9.907701
 11
89.084961
 21
8.407699
  0
LINE
  8
0
 10
90.584961
 20
11.407698
 11
90.584961
 21
9.907698
  0
LINE
  8
0
 10
90.584961
 20
22.907696
 11
89.084961
 21
24.407698
  0
LINE
  8
0
 10
91.084961
 20
11.707699
 11
91.584961
 21
11.207698
  0
LINE
  8
0
 10
91.584961
 20
15.407698
 11
91.084961
 21
14.907698
  0
LINE
  8
0
 10
90.884964
 20
14.907698
 11
91.084961
 21
14.907698
  0
LINE
  8
0
 10
90.884964
 20
11.707698
 11
91.084961
 21
11.707698
  0
LINE
  8
0
 10
91.584961
 20
11.207698
 11
93.184959
 21
11.207698
  0
LINE
  8
0
 10
91.584961
 20
15.407698
 11
93.184959
 21
15.407698
  0
LINE
  8
0
 10
90.584961
 20
21.407698
 11
90.584961
 21
22.907698
  0
LINE
  8
0
 10
91.084961
 20
21.107695
 11
91.584961
 21
21.607697
  0
LINE
  8
0
 10
91.584961
 20
17.407700
 11
91.084961
 21
17.907698
  0
LINE
  8
0
 10
90.884964
 20
17.907698
 11
91.084961
 21
17.907698
  0
LINE
  8
0
 10
90.884964
 20
21.107697
 11
91.084961
 21
21.107697
  0
LINE
  8
0
 10
90.584961
 20
15.207698
 11
90.584961
 21
17.607698
  0
LINE
  8
0
 10
91.584961
 20
21.607697
 11
93.184959
 21
21.607697
  0
LINE
  8
0
 10
91.584961
 20
17.407698
 11
93.184959
 21
17.407698
  0
LINE
  8
0
  6
CENTER
 62
     2
 10
112.374962
 20
39.907700
 11
97.744965
 21
39.907700
  0
LINE
  8
0
 10
90.084953
 20
50.407692
 11
89.084961
 21
49.407700
  0
LINE
  8
0
 10
89.084961
 20
40.857697
 11
89.084961
 21
49.407700
  0
LINE
  8
0
 10
90.584961
 20
40.557697
 11
90.584961
 21
42.057697
  0
LINE
  8
0
 10
90.584961
 20
34.757698
 11
90.584961
 21
36.257698
  0
LINE
  8
0
 10
94.084961
 20
34.757698
 11
94.084961
 21
42.057697
  0
LINE
  8
0
 10
90.584961
 20
36.257698
 11
89.384964
 21
36.257698
  0
LINE
  8
0
 10
90.584961
 20
40.557697
 11
89.384964
 21
40.557697
  0
LINE
  8
0
 10
94.084961
 20
34.757698
 11
90.584961
 21
34.757698
  0
LINE
  8
0
 10
94.084961
 20
42.057697
 11
90.584961
 21
42.057697
  0
LINE
  8
0
 10
120.084961
 20
50.407692
 11
121.084953
 21
49.407692
  0
LINE
  8
0
 10
120.084961
 20
50.407700
 11
90.084961
 21
50.407700
  0
LINE
  8
0
 10
119.584961
 20
9.907701
 11
121.084961
 21
8.407699
  0
LINE
  8
0
 10
119.584961
 20
11.407698
 11
119.584961
 21
9.907698
  0
LINE
  8
0
 10
119.584953
 20
22.907698
 11
121.084953
 21
24.407700
  0
LINE
  8
0
 10
119.084961
 20
11.707696
 11
118.584961
 21
11.207695
  0
LINE
  8
0
 10
118.584961
 20
15.407696
 11
119.084961
 21
14.907695
  0
LINE
  8
0
 10
119.284958
 20
14.907698
 11
119.084961
 21
14.907698
  0
LINE
  8
0
 10
119.284958
 20
11.707698
 11
119.084961
 21
11.707698
  0
LINE
  8
0
 10
118.584961
 20
11.207698
 11
116.984962
 21
11.207698
  0
LINE
  8
0
 10
118.584961
 20
15.407698
 11
116.984962
 21
15.407698
  0
LINE
  8
0
 10
119.584961
 20
21.407698
 11
119.584961
 21
22.907698
  0
LINE
  8
0
 10
119.084961
 20
21.107698
 11
118.584961
 21
21.607700
  0
LINE
  8
0
 10
118.584961
 20
17.407698
 11
119.084961
 21
17.907698
  0
LINE
  8
0
 10
119.284958
 20
17.907698
 11
119.084961
 21
17.907698
  0
LINE
  8
0
 10
119.284958
 20
21.107697
 11
119.084961
 21
21.107697
  0
LINE
  8
0
 10
119.584961
 20
15.207698
 11
119.584961
 21
17.607698
  0
LINE
  8
0
 10
118.584961
 20
21.607697
 11
116.984962
 21
21.607697
  0
LINE
  8
0
 10
118.584961
 20
17.407698
 11
116.984962
 21
17.407698
  0
LINE
  8
0
  6
CENTER
 62
     2
 10
86.874962
 20
16.407698
 11
122.424957
 21
16.407698
  0
LINE
  8
0
  6
CENTER
 62
     2
 10
105.084961
 20
-19.902304
 11
105.084961
 21
53.527695
  0
LINE
  8
0
  6
DASHED
 62
     2
 10
93.484962
 20
-17.592302
 11
93.484962
 21
-15.282303
  0
LINE
  8
0
  6
DASHED
 62
     2
 10
97.684959
 20
-17.592302
 11
97.684959
 21
-15.282303
  0
LINE
  8
0
  6
CENTER
 62
     2
 10
91.886337
 20
-13.592302
 11
98.084961
 21
-13.592302
  0
LINE
  8
0
  6
DASHED
 62
     2
 10
98.084961
 20
-17.592302
 11
98.084961
 21
-15.282303
  0
LINE
  8
0
  6
DASHED
 62
     2
 10
93.084961
 20
-17.592302
 11
93.084961
 21
-15.282303
  0
LINE
  8
0
  6
CENTER
 62
     2
 10
95.584961
 20
-18.462301
 11
95.584961
 21
-14.492302
  0
LINE
  8
0
 10
-128.415039
 20
-16.592300
 11
-127.915039
 21
-17.092302
  0
LINE
  8
0
 10
-97.915039
 20
-17.092302
 11
-97.415039
 21
-16.592300
  0
LINE
  8
0
 10
-127.915039
 20
49.907696
 11
-128.415039
 21
49.407696
  0
LINE
  8
0
 10
-97.915039
 20
49.907696
 11
-97.415039
 21
49.407692
  0
LINE
  8
0
 10
-128.415039
 20
49.407700
 11
-128.415039
 21
-16.592302
  0
LINE
  8
0
 10
-97.415039
 20
49.407700
 11
-97.415039
 21
-16.592302
  0
LINE
  8
0
 10
-127.915039
 20
-17.092302
 11
-97.915039
 21
-17.092302
  0
LINE
  8
0
 10
-127.915039
 20
49.907700
 11
-97.915039
 21
49.907700
  0
LINE
  8
0
  6
CENTER
 62
     2
 10
-108.345039
 20
-11.592302
 11
-101.285042
 21
-11.592302
  0
LINE
  8
0
  6
CENTER
 62
     2
 10
-119.205040
 20
-7.092302
 11
-106.485039
 21
-7.092302
  0
LINE
  8
0
  6
CENTER
 62
     2
 10
-119.175041
 20
39.907700
 11
-106.685036
 21
39.907700
  0
LINE
  8
0
  6
CENTER
 62
     2
 10
-108.195038
 20
44.407700
 11
-101.695038
 21
44.407700
  0
LINE
  8
0
  6
CENTER
 62
     2
 10
-104.915039
 20
47.517700
 11
-104.915039
 21
41.237698
  0
LINE
  8
0
  6
CENTER
 62
     2
 10
-120.915039
 20
47.627697
 11
-120.915039
 21
41.197701
  0
LINE
  8
0
 10
-112.915039
 20
18.137695
 11
-111.415047
 21
17.267696
  0
LINE
  8
0
 10
-111.415039
 20
17.267698
 11
-111.415039
 21
15.537698
  0
LINE
  8
0
 10
-111.415047
 20
15.537700
 11
-112.915047
 21
14.667701
  0
LINE
  8
0
 10
-112.915039
 20
14.667695
 11
-114.415047
 21
15.537698
  0
LINE
  8
0
 10
-114.415039
 20
17.267698
 11
-114.415039
 21
15.537698
  0
LINE
  8
0
 10
-112.915039
 20
18.137695
 11
-114.415039
 21
17.267698
  0
LINE
  8
0
 10
-112.915039
 20
-5.352305
 11
-111.415039
 21
-6.222304
  0
LINE
  8
0
 10
-111.415039
 20
-6.222301
 11
-111.415039
 21
-7.952303
  0
LINE
  8
0
 10
-111.415039
 20
-7.952304
 11
-112.915039
 21
-8.822303
  0
LINE
  8
0
 10
-112.915047
 20
-8.822305
 11
-114.415039
 21
-7.952306
  0
LINE
  8
0
 10
-114.415039
 20
-6.222301
 11
-114.415039
 21
-7.952303
  0
LINE
  8
0
 10
-112.915039
 20
-5.352303
 11
-114.415039
 21
-6.222302
  0
LINE
  8
0
 10
-112.915047
 20
41.637703
 11
-111.415039
 21
40.767696
  0
LINE
  8
0
 10
-111.415039
 20
40.767700
 11
-111.415039
 21
39.037697
  0
LINE
  8
0
 10
-111.415039
 20
39.037701
 11
-112.915039
 21
38.167702
  0
LINE
  8
0
 10
-112.915047
 20
38.167698
 11
-114.415047
 21
39.037697
  0
LINE
  8
0
 10
-114.415039
 20
40.767700
 11
-114.415039
 21
39.037697
  0
LINE
  8
0
 10
-112.915039
 20
41.637703
 11
-114.415047
 21
40.767696
  0
LINE
  8
0
 10
-99.915039
 20
48.407700
 11
-99.915039
 21
-15.592302
  0
LINE
  8
0
 10
-125.915039
 20
48.407700
 11
-125.915039
 21
-15.592302
  0
LINE
  8
0
  6
CENTER
 62
     2
 10
-117.645042
 20
-11.592302
 11
-124.375038
 21
-11.592302
  0
LINE
  8
0
  6
CENTER
 62
     2
 10
-120.915039
 20
-15.132303
 11
-120.915039
 21
-8.062302
  0
LINE
  8
0
  6
CENTER
 62
     2
 10
-104.915039
 20
-15.132303
 11
-104.915039
 21
-8.062302
  0
LINE
  8
0
  6
CENTER
 62
     2
 10
-117.645042
 20
44.407700
 11
-124.375038
 21
44.407700
  0
LINE
  8
0
  6
CENTER
 62
     2
 10
-112.915039
 20
52.777695
 11
-112.915039
 21
-19.902304
  0
LINE
  8
0
  6
CENTER
 62
     2
 10
-130.075043
 20
16.407698
 11
-95.785042
 21
16.407698
  0
LINE
  8
0
 10
-99.915039
 20
-15.592302
 11
-100.915039
 21
-16.592304
  0
LINE
  8
0
 10
-125.915039
 20
-15.592299
 11
-124.915031
 21
-16.592300
  0
LINE
  8
0
 10
-100.915047
 20
49.407700
 11
-99.915039
 21
48.407700
  0
LINE
  8
0
 10
-124.915047
 20
49.407696
 11
-125.915047
 21
48.407700
  0
LINE
  8
0
 10
-124.915039
 20
-16.592302
 11
-100.915039
 21
-16.592302
  0
LINE
  8
0
 10
-124.915039
 20
49.407700
 11
-100.915039
 21
49.407700
  0
LINE
  8
0
 10
-128.415039
 20
36.257698
 11
-128.615036
 21
36.257698
  0
LINE
  8
0
 10
-128.415039
 20
40.557697
 11
-128.615036
 21
40.557697
  0
LINE
  8
0
 10
-96.915039
 20
-8.092302
 11
-96.915039
 21
8.407698
  0
LINE
  8
0
 10
-97.415039
 20
-8.510633
 11
-96.915039
 21
-8.092299
  0
LINE
  8
0
 10
-96.915039
 20
-14.182302
 11
-97.415039
 21
-13.585633
  0
LINE
  8
0
 10
-128.915039
 20
-8.042303
 11
-128.915039
 21
-16.592302
  0
LINE
  8
0
 10
-127.915039
 20
-17.592302
 11
-128.915039
 21
-16.592300
  0
LINE
  8
0
 10
-127.915039
 20
-17.592302
 11
-97.915039
 21
-17.592302
  0
LINE
  8
0
 10
-128.915039
 20
8.407698
 11
-128.915039
 21
-3.142302
  0
LINE
  8
0
 10
-97.915039
 20
-17.592302
 11
-96.915039
 21
-16.592300
  0
LINE
  8
0
 10
-96.915039
 20
24.407698
 11
-96.915039
 21
35.957695
  0
LINE
  8
0
 10
-97.415039
 20
8.907697
 11
-96.915031
 21
8.407696
  0
LINE
  8
0
 10
-97.415039
 20
23.907700
 11
-96.915039
 21
24.407700
  0
LINE
  8
0
 10
-96.915039
 20
-16.592302
 11
-96.915039
 21
-14.182302
  0
LINE
  8
0
 10
-97.915039
 20
50.407696
 11
-96.915039
 21
49.407692
  0
LINE
  8
0
 10
-96.915039
 20
40.857697
 11
-96.915039
 21
49.407700
  0
LINE
  8
0
 10
-97.415039
 20
36.257698
 11
-97.215042
 21
36.257698
  0
LINE
  8
0
 10
-97.415039
 20
40.557697
 11
-97.215042
 21
40.557697
  0
LINE
  8
0
 10
-128.915039
 20
40.857697
 11
-128.915039
 21
49.407700
  0
LINE
  8
0
 10
-127.915039
 20
50.407696
 11
-128.915039
 21
49.407696
  0
LINE
  8
0
 10
-127.915039
 20
50.407700
 11
-97.915039
 21
50.407700
  0
LINE
  8
0
 10
-128.915039
 20
24.407698
 11
-128.915039
 21
35.957695
  0
LINE
  8
0
 10
-128.415039
 20
8.907700
 11
-128.915039
 21
8.407699
  0
LINE
  8
0
 10
-128.415039
 20
23.907700
 11
-128.915039
 21
24.407700
  0
LINE
  8
0
  6
DASHED
 62
     2
 10
-22.415035
 20
-17.092302
 11
-22.415035
 21
-15.282303
  0
LINE
  8
0
  6
DASHED
 62
     2
 10
-22.015036
 20
-17.092302
 11
-22.015036
 21
-15.282303
  0
LINE
  8
0
  6
DASHED
 62
     2
 10
-17.815035
 20
-17.092302
 11
-17.815035
 21
-15.282303
  0
LINE
  8
0
  6
DASHED
 62
     2
 10
-17.415035
 20
-17.092302
 11
-17.415035
 21
-15.282303
  0
LINE
  8
0
  6
CENTER
 62
     2
 10
-16.885035
 20
-2.592302
 11
-22.965034
 21
-2.592302
  0
LINE
  8
0
  6
CENTER
 62
     2
 10
-19.915035
 20
-18.602301
 11
-19.915035
 21
-14.312302
  0
LINE
  8
0
 10
-25.915035
 20
-16.592302
 11
-25.415033
 21
-17.092304
  0
LINE
  8
0
 10
-25.415035
 20
49.907700
 11
-25.915037
 21
49.407703
  0
LINE
  8
0
 10
-25.415035
 20
-17.092302
 11
-15.915035
 21
-17.092302
  0
LINE
  8
0
 10
-25.415035
 20
49.907700
 11
-15.915035
 21
49.907700
  0
LINE
  8
0
 10
-25.915035
 20
-16.592302
 11
-25.915035
 21
49.407700
  0
LINE
  8
0
 10
-28.915035
 20
-11.092302
 11
-25.915035
 21
-11.092302
  0
LINE
  8
0
 10
-28.915035
 20
-3.092302
 11
-25.915035
 21
-3.092302
  0
LINE
  8
0
 10
-28.915035
 20
35.907700
 11
-25.915035
 21
35.907700
  0
LINE
  8
0
 10
-28.915035
 20
43.907700
 11
-25.915035
 21
43.907700
  0
LINE
  8
0
  6
CENTER
 62
     2
 10
-6.915035
 20
-18.602301
 11
-6.915035
 21
-14.452303
  0
LINE
  8
0
  6
CENTER
 62
     2
 10
-0.915035
 20
29.407698
 11
9.204964
 21
29.407698
  0
LINE
  8
0
  6
CENTER
 62
     2
 10
-10.915035
 20
34.277699
 11
-10.915035
 21
24.467697
  0
LINE
  8
0
  6
CENTER
 62
     2
 10
4.084965
 20
34.357697
 11
4.084965
 21
24.427698
  0
LINE
  8
0
 10
21.084965
 20
-17.092302
 11
21.084965
 21
49.907700
  0
LINE
  8
0
  6
CENTER
 62
     2
 10
5.084965
 20
-18.602301
 11
5.084965
 21
-14.312302
  0
LINE
  8
0
 10
-15.915034
 20
-17.092302
 11
-15.415034
 21
-17.592304
  0
LINE
  8
0
 10
21.084967
 20
-17.092304
 11
20.584967
 21
-17.592304
  0
LINE
  8
0
 10
-15.915035
 20
9.907698
 11
21.084965
 21
9.907698
  0
LINE
  8
0
 10
-15.915035
 20
11.707698
 11
21.084965
 21
11.707698
  0
LINE
  8
0
 10
-15.915035
 20
-14.182302
 11
21.084965
 21
-14.182302
  0
LINE
  8
0
 10
-15.915035
 20
-10.602303
 11
21.084965
 21
-10.602303
  0
LINE
  8
0
 10
-15.915035
 20
-8.092302
 11
21.084965
 21
-8.092302
  0
LINE
  8
0
 10
-15.915035
 20
8.407698
 11
21.084965
 21
8.407698
  0
LINE
  8
0
 10
-15.915035
 20
-16.592302
 11
21.084965
 21
-16.592302
  0
LINE
  8
0
  6
DASHED
 62
     2
 10
-4.815037
 20
-17.592302
 11
-4.815037
 21
-15.282303
  0
LINE
  8
0
  6
DASHED
 62
     2
 10
-9.015036
 20
-17.592302
 11
-9.015036
 21
-15.282303
  0
LINE
  8
0
  6
DASHED
 62
     2
 10
-4.415035
 20
-17.592302
 11
-4.415035
 21
-15.282303
  0
LINE
  8
0
  6
DASHED
 62
     2
 10
-9.415035
 20
-17.592302
 11
-9.415035
 21
-15.282303
  0
LINE
  8
0
  6
CENTER
 62
     2
 10
-5.915035
 20
-6.201513
 11
-5.915035
 21
0.777698
  0
LINE
  8
0
  6
DASHED
 62
     2
 10
7.184963
 20
-17.592302
 11
7.184963
 21
-15.282303
  0
LINE
  8
0
  6
DASHED
 62
     2
 10
2.984966
 20
-17.592302
 11
2.984966
 21
-15.282303
  0
LINE
  8
0
  6
DASHED
 62
     2
 10
7.584965
 20
-17.592302
 11
7.584965
 21
-15.282303
  0
LINE
  8
0
  6
DASHED
 62
     2
 10
2.584965
 20
-17.592302
 11
2.584965
 21
-15.282303
  0
LINE
  8
0
 10
-15.915035
 20
-17.092302
 11
-15.915035
 21
49.907700
  0
LINE
  8
0
 10
-15.415035
 20
-17.592302
 11
20.584965
 21
-17.592302
  0
LINE
  8
0
  6
CENTER
 62
     2
 10
-40.535034
 20
16.407698
 11
23.154964
 21
16.407698
  0
LINE
  8
0
  6
CENTER
 62
     2
 10
13.584965
 20
-6.201513
 11
13.584965
 21
0.777698
  0
LINE
  8
0
  6
CENTER
 62
     2
 10
17.189728
 20
-2.592302
 11
10.204964
 21
-2.592302
  0
LINE
  8
0
  6
CENTER
 62
     2
 10
-2.578793
 20
-2.592302
 11
-9.332844
 21
-2.592302
  0
LINE
  8
0
 10
-15.915035
 20
14.507698
 11
21.084965
 21
14.507698
  0
LINE
  8
0
  6
CENTER
 62
     2
 10
4.084965
 20
-1.792303
 11
4.084965
 21
8.157698
  0
LINE
  8
0
  6
CENTER
 62
     2
 10
-0.725037
 20
3.407698
 11
9.194965
 21
3.407698
  0
LINE
  8
0
  6
CENTER
 62
     2
 10
-10.915035
 20
-1.792303
 11
-10.915035
 21
8.237698
  0
LINE
  8
0
  6
CENTER
 62
     2
 10
-15.915035
 20
3.407698
 11
-5.672760
 21
3.407698
  0
LINE
  8
0
 10
-15.915035
 20
24.407698
 11
21.084965
 21
24.407698
  0
LINE
  8
0
  6
DASHED
 62
     2
 10
33.584965
 20
43.907700
 11
33.584965
 21
35.907700
  0
LINE
  8
0
  6
DASHED
 62
     2
 10
34.084965
 20
36.407700
 11
33.584965
 21
35.907700
  0
LINE
  8
0
  6
DASHED
 62
     2
 10
33.584965
 20
43.907696
 11
34.084965
 21
43.407696
  0
LINE
  8
0
  6
DASHED
 62
     2
 10
21.084965
 20
35.907700
 11
33.584965
 21
35.907700
  0
LINE
  8
0
  6
DASHED
 62
     2
 10
21.084965
 20
43.907700
 11
33.584965
 21
43.907700
  0
LINE
  8
0
  6
DASHED
 62
     2
 10
34.084965
 20
36.407700
 11
34.084965
 21
43.407700
  0
LINE
  8
0
  6
DASHED
 62
     2
 10
33.584965
 20
-3.092302
 11
33.584965
 21
-11.092302
  0
LINE
  8
0
  6
DASHED
 62
     2
 10
34.084965
 20
-10.592301
 11
33.584965
 21
-11.092302
  0
LINE
  8
0
  6
DASHED
 62
     2
 10
33.584965
 20
-3.092305
 11
34.084965
 21
-3.592304
  0
LINE
  8
0
  6
DASHED
 62
     2
 10
21.084965
 20
-11.092302
 11
33.584965
 21
-11.092302
  0
LINE
  8
0
  6
DASHED
 62
     2
 10
21.084965
 20
-3.092302
 11
33.584965
 21
-3.092302
  0
LINE
  8
0
  6
DASHED
 62
     2
 10
34.084965
 20
-10.592302
 11
34.084965
 21
-3.592302
  0
LINE
  8
0
  6
CENTER
 62
     2
 10
-15.915035
 20
29.407698
 11
-5.885036
 21
29.407698
  0
LINE
  8
0
 10
-28.915035
 20
18.337698
 11
-27.415035
 21
18.337698
  0
LINE
  8
0
 10
-15.915035
 20
36.257698
 11
21.084965
 21
36.257698
  0
LINE
  8
0
 10
-15.915035
 20
40.557697
 11
21.084965
 21
40.557697
  0
LINE
  8
0
 10
-15.915035
 20
49.407700
 11
21.084965
 21
49.407700
  0
LINE
  8
0
 10
-15.915035
 20
22.907698
 11
21.084965
 21
22.907698
  0
LINE
  8
0
 10
-15.915035
 20
21.107697
 11
21.084965
 21
21.107697
  0
LINE
  8
0
 10
-15.915035
 20
18.307697
 11
21.084965
 21
18.307697
  0
LINE
  8
0
 10
20.584965
 20
50.407696
 11
21.084965
 21
49.907700
  0
LINE
  8
0
 10
-15.415033
 20
50.407700
 11
-15.915034
 21
49.907700
  0
LINE
  8
0
 10
-29.415037
 20
49.407700
 11
-28.915035
 21
48.907692
  0
LINE
  8
0
 10
-38.415031
 20
49.407700
 11
-38.915031
 21
48.907696
  0
LINE
  8
0
 10
-28.915035
 20
-16.092302
 11
-29.415035
 21
-16.592302
  0
LINE
  8
0
 10
-38.915035
 20
-16.092302
 11
-38.415035
 21
-16.592302
  0
LINE
  8
0
 62
     2
 10
-27.415035
 20
18.337698
 11
-28.915035
 21
15.437697
  0
LINE
  8
0
 62
     2
 10
-28.915037
 20
17.367697
 11
-27.415037
 21
14.467697
  0
LINE
  8
0
 10
-27.415035
 20
18.337698
 11
-27.415035
 21
14.467697
  0
LINE
  8
0
 10
-28.915035
 20
14.467697
 11
-27.415035
 21
14.467697
  0
LINE
  8
0
  6
CENTER
 62
     2
 10
-40.355034
 20
-7.092302
 11
-24.182903
 21
-7.092302
  0
LINE
  8
0
 10
-28.915035
 20
12.407698
 11
-25.915035
 21
12.407698
  0
LINE
  8
0
 10
-38.415035
 20
49.407700
 11
-29.415035
 21
49.407700
  0
LINE
  8
0
 10
-38.415035
 20
-16.592302
 11
-29.415035
 21
-16.592302
  0
LINE
  8
0
 10
-38.915035
 20
48.907700
 11
-38.915035
 21
-16.092302
  0
LINE
  8
0
 10
-28.915035
 20
-16.092302
 11
-28.915035
 21
48.907700
  0
LINE
  8
0
 10
-15.415035
 20
50.407700
 11
20.584965
 21
50.407700
  0
LINE
  8
0
  6
CENTER
 62
     2
 10
-40.355034
 20
39.907700
 11
-24.182903
 21
39.907700
  0
LINE
  8
0
 10
-28.915035
 20
20.407698
 11
-25.915035
 21
20.407698
  0
LINE
  8
0
  6
PHANTOM
 62
     3
 10
-1.489273
 20
-21.882925
 11
-1.489273
 21
61.277504
  0
LINE
  8
0
  6
PHANTOM
 62
     3
 10
9.908855
 20
-5.533052
 11
9.908855
 21
56.016830
  0
LINE
  8
0
  6
PHANTOM
 62
     3
 10
0.965710
 20
-5.533052
 11
9.908855
 21
-5.533052
  0
LINE
  8
0
  6
PHANTOM
 62
     3
 10
0.965710
 20
-21.882925
 11
0.965710
 21
-5.533052
  0
LINE
  8
0
  6
CENTER
 62
     2
 10
-19.915035
 20
-6.193855
 11
-19.915035
 21
0.777698
  0
LINE
  8
0
 10
-74.250000
 20
132.600006
 11
-74.250000
 21
117.599998
  0
LINE
  8
0
 10
-87.250000
 20
-123.500000
 11
-87.250000
 21
-92.500000
  0
LINE
  8
0
 10
-184.250000
 20
-92.500000
 11
-87.250000
 21
-92.500000
  0
LINE
  8
0
 10
-184.250000
 20
-97.500000
 11
-161.929993
 21
-97.500000
  0
LINE
  8
0
 10
-159.250000
 20
-107.499992
 11
-161.930008
 21
-97.500000
  0
LINE
  8
0
 10
-99.250000
 20
-123.500000
 11
-99.250000
 21
-92.500000
  0
LINE
  8
0
 10
-111.250000
 20
-123.500000
 11
-111.250000
 21
-92.500000
  0
LINE
  8
0
 10
-123.250000
 20
-123.500000
 11
-123.250000
 21
-92.500000
  0
LINE
  8
0
 10
-147.250000
 20
-123.500000
 11
-147.250000
 21
-92.500000
  0
LINE
  8
0
 10
-135.250000
 20
-123.500000
 11
-135.250000
 21
-92.500000
  0
LINE
  8
0
 10
-159.250000
 20
-123.500000
 11
-159.250000
 21
-92.500000
  0
LINE
  8
0
 10
-184.250000
 20
-107.500000
 11
-87.250000
 21
-107.500000
  0
LINE
  8
0
 10
-184.250000
 20
-115.500000
 11
-87.250000
 21
-115.500000
  0
LINE
  8
0
 10
-184.250000
 20
-123.500000
 11
-184.250000
 21
-92.500000
  0
LINE
  8
0
 10
-184.250000
 20
-123.500000
 11
-87.250000
 21
-123.500000
  0
LINE
  8
0
 10
-194.250000
 20
117.599998
 11
-74.250000
 21
117.599998
  0
LINE
  8
0
 10
109.800003
 20
117.599998
 11
194.800003
 21
117.599998
  0
LINE
  8
0
 10
109.800003
 20
132.600006
 11
109.800003
 21
117.599998
  0
LINE
  8
0
 10
109.800003
 20
-118.500000
 11
194.800003
 21
-118.500000
  0
LINE
  8
0
 10
109.800003
 20
-118.500000
 11
109.800003
 21
-133.500000
  0
LINE
  8
0
 10
-194.250000
 20
-133.500000
 11
194.800003
 21
-133.500000
  0
LINE
  8
0
 10
-194.250000
 20
132.600006
 11
-194.250000
 21
-133.500000
  0
LINE
  8
0
 10
194.800003
 20
132.600006
 11
194.800003
 21
-133.500000
  0
LINE
  8
0
 10
-194.250000
 20
132.600006
 11
194.800003
 21
132.600006
  0
CIRCLE
  8
0
 10
115.084961
 20
-13.592302
 40
2.067000
  0
CIRCLE
  8
0
 10
95.084961
 20
-13.592302
 40
2.067000
  0
CIRCLE
  8
0
 10
115.084961
 20
46.407700
 40
2.067000
  0
CIRCLE
  8
0
 10
95.084961
 20
46.407700
 40
2.067000
  0
CIRCLE
  8
0
 62
     2
 10
115.084961
 20
-13.592302
 40
2.500000
  0
CIRCLE
  8
0
 62
     2
 10
95.084961
 20
-13.592302
 40
2.500000
  0
CIRCLE
  8
0
 62
     2
 10
95.084961
 20
46.407700
 40
2.500000
  0
CIRCLE
  8
0
 62
     2
 10
115.084961
 20
46.407700
 40
2.500000
  0
CIRCLE
  8
0
 10
105.084961
 20
-7.092302
 40
4.000000
  0
CIRCLE
  8
0
 10
105.084961
 20
39.907700
 40
4.000000
  0
CIRCLE
  8
0
 10
105.084961
 20
16.407698
 40
9.000000
  0
CIRCLE
  8
0
 10
95.584961
 20
-2.592302
 40
1.000000
  0
ARC
  8
0
 10
120.784958
 20
35.957695
 40
0.300003
 50
0.000000
 51
90.000000
  0
ARC
  8
0
 10
120.784958
 20
40.857697
 40
0.299999
 50
270.000000
 51
0.000000
  0
ARC
  8
0
 10
120.784958
 20
-8.042303
 40
0.300003
 50
0.000000
 51
90.000000
  0
ARC
  8
0
 10
120.784958
 20
-3.142302
 40
0.300000
 50
270.000000
 51
0.000000
  0
CIRCLE
  8
0
 10
105.084961
 20
-7.092302
 40
6.000000
  0
ARC
  8
0
 10
90.884949
 20
15.207685
 40
0.299988
 50
179.997635
 51
270.002899
  0
ARC
  8
0
 10
90.884949
 20
17.607710
 40
0.299988
 50
89.997086
 51
180.002182
  0
ARC
  8
0
 10
90.884956
 20
21.407692
 40
0.299995
 50
179.998901
 51
270.001465
  0
ARC
  8
0
 10
93.184959
 20
19.507698
 40
2.100000
 50
270.000000
 51
90.000000
  0
ARC
  8
0
 10
90.884956
 20
11.407703
 40
0.299994
 50
89.998543
 51
180.001099
  0
ARC
  8
0
 10
93.184959
 20
13.307697
 40
2.100000
 50
270.000000
 51
90.000000
  0
CIRCLE
  8
0
 10
105.084961
 20
39.907700
 40
6.000000
  0
ARC
  8
0
 10
89.384964
 20
35.957695
 40
0.299999
 50
90.000000
 51
180.000000
  0
ARC
  8
0
 10
89.384964
 20
40.857697
 40
0.300003
 50
180.000000
 51
270.000000
  0
ARC
  8
0
 10
116.984962
 20
13.307697
 40
2.100000
 50
90.000000
 51
270.000000
  0
ARC
  8
0
 10
119.284973
 20
15.207685
 40
0.299988
 50
269.997101
 51
0.002368
  0
ARC
  8
0
 10
119.284973
 20
17.607710
 40
0.299988
 50
359.997803
 51
90.002914
  0
ARC
  8
0
 10
119.284966
 20
21.407692
 40
0.299994
 50
269.998535
 51
0.001093
  0
ARC
  8
0
 10
116.984962
 20
19.507698
 40
2.100000
 50
90.000000
 51
270.000000
  0
ARC
  8
0
 10
119.284966
 20
11.407703
 40
0.299995
 50
359.998901
 51
90.001457
  0
CIRCLE
  8
0
 62
     2
 10
-104.915039
 20
-11.592302
 40
2.500000
  0
CIRCLE
  8
0
 62
     2
 10
-120.915039
 20
-11.592302
 40
2.500000
  0
CIRCLE
  8
0
 62
     2
 10
-104.915039
 20
44.407700
 40
2.500000
  0
CIRCLE
  8
0
 62
     2
 10
-120.915039
 20
44.407700
 40
2.500000
  0
CIRCLE
  8
0
 10
-104.915039
 20
-11.592302
 40
2.067000
  0
CIRCLE
  8
0
 10
-120.915039
 20
-11.592302
 40
2.067000
  0
CIRCLE
  8
0
 10
-104.915039
 20
44.407700
 40
2.067000
  0
CIRCLE
  8
0
 10
-120.915039
 20
44.407700
 40
2.067000
  0
ARC
  8
0
 10
-123.915039
 20
-12.592302
 40
4.000000
 50
120.000000
 51
252.885574
  0
ARC
  8
0
 10
-101.915039
 20
45.407700
 40
4.000002
 50
300.000000
 51
72.885574
  0
CIRCLE
  8
0
 10
-112.915039
 20
16.407698
 40
2.849999
  0
CIRCLE
  8
0
 10
-112.915039
 20
16.407698
 40
4.750000
  0
CIRCLE
  8
0
 10
-112.915039
 20
39.907700
 40
2.849999
  0
CIRCLE
  8
0
 10
-112.915039
 20
39.907700
 40
4.750000
  0
CIRCLE
  8
0
 10
-112.915039
 20
-7.092302
 40
2.849999
  0
CIRCLE
  8
0
 10
-112.915039
 20
-7.092302
 40
4.750000
  0
CIRCLE
  8
0
 10
-112.915039
 20
-7.092302
 40
5.250000
  0
CIRCLE
  8
0
 10
-112.915039
 20
16.407698
 40
5.250000
  0
CIRCLE
  8
0
 10
-112.915039
 20
39.907700
 40
5.250000
  0
ARC
  8
0
 10
-128.615036
 20
-8.042303
 40
0.300000
 50
90.000000
 51
180.000000
  0
ARC
  8
0
 10
-128.615036
 20
-3.142302
 40
0.300003
 50
180.000000
 51
270.000000
  0
ARC
  8
0
 10
-128.615036
 20
35.957695
 40
0.299999
 50
90.000000
 51
180.000000
  0
ARC
  8
0
 10
-128.615036
 20
40.857697
 40
0.300003
 50
180.000000
 51
270.000000
  0
ARC
  8
0
 10
-97.215042
 20
35.957695
 40
0.300003
 50
0.000000
 51
90.000000
  0
ARC
  8
0
 10
-97.215042
 20
40.857697
 40
0.299999
 50
270.000000
 51
0.000000
  0
CIRCLE
  8
0
 10
-19.915035
 20
-2.592302
 40
2.067000
  0
CIRCLE
  8
0
 10
-5.915035
 20
-2.592302
 40
2.067000
  0
CIRCLE
  8
0
 10
13.584965
 20
-2.592302
 40
2.067000
  0
CIRCLE
  8
0
 62
     2
 10
-19.915035
 20
-2.592302
 40
2.500000
  0
CIRCLE
  8
0
 62
     2
 10
13.584972
 20
-2.592302
 40
2.500000
  0
CIRCLE
  8
0
 62
     2
 10
-5.915035
 20
-2.592302
 40
2.500000
  0
CIRCLE
  8
0
  6
DASHED
 62
     2
 10
4.084980
 20
3.407698
 40
2.500000
  0
CIRCLE
  8
0
 10
4.084980
 20
3.407698
 40
2.099999
  0
CIRCLE
  8
0
 10
4.084980
 20
3.407698
 40
4.000000
  0
CIRCLE
  8
0
  6
DASHED
 62
     2
 10
-10.915035
 20
3.407698
 40
2.500000
  0
CIRCLE
  8
0
 10
-10.915035
 20
3.407698
 40
2.099999
  0
CIRCLE
  8
0
 10
-10.915035
 20
3.407698
 40
4.000000
  0
CIRCLE
  8
0
  6
DASHED
 62
     2
 10
4.084965
 20
29.407698
 40
2.500000
  0
CIRCLE
  8
0
 10
4.084965
 20
29.407698
 40
2.099999
  0
CIRCLE
  8
0
 10
4.084965
 20
29.407698
 40
4.000000
  0
CIRCLE
  8
0
  6
DASHED
 62
     2
 10
-10.915035
 20
29.407698
 40
2.500000
  0
CIRCLE
  8
0
 10
-10.915035
 20
29.407698
 40
2.099999
  0
CIRCLE
  8
0
 10
-10.915035
 20
29.407698
 40
4.000000
  0
ARC
  8
0
 10
-30.915039
 20
16.402699
 40
3.999279
 50
331.063690
 51
28.936306
  0
ARC
  8
0
 10
-5.332694
 20
-9.096994
 40
0.417658
 50
344.498932
 51
15.501067
  0
ARC
  8
0
 10
-5.487261
 20
-9.159327
 40
0.583564
 50
17.342861
 51
54.573101
  0
ARC
  8
0
 10
-5.915035
 20
-9.846820
 40
1.392632
 50
56.628216
 51
123.371788
  0
ARC
  8
0
 10
-6.342809
 20
-9.159327
 40
0.583564
 50
125.426895
 51
162.657135
  0
ARC
  8
0
 10
-6.497377
 20
-9.096994
 40
0.417658
 50
164.498932
 51
195.501068
  0
ARC
  8
0
 10
-6.342809
 20
-9.034662
 40
0.583564
 50
197.342865
 51
234.573105
  0
ARC
  8
0
 10
-5.915035
 20
-8.347169
 40
1.392632
 50
236.628220
 51
303.371796
  0
ARC
  8
0
 10
-5.487261
 20
-9.034662
 40
0.583564
 50
305.426910
 51
342.657135
  0
ARC
  8
0
 10
14.167315
 20
-9.096994
 40
0.417658
 50
344.498901
 51
15.501085
  0
ARC
  8
0
 10
14.012747
 20
-9.159327
 40
0.583564
 50
17.342876
 51
54.573139
  0
ARC
  8
0
 10
13.584972
 20
-9.846820
 40
1.392632
 50
56.628216
 51
123.371788
  0
ARC
  8
0
 10
13.157198
 20
-9.159327
 40
0.583563
 50
125.426857
 51
162.657120
  0
ARC
  8
0
 10
13.002630
 20
-9.096994
 40
0.417658
 50
164.498917
 51
195.501083
  0
ARC
  8
0
 10
13.157198
 20
-9.034662
 40
0.583564
 50
197.342880
 51
234.573135
  0
ARC
  8
0
 10
13.584972
 20
-8.347169
 40
1.392632
 50
236.628220
 51
303.371796
  0
ARC
  8
0
 10
14.012747
 20
-9.034662
 40
0.583563
 50
305.426849
 51
342.657135
  0
TEXT
  8
0
 10
-193.142654
 20
122.049995
 40
4.500000
  1
CS JIG CYLINDER WITH GUIDE
 50
0.000000
 41
1.052632
 51
0.000000
  7
STANDARD
  0
TEXT
  8
0
 62
     3
 10
-25.265656
 20
63.169857
 40
3.200000
  1
STRETCH LINE A
 50
0.000000
 41
1.052632
 51
0.000000
  7
STANDARD
  0
TEXT
  8
0
 10
-186.892654
 20
104.550003
 40
4.500000
  1
MODEL:CS-SGDAQ16*ST(10)
 50
0.000000
 41
1.052632
 51
0.000000
  7
STANDARD
  0
TEXT
  8
0
 10
-173.557007
 20
-121.379997
 40
3.200000
  1
B
 50
0.000000
 41
1.052632
 51
0.000000
  7
STANDARD
  0
TEXT
  8
0
 10
-96.657143
 20
-113.379997
 40
3.200000
  1
50
 50
0.000000
 41
1.052632
 51
0.000000
  7
STANDARD
  0
TEXT
  8
0
 10
-108.657143
 20
-113.379997
 40
3.200000
  1
25
 50
0.000000
 41
1.052632
 51
0.000000
  7
STANDARD
  0
TEXT
  8
0
 10
-96.657143
 20
-121.379997
 40
3.200000
  1
40
 50
0.000000
 41
1.052632
 51
0.000000
  7
STANDARD
  0
TEXT
  8
0
 10
-108.657143
 20
-121.379997
 40
3.200000
  1
40
 50
0.000000
 41
1.052632
 51
0.000000
  7
STANDARD
  0
TEXT
  8
0
 10
-119.057144
 20
-113.379997
 40
3.200000
  1
0
 50
0.000000
 41
1.052632
 51
0.000000
  7
STANDARD
  0
TEXT
  8
0
 10
-120.657143
 20
-121.379997
 40
3.200000
  1
35
 50
0.000000
 41
1.052632
 51
0.000000
  7
STANDARD
  0
TEXT
  8
0
 10
-131.057144
 20
-113.379997
 40
3.200000
  1
0
 50
0.000000
 41
1.052632
 51
0.000000
  7
STANDARD
  0
TEXT
  8
0
 10
-132.657135
 20
-121.379997
 40
3.200000
  1
25
 50
0.000000
 41
1.052632
 51
0.000000
  7
STANDARD
  0
TEXT
  8
0
 10
-144.657135
 20
-121.379997
 40
3.200000
  1
15
 50
0.000000
 41
1.052632
 51
0.000000
  7
STANDARD
  0
TEXT
  8
0
 10
-143.057144
 20
-113.379997
 40
3.200000
  1
0
 50
0.000000
 41
1.052632
 51
0.000000
  7
STANDARD
  0
TEXT
  8
0
 10
-155.157135
 20
-91.379997
 40
3.200000
  1
STRETCH LIST
 50
0.000000
 41
1.052632
 51
0.000000
  7
STANDARD
  0
TEXT
  8
0
 10
-99.857140
 20
-91.379997
 40
3.200000
  1
üiüvÝúÝ)
 50
0.000000
 41
0.833333
 51
0.000000
  7
STANDARD
  0
TEXT
  8
0
 10
-98.257156
 20
-101.879997
 40
3.200000
  1
100
 50
0.000000
 41
1.052632
 51
0.000000
  7
STANDARD
  0
TEXT
  8
0
 10
-108.657158
 20
-101.879997
 40
3.200000
  1
75
 50
0.000000
 41
1.052632
 51
0.000000
  7
STANDARD
  0
TEXT
  8
0
 10
-120.657158
 20
-101.879997
 40
3.200000
  1
50
 50
0.000000
 41
1.052632
 51
0.000000
  7
STANDARD
  0
TEXT
  8
0
 10
-132.657150
 20
-101.879997
 40
3.200000
  1
30
 50
0.000000
 41
1.052632
 51
0.000000
  7
STANDARD
  0
TEXT
  8
0
 10
-144.657150
 20
-101.879997
 40
3.200000
  1
20
 50
0.000000
 41
1.052632
 51
0.000000
  7
STANDARD
  0
TEXT
  8
0
 10
-155.057144
 20
-113.379997
 40
3.200000
  1
0
 50
0.000000
 41
1.052632
 51
0.000000
  7
STANDARD
  0
TEXT
  8
0
 10
-156.657150
 20
-101.879997
 40
3.200000
  1
10
 50
0.000000
 41
1.052632
 51
0.000000
  7
STANDARD
  0
TEXT
  8
0
 10
-155.057144
 20
-121.379997
 40
3.200000
  1
0
 50
0.000000
 41
1.052632
 51
0.000000
  7
STANDARD
  0
TEXT
  8
0
 10
-184.496872
 20
-101.019997
 40
3.200000
  1
STRETCH
 50
0.000000
 41
1.052632
 51
0.000000
  7
STANDARD
  0
TEXT
  8
0
 10
-184.496872
 20
-105.820000
 40
3.200000
  1
  PLACE
 50
0.000000
 41
1.052632
 51
0.000000
  7
STANDARD
  0
TEXT
  8
0
 10
-173.557144
 20
-113.379997
 40
3.200000
  1
A
 50
0.000000
 41
1.052632
 51
0.000000
  7
STANDARD
  0
TEXT
  8
0
 10
-181.557144
 20
-96.879997
 40
3.200000
  1
STROKE
 50
0.000000
 41
1.052632
 51
0.000000
  7
STANDARD
  0
TEXT
  8
0
 62
     3
 10
-0.410164
 20
57.212723
 40
3.200000
  1
STRETCH LINE B
 50
0.000000
 41
1.052632
 51
0.000000
  7
STANDARD
  0
TEXT
  8
0
 10
113.700287
 20
-130.669998
 40
6.300000
  1
KOGANEI CORP.
 50
0.000000
 41
1.052632
 51
0.000000
  7
STANDARD
  0
TEXT
  8
0
 10
133.907150
 20
122.050003
 40
4.500000
  1
éuéàéÆüDü@éPüDéO
 50
0.000000
 41
0.833333
 51
0.000000
  7
STANDARD
  0
TEXT
  8
0
 62
     2
 10
35.888474
 20
-31.944206
 40
3.200000
  1
ST=75,100
 50
0.000000
 41
1.052632
 51
0.000000
  7
STANDARD
  0
LINE
  8
0
 62
     2
 10
34.084965
 20
-32.944206
 11
64.438477
 21
-32.944206
  0
LINE
  8
0
 62
     2
 10
34.084965
 20
-32.944206
 11
21.084963
 21
-32.944206
  0
LINE
  8
0
 62
     2
 10
34.084965
 20
-32.944206
 11
31.187187
 21
-33.720665
  0
LINE
  8
0
 62
     2
 10
34.084965
 20
-32.944206
 11
31.187187
 21
-32.167747
  0
LINE
  8
0
 62
     2
 10
21.084963
 20
-32.944206
 11
23.982740
 21
-32.167747
  0
LINE
  8
0
 62
     2
 10
21.084963
 20
-32.944206
 11
23.982740
 21
-33.720665
  0
LINE
  8
0
 62
     2
 10
34.084965
 20
-10.592303
 11
34.084965
 21
-34.444206
  0
LINE
  8
0
 62
     2
 10
21.084963
 20
-17.092302
 11
21.084963
 21
-34.444206
  0
ENDSEC
  0
EOF
