  0
SECTION
  2
HEADER
  0
ENDSEC
  0
SECTION
  2
TABLES
  0
TABLE
  2
LTYPE
 70
     4
  0
LTYPE
  2
CONTINUOUS
 70
    64
  3
Solid line
 72
    65
 73
     0
 40
0.000000
  0
LTYPE
  2
DASHED
 70
    64
  3
__ __ __ __ __ __ __ __ __ __ __ __ __ __ __
 72
    65
 73
     2
 40
3.500000
 49
2.000000
 49
-1.500000
  0
LTYPE
  2
CENTER
 70
    64
  3
____ _ ____ _ ____ _ ____ _ ____ _ ____ _ ____
 72
    65
 73
     4
 40
17.500000
 49
13.000000
 49
-1.500000
 49
1.500000
 49
-1.500000
  0
LTYPE
  2
PHANTOM
 70
    64
  3
_____ _ _ _____ _ _ _____ _ _ _____ _ _ ____  
 72
    65
 73
     6
 40
15.500000
 49
8.000000
 49
-1.500000
 49
1.500000
 49
-1.500000
 49
1.500000
 49
-1.500000
  0
LTYPE
  2
DASHED1
 70
    64
  3
__ __ __ __ __ __ __ __ __ __ __ __ __ __ __
 72
    65
 73
     2
 40
1.500000
 49
1.000000
 49
-0.500000
  0
LTYPE
  2
DASHED2
 70
    64
  3
__ __ __ __ __ __ __ __ __ __ __ __ __ __ __
 72
    65
 73
     2
 40
3.500000
 49
2.500000
 49
-1.000000
  0
LTYPE
  2
DASHED3
 70
    64
  3
__ __ __ __ __ __ __ __ __ __ __ __ __ __ __
 72
    65
 73
     2
 40
6.000000
 49
4.000000
 49
-2.000000
  0
LTYPE
  2
DASHED4
 70
    64
  3
__ __ __ __ __ __ __ __ __ __ __ __ __ __ __
 72
    65
 73
     2
 40
12.000000
 49
10.000000
 49
-2.000000
  0
LTYPE
  2
DASHED5
 70
    64
  3
__ __ __ __ __ __ __ __ __ __ __ __ __ __ __
 72
    65
 73
     2
 40
17.000000
 49
15.000000
 49
-2.000000
  0
LTYPE
  2
DASHED6
 70
    64
  3
__ __ __ __ __ __ __ __ __ __ __ __ __ __ __
 72
    65
 73
     2
 40
29.000000
 49
27.000000
 49
-2.000000
  0
LTYPE
  2
PHANTOM1
 70
    64
  3
_____ _ _ _____ _ _ _____ _ _ _____ _ _ ____  
 72
    65
 73
     6
 40
31.000000
 49
25.000000
 49
-1.500000
 49
1.000000
 49
-1.000000
 49
1.000000
 49
-1.500000
  0
LTYPE
  2
PHANTOM2
 70
    64
  3
_____ _ _ _____ _ _ _____ _ _ _____ _ _ ____  
 72
    65
 73
     6
 40
36.000000
 49
27.000000
 49
-1.500000
 49
2.500000
 49
-1.000000
 49
2.500000
 49
-1.500000
  0
LTYPE
  2
PHANTOM3
 70
    64
  3
_____ _ _ _____ _ _ _____ _ _ _____ _ _ ____  
 72
    65
 73
     6
 40
78.000000
 49
64.000000
 49
-2.000000
 49
4.000000
 49
-2.000000
 49
4.000000
 49
-2.000000
  0
LTYPE
  2
CENTER1
 70
    64
  3
____ _ ____ _ ____ _ ____ _ ____ _ ____ _ ____
 72
    65
 73
     4
 40
19.000000
 49
14.000000
 49
-1.000000
 49
3.000000
 49
-1.000000
  0
LTYPE
  2
CENTER2
 70
    64
  3
____ _ ____ _ ____ _ ____ _ ____ _ ____ _ ____
 72
    65
 73
     4
 40
28.500000
 49
25.000000
 49
-1.000000
 49
1.500000
 49
-1.000000
  0
LTYPE
  2
CENTER3
 70
    64
  3
____ _ ____ _ ____ _ ____ _ ____ _ ____ _ ____
 72
    65
 73
     4
 40
31.500000
 49
27.000000
 49
-1.000000
 49
2.500000
 49
-1.000000
  0
LTYPE
  2
CENTER4
 70
    64
  3
____ _ ____ _ ____ _ ____ _ ____ _ ____ _ ____
 72
    65
 73
     4
 40
50.000000
 49
45.000000
 49
-1.000000
 49
3.000000
 49
-1.000000
  0
LTYPE
  2
CENTER5
 70
    64
  3
____ _ ____ _ ____ _ ____ _ ____ _ ____ _ ____
 72
    65
 73
     4
 40
100.000000
 49
92.000000
 49
-2.000000
 49
4.000000
 49
-2.000000
  0
LTYPE
  2
SBK1
 70
    64
  3
______ _ _ _ ______ _ _ _ ______ _ _ _ _____  
 72
    65
 73
     8
 40
60.500000
 49
45.000000
 49
-2.000000
 49
2.500000
 49
-2.000000
 49
2.500000
 49
-2.000000
 49
2.500000
 49
-2.000000
  0
LTYPE
  2
SBK2
 70
    64
  3
______ _ _ _ ______ _ _ _ ______ _ _ _ _____  
 72
    65
 73
     8
 40
84.000000
 49
64.000000
 49
-2.000000
 49
4.000000
 49
-2.000000
 49
4.000000
 49
-2.000000
 49
4.000000
 49
-2.000000
  0
LTYPE
  2
STCH
 70
    64
  3
__ __ __ __ __ __ __ __ __ __ __ __ __ __ __
 72
    65
 73
     2
 40
3.000000
 49
1.000000
 49
-2.000000
  0
LTYPE
  2
MTCH
 70
    64
  3
_____ _ _ _____ _ _ _____ _ _ _____ _ _ ____  
 72
    65
 73
     6
 40
80.000000
 49
66.000000
 49
-2.000000
 49
4.000000
 49
-2.000000
 49
4.000000
 49
-2.000000
  0
ENDTAB
  0
TABLE
  2
LAYER
 70
     1
  0
LAYER
  2
0
 70
     0
 62
     7
  6
CONTINUOUS
  0
ENDTAB
  0
TABLE
  2
STYLE
 70
     1
  0
STYLE
  2
STANDARD
 70
     0
 40
0.000000
 41
1.000000
 50
0.000000
 71
     0
 42
0.200000
  3
txt
  4
BIGFONT
  0
ENDTAB
  0
TABLE
  2
VIEW
 70
     0
  0
ENDTAB
  0
ENDSEC
  0
SECTION
  2
BLOCKS
  0
ENDSEC
  0
SECTION
  2
ENTITIES
  0
LINE
  8
0
  6
DASHED
 62
     2
 10
126.334961
 20
-21.062302
 11
126.334961
 21
-25.312302
  0
LINE
  8
0
  6
DASHED
 62
     2
 10
130.334961
 20
-21.062302
 11
130.334961
 21
-25.312302
  0
LINE
  8
0
  6
DASHED
 62
     2
 10
125.834961
 20
-21.062302
 11
125.834961
 21
-25.312302
  0
LINE
  8
0
  6
DASHED
 62
     2
 10
130.834961
 20
-21.062302
 11
130.834961
 21
-25.312302
  0
LINE
  8
0
 10
160.834961
 20
-8.662303
 11
160.834961
 21
-13.962302
  0
LINE
  8
0
 10
160.834961
 20
24.122480
 11
160.834961
 21
7.248567
  0
LINE
  8
0
 10
122.834961
 20
24.120012
 11
122.834961
 21
7.251017
  0
LINE
  8
0
 10
122.834961
 20
44.837696
 11
122.834961
 21
40.537697
  0
LINE
  8
0
 10
160.834961
 20
45.337696
 11
160.834961
 21
40.037697
  0
LINE
  8
0
  6
CENTER
 62
     2
 10
124.834961
 20
42.687698
 11
130.184967
 21
42.687698
  0
LINE
  8
0
  6
CENTER
 62
     2
 10
150.454956
 20
-20.312302
 11
158.904968
 21
-20.312302
  0
LINE
  8
0
  6
CENTER
 62
     2
 10
154.834961
 20
-16.262302
 11
154.834961
 21
-24.372303
  0
LINE
  8
0
  6
CENTER
 62
     2
 10
127.934959
 20
-11.312303
 11
131.794968
 21
-11.312303
  0
LINE
  8
0
  6
CENTER
 62
     2
 10
128.334961
 20
-21.062302
 11
128.334961
 21
-26.192303
  0
LINE
  8
0
  6
CENTER
 62
     2
 10
129.834961
 20
-9.452302
 11
129.834961
 21
-13.262303
  0
LINE
  8
0
 10
149.814957
 20
-12.812303
 11
154.334961
 21
-12.812303
  0
LINE
  8
0
 10
149.024963
 20
-9.812303
 11
154.334961
 21
-9.812303
  0
LINE
  8
0
 10
149.024963
 20
41.187698
 11
154.334961
 21
41.187698
  0
LINE
  8
0
 10
149.814957
 20
44.187698
 11
154.334961
 21
44.187698
  0
LINE
  8
0
  6
CENTER
 62
     2
 10
153.014954
 20
42.687698
 11
156.384964
 21
42.687698
  0
LINE
  8
0
  6
CENTER
 62
     2
 10
153.144958
 20
-11.312303
 11
155.994965
 21
-11.312303
  0
LINE
  8
0
 10
154.334961
 20
-7.162303
 11
154.334961
 21
-15.462302
  0
LINE
  8
0
  6
DASHED
 62
     2
 10
133.054962
 20
-22.372303
 11
133.194962
 21
-25.312304
  0
LINE
  8
0
  6
DASHED
 62
     2
 10
132.614960
 20
-22.372303
 11
132.614960
 21
-25.312302
  0
LINE
  8
0
  6
DASHED
 62
     2
 10
124.044960
 20
-22.372303
 11
124.044960
 21
-25.312302
  0
LINE
  8
0
  6
DASHED
 62
     2
 10
123.604958
 20
-22.372301
 11
123.464958
 21
-25.312304
  0
LINE
  8
0
 10
121.834953
 20
-24.312304
 11
122.834961
 21
-25.312304
  0
LINE
  8
0
 10
121.834961
 20
-24.312302
 11
121.834961
 21
6.687697
  0
LINE
  8
0
 10
124.834961
 20
44.837696
 11
124.834961
 21
46.337696
  0
LINE
  8
0
 10
121.834961
 20
40.537697
 11
121.834961
 21
24.687698
  0
LINE
  8
0
 10
124.834961
 20
39.037697
 11
128.834961
 21
39.037697
  0
LINE
  8
0
 10
124.834961
 20
46.337696
 11
128.834961
 21
46.337696
  0
LINE
  8
0
 10
128.834961
 20
46.337696
 11
128.834961
 21
39.037697
  0
LINE
  8
0
 10
124.834961
 20
40.537697
 11
124.834961
 21
39.037697
  0
LINE
  8
0
 10
121.834961
 20
40.537697
 11
124.834961
 21
40.537697
  0
LINE
  8
0
 10
121.834961
 20
44.837696
 11
124.834961
 21
44.837696
  0
LINE
  8
0
 10
161.834961
 20
-23.312302
 11
161.834961
 21
-13.962302
  0
LINE
  8
0
 10
158.834961
 20
-13.962302
 11
161.834961
 21
-13.962302
  0
LINE
  8
0
 10
158.834961
 20
-15.462302
 11
158.834961
 21
-13.962302
  0
LINE
  8
0
 10
154.334961
 20
-15.462302
 11
158.834961
 21
-15.462302
  0
LINE
  8
0
 10
154.334961
 20
-7.162303
 11
158.834961
 21
-7.162303
  0
LINE
  8
0
 10
158.834961
 20
-8.662303
 11
158.834961
 21
-7.162303
  0
LINE
  8
0
 10
158.834961
 20
-8.662303
 11
161.834961
 21
-8.662303
  0
LINE
  8
0
 10
161.834961
 20
-8.662303
 11
161.834961
 21
6.687697
  0
LINE
  8
0
 10
161.834961
 20
40.037697
 11
161.834961
 21
24.687698
  0
LINE
  8
0
 10
158.834961
 20
40.037697
 11
161.834961
 21
40.037697
  0
LINE
  8
0
 10
158.834961
 20
40.037697
 11
158.834961
 21
38.537697
  0
LINE
  8
0
 10
154.334961
 20
38.537697
 11
158.834961
 21
38.537697
  0
LINE
  8
0
 10
154.334961
 20
46.837696
 11
154.334961
 21
38.537697
  0
LINE
  8
0
 10
158.834961
 20
45.337696
 11
161.834961
 21
45.337696
  0
LINE
  8
0
 10
154.334961
 20
46.837696
 11
158.834961
 21
46.837696
  0
LINE
  8
0
 10
158.834961
 20
46.837696
 11
158.834961
 21
45.337696
  0
LINE
  8
0
 10
161.834961
 20
54.687698
 11
161.834961
 21
45.337696
  0
LINE
  8
0
  6
CENTER
 62
     2
 10
154.834961
 20
47.637699
 11
154.834961
 21
55.747700
  0
LINE
  8
0
  6
CENTER
 62
     2
 10
128.834961
 20
47.637699
 11
128.834961
 21
56.097698
  0
LINE
  8
0
  6
CENTER
 62
     2
 10
150.844955
 20
51.687698
 11
158.904968
 21
51.687698
  0
LINE
  8
0
  6
CENTER
 62
     2
 10
124.454964
 20
-20.312302
 11
132.904968
 21
-20.312302
  0
LINE
  8
0
 10
159.534943
 20
7.977703
 11
161.834961
 21
6.687701
  0
LINE
  8
0
 10
159.534958
 20
10.087698
 11
159.534958
 21
7.977697
  0
LINE
  8
0
 10
159.534958
 20
10.087698
 11
159.034958
 21
10.087698
  0
LINE
  8
0
 10
159.534958
 20
13.287697
 11
159.034958
 21
13.287697
  0
LINE
  8
0
 10
159.534958
 20
18.087698
 11
159.534958
 21
13.287697
  0
LINE
  8
0
 10
159.534958
 20
18.087698
 11
159.034958
 21
18.087698
  0
LINE
  8
0
 10
159.534958
 20
21.287697
 11
159.034958
 21
21.287697
  0
LINE
  8
0
 10
159.534958
 20
23.387697
 11
159.534958
 21
21.287697
  0
LINE
  8
0
 10
159.534958
 20
23.387697
 11
161.834961
 21
24.687695
  0
LINE
  8
0
 10
124.124962
 20
10.087698
 11
124.124962
 21
7.977697
  0
LINE
  8
0
 10
124.124962
 20
18.087698
 11
124.124962
 21
13.287697
  0
LINE
  8
0
 10
124.124962
 20
23.387697
 11
124.124962
 21
21.287697
  0
LINE
  8
0
 10
124.124962
 20
23.387691
 11
121.834953
 21
24.687695
  0
LINE
  8
0
 10
124.124962
 20
7.977695
 11
121.834961
 21
6.687694
  0
LINE
  8
0
 10
121.834961
 20
54.687698
 11
121.834961
 21
44.837696
  0
LINE
  8
0
  6
CENTER
 62
     2
 10
128.834961
 20
-16.262302
 11
128.834961
 21
-24.372303
  0
LINE
  8
0
 10
159.034958
 20
13.287701
 11
158.534958
 21
13.787701
  0
LINE
  8
0
 10
158.534958
 20
13.787698
 11
156.934967
 21
13.787698
  0
LINE
  8
0
 10
158.534958
 20
9.587698
 11
156.934967
 21
9.587698
  0
LINE
  8
0
 10
159.034958
 20
10.087698
 11
158.534958
 21
9.587697
  0
LINE
  8
0
 10
159.034958
 20
18.087696
 11
158.534958
 21
17.587694
  0
LINE
  8
0
 10
158.534958
 20
17.587698
 11
156.934967
 21
17.587698
  0
LINE
  8
0
 10
158.534958
 20
21.787697
 11
156.934967
 21
21.787697
  0
LINE
  8
0
 10
159.034958
 20
21.287695
 11
158.534958
 21
21.787695
  0
LINE
  8
0
 10
124.124962
 20
13.287697
 11
124.624962
 21
13.287697
  0
LINE
  8
0
 10
124.624954
 20
13.287697
 11
125.124954
 21
13.787697
  0
LINE
  8
0
 10
125.124962
 20
13.787698
 11
126.724960
 21
13.787698
  0
LINE
  8
0
 10
125.124962
 20
9.587698
 11
126.724960
 21
9.587698
  0
LINE
  8
0
 10
124.624954
 20
10.087698
 11
125.124954
 21
9.587697
  0
LINE
  8
0
 10
124.124962
 20
10.087698
 11
124.624962
 21
10.087698
  0
LINE
  8
0
 10
125.124962
 20
17.587698
 11
126.724960
 21
17.587698
  0
LINE
  8
0
 10
124.624954
 20
18.087696
 11
125.124954
 21
17.587694
  0
LINE
  8
0
 10
124.124962
 20
18.087698
 11
124.624962
 21
18.087698
  0
LINE
  8
0
 10
124.624962
 20
21.287701
 11
125.124962
 21
21.787701
  0
LINE
  8
0
 10
124.124962
 20
21.287697
 11
124.624962
 21
21.287697
  0
LINE
  8
0
 10
125.124962
 20
21.787697
 11
126.724960
 21
21.787697
  0
LINE
  8
0
 10
159.834961
 20
56.687702
 11
161.834961
 21
54.687698
  0
LINE
  8
0
 10
159.834961
 20
-25.312300
 11
161.834961
 21
-23.312302
  0
LINE
  8
0
 10
123.834961
 20
56.687695
 11
121.834953
 21
54.687695
  0
LINE
  8
0
  6
CENTER
 62
     2
 10
131.034958
 20
-13.312303
 11
153.024963
 21
-13.312303
  0
LINE
  8
0
  6
CENTER
 62
     2
 10
120.294960
 20
15.687697
 11
162.964966
 21
15.687697
  0
LINE
  8
0
  6
CENTER
 62
     2
 10
124.744965
 20
51.687698
 11
133.184967
 21
51.687698
  0
LINE
  8
0
  6
CENTER
 62
     2
 10
131.874954
 20
44.687698
 11
152.324966
 21
44.687698
  0
LINE
  8
0
 10
123.834961
 20
56.687698
 11
159.834961
 21
56.687698
  0
LINE
  8
0
 10
122.834961
 20
-25.312302
 11
159.834961
 21
-25.312302
  0
LINE
  8
0
  6
CENTER
 62
     2
 10
141.834961
 20
59.347698
 11
141.834961
 21
-28.622303
  0
LINE
  8
0
 10
-85.165039
 20
-24.312300
 11
-85.665039
 21
-24.812302
  0
LINE
  8
0
 10
-122.665039
 20
-24.812302
 11
-85.665039
 21
-24.812302
  0
LINE
  8
0
 10
-122.665039
 20
56.187698
 11
-85.665039
 21
56.187698
  0
LINE
  8
0
 10
-123.165039
 20
55.687698
 11
-123.165039
 21
-24.312302
  0
LINE
  8
0
 10
-85.165039
 20
55.687698
 11
-85.165039
 21
-24.312302
  0
LINE
  8
0
  6
CENTER
 62
     2
 10
-111.415039
 20
-13.312303
 11
-96.865036
 21
-13.312303
  0
LINE
  8
0
  6
CENTER
 62
     2
 10
-96.265038
 20
-17.312302
 11
-87.875038
 21
-17.312302
  0
LINE
  8
0
  6
CENTER
 62
     2
 10
-111.555038
 20
44.687698
 11
-96.585037
 21
44.687698
  0
LINE
  8
0
  6
CENTER
 62
     2
 10
-96.935036
 20
48.687698
 11
-87.295036
 21
48.687698
  0
LINE
  8
0
  6
CENTER
 62
     2
 10
-92.165039
 20
53.487698
 11
-92.165039
 21
43.997696
  0
LINE
  8
0
  6
CENTER
 62
     2
 10
-116.165039
 20
53.557697
 11
-116.165039
 21
43.787697
  0
LINE
  8
0
  6
CENTER
 62
     2
 10
-125.405037
 20
15.687697
 11
-82.635040
 21
15.687697
  0
LINE
  8
0
  6
CENTER
 62
     2
 10
-104.165039
 20
59.757698
 11
-104.165039
 21
-28.202301
  0
LINE
  8
0
 10
-122.165039
 20
54.687698
 11
-122.165039
 21
-23.312302
  0
LINE
  8
0
 10
-86.165039
 20
54.687698
 11
-86.165039
 21
-23.312302
  0
LINE
  8
0
 10
-102.165039
 20
-12.152303
 11
-102.165039
 21
-14.462302
  0
LINE
  8
0
 10
-102.165039
 20
-14.462304
 11
-104.165039
 21
-15.612303
  0
LINE
  8
0
 10
-104.165039
 20
-15.612301
 11
-106.165039
 21
-14.462302
  0
LINE
  8
0
 10
-106.165039
 20
-12.152303
 11
-106.165039
 21
-14.462302
  0
LINE
  8
0
 10
-104.165039
 20
-11.002305
 11
-106.165039
 21
-12.152304
  0
LINE
  8
0
 10
-104.165039
 20
-11.002303
 11
-102.165039
 21
-12.152302
  0
LINE
  8
0
 10
-102.165039
 20
16.837698
 11
-102.165039
 21
14.527698
  0
LINE
  8
0
 10
-102.165039
 20
14.527695
 11
-104.165039
 21
13.377696
  0
LINE
  8
0
 10
-104.165039
 20
13.377701
 11
-106.165039
 21
14.527699
  0
LINE
  8
0
 10
-106.165039
 20
16.837698
 11
-106.165039
 21
14.527698
  0
LINE
  8
0
 10
-104.165039
 20
17.987694
 11
-106.165031
 21
16.837696
  0
LINE
  8
0
 10
-104.165039
 20
17.987700
 11
-102.165031
 21
16.837696
  0
LINE
  8
0
 10
-104.165047
 20
46.987698
 11
-102.165039
 21
45.837696
  0
LINE
  8
0
 10
-102.165039
 20
45.837696
 11
-102.165039
 21
43.527699
  0
LINE
  8
0
 10
-102.165039
 20
43.527702
 11
-104.165047
 21
42.377697
  0
LINE
  8
0
 10
-104.165039
 20
42.377693
 11
-106.165047
 21
43.527699
  0
LINE
  8
0
 10
-106.165039
 20
45.837696
 11
-106.165039
 21
43.527699
  0
LINE
  8
0
 10
-104.165039
 20
46.987701
 11
-106.165039
 21
45.837700
  0
LINE
  8
0
  6
CENTER
 62
     2
 10
-92.165039
 20
-21.912300
 11
-92.165039
 21
-12.822303
  0
LINE
  8
0
  6
CENTER
 62
     2
 10
-121.585037
 20
48.687698
 11
-110.195038
 21
48.687698
  0
LINE
  8
0
  6
CENTER
 62
     2
 10
-120.825043
 20
-17.312302
 11
-111.595039
 21
-17.312302
  0
LINE
  8
0
  6
CENTER
 62
     2
 10
-116.165039
 20
-21.862301
 11
-116.165039
 21
-12.822303
  0
LINE
  8
0
 10
-86.165039
 20
-23.312302
 11
-87.165039
 21
-24.312304
  0
LINE
  8
0
 10
-122.165039
 20
-23.312307
 11
-121.165039
 21
-24.312304
  0
LINE
  8
0
 10
-87.165039
 20
55.687698
 11
-86.165039
 21
54.687695
  0
LINE
  8
0
 10
-121.165039
 20
55.687698
 11
-122.165039
 21
54.687698
  0
LINE
  8
0
 10
-121.165039
 20
-24.312302
 11
-87.165039
 21
-24.312302
  0
LINE
  8
0
 10
-121.165039
 20
55.687698
 11
-87.165039
 21
55.687698
  0
LINE
  8
0
 10
-84.165039
 20
-24.312300
 11
-85.165039
 21
-25.312302
  0
LINE
  8
0
 10
-124.165039
 20
-23.312302
 11
-124.165039
 21
-13.962302
  0
LINE
  8
0
 10
-124.165039
 20
-8.662303
 11
-124.165039
 21
6.687697
  0
LINE
  8
0
 10
-123.165039
 20
-8.662303
 11
-124.165039
 21
-8.662303
  0
LINE
  8
0
 10
-123.165039
 20
-13.962302
 11
-124.165039
 21
-13.962302
  0
LINE
  8
0
 10
-84.165039
 20
40.537697
 11
-84.165039
 21
24.687698
  0
LINE
  8
0
 10
-84.165039
 20
44.837696
 11
-85.165039
 21
44.837696
  0
LINE
  8
0
 10
-84.165039
 20
40.537697
 11
-85.165039
 21
40.537697
  0
LINE
  8
0
 10
-123.165039
 20
40.037697
 11
-124.165039
 21
40.037697
  0
LINE
  8
0
 10
-123.165039
 20
45.337696
 11
-124.165039
 21
45.337696
  0
LINE
  8
0
 10
-123.165039
 20
7.252700
 11
-124.165039
 21
6.687699
  0
LINE
  8
0
 10
-123.165047
 20
24.122694
 11
-124.165039
 21
24.687695
  0
LINE
  8
0
 10
-85.165039
 20
24.122700
 11
-84.165039
 21
24.687700
  0
LINE
  8
0
 10
-85.165039
 20
7.252699
 11
-84.165039
 21
6.687699
  0
LINE
  8
0
 10
-84.165039
 20
54.687698
 11
-84.165039
 21
44.837696
  0
LINE
  8
0
 10
-122.165039
 20
56.687698
 11
-124.165039
 21
54.687698
  0
LINE
  8
0
 10
-122.165039
 20
-25.312300
 11
-124.165031
 21
-23.312302
  0
LINE
  8
0
 10
-86.165039
 20
56.687695
 11
-84.165039
 21
54.687698
  0
LINE
  8
0
 10
-124.165039
 20
40.037697
 11
-124.165039
 21
24.687698
  0
LINE
  8
0
 10
-84.165039
 20
6.687697
 11
-84.165039
 21
-24.312302
  0
LINE
  8
0
 10
-86.165039
 20
56.687698
 11
-122.165039
 21
56.687698
  0
LINE
  8
0
 10
-85.165039
 20
-25.312302
 11
-122.165039
 21
-25.312302
  0
LINE
  8
0
 10
-124.165039
 20
54.687698
 11
-124.165039
 21
45.337696
  0
LINE
  8
0
  6
CENTER
 62
     2
 10
8.834963
 20
-20.862301
 11
8.834963
 21
-26.222301
  0
LINE
  8
0
  6
DASHED
 62
     2
 10
-8.165037
 20
-20.324558
 11
-8.165037
 21
-24.812302
  0
LINE
  8
0
  6
DASHED
 62
     2
 10
-4.165037
 20
-20.180901
 11
-4.165037
 21
-24.812302
  0
LINE
  8
0
  6
DASHED
 62
     2
 10
-8.665037
 20
-20.324558
 11
-8.665037
 21
-24.812302
  0
LINE
  8
0
  6
DASHED
 62
     2
 10
-3.665037
 20
-20.180901
 11
-3.665037
 21
-24.812302
  0
LINE
  8
0
  6
CENTER
 62
     2
 10
-9.858294
 20
-11.312303
 11
-2.165037
 21
-11.312303
  0
LINE
  8
0
  6
CENTER
 62
     2
 10
-6.165037
 20
-7.826188
 11
-6.165037
 21
-15.061664
  0
LINE
  8
0
 10
-12.165037
 20
-24.312304
 11
-11.665036
 21
-24.812304
  0
LINE
  8
0
 10
-11.665033
 20
56.187698
 11
-12.165034
 21
55.687698
  0
LINE
  8
0
 10
-11.665037
 20
-24.812302
 11
-2.165037
 21
-24.812302
  0
LINE
  8
0
 10
-11.665037
 20
56.187698
 11
-2.165037
 21
56.187698
  0
LINE
  8
0
 10
-12.165037
 20
55.687698
 11
-12.165037
 21
-24.312302
  0
LINE
  8
0
 10
-16.165037
 20
-19.312302
 11
-12.165037
 21
-19.312302
  0
LINE
  8
0
 10
-16.165037
 20
-7.312303
 11
-12.165037
 21
-7.312303
  0
LINE
  8
0
 10
-16.165037
 20
38.687698
 11
-12.165037
 21
38.687698
  0
LINE
  8
0
 10
-16.165037
 20
50.687698
 11
-12.165037
 21
50.687698
  0
LINE
  8
0
 10
-2.165037
 20
40.537697
 11
43.834961
 21
40.537697
  0
LINE
  8
0
 10
-2.165037
 20
44.837696
 11
43.834961
 21
44.837696
  0
LINE
  8
0
  6
CENTER
 62
     2
 10
17.474962
 20
30.687698
 11
30.114962
 21
30.687698
  0
LINE
  8
0
  6
CENTER
 62
     2
 10
23.834963
 20
36.797699
 11
23.834963
 21
24.407698
  0
LINE
  8
0
  6
CENTER
 62
     2
 10
3.834963
 20
36.927696
 11
3.834963
 21
24.407698
  0
LINE
  8
0
  6
CENTER
 62
     2
 10
23.834963
 20
-20.862301
 11
23.834963
 21
-26.222301
  0
LINE
  8
0
  6
CENTER
 62
     2
 10
8.834963
 20
-5.312303
 11
8.834963
 21
-17.615593
  0
LINE
  8
0
  6
DASHED
 62
     2
 10
28.114962
 20
-22.372303
 11
28.114962
 21
-25.312302
  0
LINE
  8
0
  6
DASHED
 62
     2
 10
28.554964
 20
-22.372305
 11
28.694963
 21
-25.312304
  0
LINE
  8
0
  6
DASHED
 62
     2
 10
19.114964
 20
-22.372301
 11
18.974964
 21
-25.312302
  0
LINE
  8
0
  6
DASHED
 62
     2
 10
19.554964
 20
-22.372303
 11
19.554964
 21
-25.312302
  0
LINE
  8
0
  6
DASHED
 62
     2
 10
13.564960
 20
-22.372301
 11
13.704961
 21
-25.312302
  0
LINE
  8
0
  6
CENTER
 62
     2
 10
2.944963
 20
-11.312303
 11
14.774961
 21
-11.312303
  0
LINE
  8
0
  6
DASHED
 62
     2
 10
13.124964
 20
-22.372303
 11
13.124964
 21
-25.312302
  0
LINE
  8
0
  6
DASHED
 62
     2
 10
4.114964
 20
-22.372305
 11
3.974965
 21
-25.312304
  0
LINE
  8
0
  6
DASHED
 62
     2
 10
4.554964
 20
-22.372303
 11
4.554964
 21
-25.312302
  0
LINE
  8
0
  6
CENTER
 62
     2
 10
33.834961
 20
-5.002303
 11
33.834961
 21
-17.586266
  0
LINE
  8
0
 10
-2.165035
 20
-24.812304
 11
-1.665035
 21
-25.312304
  0
LINE
  8
0
 10
43.834965
 20
-24.812304
 11
43.334965
 21
-25.312304
  0
LINE
  8
0
  6
CENTER
 62
     2
 10
27.964964
 20
-11.312303
 11
39.653290
 21
-11.312303
  0
LINE
  8
0
 10
-2.165037
 20
-24.312302
 11
43.834961
 21
-24.312302
  0
LINE
  8
0
 10
-2.165037
 20
6.687697
 11
43.834961
 21
6.687697
  0
LINE
  8
0
 10
-2.165037
 20
8.277698
 11
43.834961
 21
8.277698
  0
LINE
  8
0
 10
-2.165037
 20
10.087698
 11
43.834961
 21
10.087698
  0
LINE
  8
0
 10
-2.165037
 20
13.287697
 11
43.834961
 21
13.287697
  0
LINE
  8
0
  6
CENTER
 62
     2
 10
17.904963
 20
0.687697
 11
29.994963
 21
0.687697
  0
LINE
  8
0
 10
-1.665037
 20
-25.312302
 11
43.334961
 21
-25.312302
  0
LINE
  8
0
  6
CENTER
 62
     2
 10
-30.455036
 20
15.687697
 11
46.064964
 21
15.687697
  0
LINE
  8
0
 10
43.834961
 20
56.187698
 11
43.834961
 21
-24.812302
  0
LINE
  8
0
 10
-2.165037
 20
56.187698
 11
-2.165037
 21
-24.812302
  0
LINE
  8
0
  6
CENTER
 62
     2
 10
-1.756662
 20
0.687697
 11
9.954962
 21
0.687697
  0
LINE
  8
0
  6
CENTER
 62
     2
 10
3.834963
 20
6.727697
 11
3.834963
 21
-5.352304
  0
LINE
  8
0
  6
CENTER
 62
     2
 10
23.834963
 20
6.727697
 11
23.834963
 21
-5.182303
  0
LINE
  8
0
  6
DASHED
 62
     2
 10
60.334961
 20
50.687698
 11
60.334961
 21
38.687698
  0
LINE
  8
0
  6
DASHED
 62
     2
 10
60.834961
 20
39.187695
 11
60.334965
 21
38.687698
  0
LINE
  8
0
  6
DASHED
 62
     2
 10
60.334961
 20
50.687695
 11
60.834961
 21
50.187695
  0
LINE
  8
0
  6
DASHED
 62
     2
 10
60.834961
 20
50.187698
 11
60.834961
 21
39.187698
  0
LINE
  8
0
  6
DASHED
 62
     2
 10
43.834961
 20
38.687698
 11
60.334961
 21
38.687698
  0
LINE
  8
0
  6
DASHED
 62
     2
 10
43.834961
 20
50.687698
 11
60.334961
 21
50.687698
  0
LINE
  8
0
  6
DASHED
 62
     2
 10
60.334961
 20
-7.312303
 11
60.334961
 21
-19.312302
  0
LINE
  8
0
  6
DASHED
 62
     2
 10
60.834965
 20
-18.812305
 11
60.334965
 21
-19.312305
  0
LINE
  8
0
  6
DASHED
 62
     2
 10
60.334965
 20
-7.312303
 11
60.834969
 21
-7.812304
  0
LINE
  8
0
  6
DASHED
 62
     2
 10
60.834961
 20
-7.812303
 11
60.834961
 21
-18.812302
  0
LINE
  8
0
  6
DASHED
 62
     2
 10
43.834961
 20
-19.312302
 11
60.334961
 21
-19.312302
  0
LINE
  8
0
  6
DASHED
 62
     2
 10
43.834961
 20
-7.312303
 11
60.334961
 21
-7.312303
  0
LINE
  8
0
  6
CENTER
 62
     2
 10
-30.975037
 20
-13.312303
 11
-9.796949
 21
-13.312303
  0
LINE
  8
0
 10
-16.165037
 20
18.687698
 11
-14.665037
 21
18.687698
  0
LINE
  8
0
 10
-2.165037
 20
54.687698
 11
43.834961
 21
54.687698
  0
LINE
  8
0
 10
-2.165037
 20
18.087698
 11
43.834961
 21
18.087698
  0
LINE
  8
0
 10
-2.165037
 20
21.287697
 11
43.834961
 21
21.287697
  0
LINE
  8
0
 10
-2.165037
 20
23.087698
 11
43.834961
 21
23.087698
  0
LINE
  8
0
 10
-2.165037
 20
24.687698
 11
43.834961
 21
24.687698
  0
LINE
  8
0
  6
CENTER
 62
     2
 10
-1.625036
 20
30.687698
 11
9.954962
 21
30.687698
  0
LINE
  8
0
 10
43.334961
 20
56.687695
 11
43.834961
 21
56.187695
  0
LINE
  8
0
 10
-1.665036
 20
56.687698
 11
-2.165037
 21
56.187698
  0
LINE
  8
0
 10
-17.165033
 20
55.687698
 11
-16.165035
 21
54.687698
  0
LINE
  8
0
 10
-27.165037
 20
55.687702
 11
-28.165041
 21
54.687695
  0
LINE
  8
0
 10
-17.165035
 20
-24.312302
 11
-16.165037
 21
-23.312304
  0
LINE
  8
0
 10
-28.165037
 20
-23.312302
 11
-27.165035
 21
-24.312302
  0
LINE
  8
0
  6
CENTER
 62
     2
 10
-30.675037
 20
44.687698
 11
-9.660225
 21
44.687698
  0
LINE
  8
0
 10
-16.165037
 20
10.687697
 11
-12.165037
 21
10.687697
  0
LINE
  8
0
 62
     2
 10
-14.665037
 20
18.687698
 11
-16.165037
 21
14.187697
  0
LINE
  8
0
 62
     2
 10
-16.165037
 20
17.187698
 11
-14.665036
 21
12.687696
  0
LINE
  8
0
 10
-16.165037
 20
12.687697
 11
-14.665037
 21
12.687697
  0
LINE
  8
0
 10
-14.665037
 20
18.687698
 11
-14.665037
 21
12.687697
  0
LINE
  8
0
 10
-27.165037
 20
-24.312302
 11
-17.165037
 21
-24.312302
  0
LINE
  8
0
 10
-27.165037
 20
55.687698
 11
-17.165037
 21
55.687698
  0
LINE
  8
0
 10
-1.665037
 20
56.687698
 11
43.334961
 21
56.687698
  0
LINE
  8
0
 10
-28.165037
 20
54.687698
 11
-28.165037
 21
-23.312302
  0
LINE
  8
0
 10
-16.165037
 20
54.687698
 11
-16.165037
 21
-23.312302
  0
LINE
  8
0
 10
-16.165037
 20
20.687698
 11
-12.165037
 21
20.687698
  0
LINE
  8
0
  6
PHANTOM
 62
     3
 10
15.864801
 20
-28.812668
 11
15.864801
 21
68.150681
  0
LINE
  8
0
  6
PHANTOM
 62
     3
 10
31.353056
 20
-4.101274
 11
31.353056
 21
61.847240
  0
LINE
  8
0
  6
PHANTOM
 62
     3
 10
18.459181
 20
-28.812668
 11
18.459181
 21
-13.143731
  0
LINE
  8
0
  6
PHANTOM
 62
     3
 10
31.353054
 20
-4.101275
 11
18.459181
 21
-13.143731
  0
LINE
  8
0
  6
CENTER
 62
     2
 10
-6.165037
 20
-19.031567
 11
-6.165037
 21
-26.222301
  0
LINE
  8
0
 10
-39.250000
 20
-123.500000
 11
-39.250000
 21
-92.500000
  0
LINE
  8
0
 10
-51.250000
 20
-123.500000
 11
-51.250000
 21
-92.500000
  0
LINE
  8
0
 10
-63.250000
 20
-123.500000
 11
-63.250000
 21
-92.500000
  0
LINE
  8
0
 10
-75.250000
 20
-123.500000
 11
-75.250000
 21
-92.500000
  0
LINE
  8
0
 10
-87.250000
 20
-123.500000
 11
-87.250000
 21
-92.500000
  0
LINE
  8
0
 10
-184.250000
 20
-92.500000
 11
-39.250000
 21
-92.500000
  0
LINE
  8
0
 10
-184.250000
 20
-97.500000
 11
-161.929993
 21
-97.500000
  0
LINE
  8
0
 10
-159.250000
 20
-107.499992
 11
-161.930008
 21
-97.500000
  0
LINE
  8
0
 10
-99.250000
 20
-123.500000
 11
-99.250000
 21
-92.500000
  0
LINE
  8
0
 10
-111.250000
 20
-123.500000
 11
-111.250000
 21
-92.500000
  0
LINE
  8
0
 10
-123.250000
 20
-123.500000
 11
-123.250000
 21
-92.500000
  0
LINE
  8
0
 10
-147.250000
 20
-123.500000
 11
-147.250000
 21
-92.500000
  0
LINE
  8
0
 10
-135.250000
 20
-123.500000
 11
-135.250000
 21
-92.500000
  0
LINE
  8
0
 10
-159.250000
 20
-123.500000
 11
-159.250000
 21
-92.500000
  0
LINE
  8
0
 10
-184.250000
 20
-107.500000
 11
-39.250000
 21
-107.500000
  0
LINE
  8
0
 10
-184.250000
 20
-115.500000
 11
-39.250000
 21
-115.500000
  0
LINE
  8
0
 10
-184.250000
 20
-123.500000
 11
-184.250000
 21
-92.500000
  0
LINE
  8
0
 10
-184.250000
 20
-123.500000
 11
-39.250000
 21
-123.500000
  0
LINE
  8
0
 10
-74.250000
 20
132.600006
 11
-74.250000
 21
117.599998
  0
LINE
  8
0
 10
-194.250000
 20
117.599998
 11
-74.250000
 21
117.599998
  0
LINE
  8
0
 10
109.800003
 20
117.599998
 11
194.800003
 21
117.599998
  0
LINE
  8
0
 10
109.800003
 20
132.600006
 11
109.800003
 21
117.599998
  0
LINE
  8
0
 10
109.800003
 20
-118.500000
 11
194.800003
 21
-118.500000
  0
LINE
  8
0
 10
109.800003
 20
-118.500000
 11
109.800003
 21
-133.500000
  0
LINE
  8
0
 10
-194.250000
 20
-133.500000
 11
194.800003
 21
-133.500000
  0
LINE
  8
0
 10
-194.250000
 20
132.600006
 11
-194.250000
 21
-133.500000
  0
LINE
  8
0
 10
194.800003
 20
132.600006
 11
194.800003
 21
-133.500000
  0
LINE
  8
0
 10
-194.250000
 20
132.600006
 11
194.800003
 21
132.600006
  0
CIRCLE
  8
0
 10
154.834961
 20
-20.312302
 40
2.458500
  0
CIRCLE
  8
0
 10
128.834961
 20
-20.312302
 40
2.458500
  0
CIRCLE
  8
0
 10
128.834961
 20
51.687698
 40
2.458500
  0
CIRCLE
  8
0
 10
154.834961
 20
51.687698
 40
2.458500
  0
CIRCLE
  8
0
 62
     2
 10
128.834961
 20
-20.312302
 40
3.000000
  0
CIRCLE
  8
0
 62
     2
 10
154.834961
 20
-20.312302
 40
3.000000
  0
CIRCLE
  8
0
 62
     2
 10
154.834961
 20
51.687698
 40
3.000000
  0
CIRCLE
  8
0
 62
     2
 10
128.834961
 20
51.687698
 40
3.000000
  0
CIRCLE
  8
0
 10
141.834961
 20
-13.312303
 40
6.000000
  0
CIRCLE
  8
0
 10
141.834961
 20
44.687698
 40
6.000000
  0
CIRCLE
  8
0
 10
129.834961
 20
-11.312303
 40
1.000000
  0
CIRCLE
  8
0
 10
141.834961
 20
15.687697
 40
11.000000
  0
ARC
  8
0
 10
156.934967
 20
11.687697
 40
2.100000
 50
90.000000
 51
270.000000
  0
ARC
  8
0
 10
156.934967
 20
19.687698
 40
2.100000
 50
90.000000
 51
270.000000
  0
ARC
  8
0
 10
126.733734
 20
11.687697
 40
2.100019
 50
269.760620
 51
90.239380
  0
ARC
  8
0
 10
126.733734
 20
19.687698
 40
2.100019
 50
269.760620
 51
90.239380
  0
CIRCLE
  8
0
 10
141.834961
 20
-13.312303
 40
8.000000
  0
CIRCLE
  8
0
 10
141.834961
 20
44.687698
 40
8.000000
  0
CIRCLE
  8
0
 10
-92.165039
 20
48.687698
 40
2.458500
  0
CIRCLE
  8
0
 10
-116.165039
 20
48.687698
 40
2.458500
  0
CIRCLE
  8
0
 10
-116.165039
 20
-17.312302
 40
2.458500
  0
CIRCLE
  8
0
 10
-92.165039
 20
-17.312302
 40
2.458500
  0
CIRCLE
  8
0
 10
-104.165039
 20
-13.312303
 40
3.400000
  0
CIRCLE
  8
0
 10
-104.165039
 20
-13.312303
 40
5.250000
  0
CIRCLE
  8
0
 10
-104.165039
 20
15.687697
 40
3.400000
  0
CIRCLE
  8
0
 10
-104.165039
 20
15.687697
 40
5.250000
  0
CIRCLE
  8
0
 10
-104.165039
 20
44.687698
 40
3.400000
  0
CIRCLE
  8
0
 10
-104.165039
 20
44.687698
 40
5.250000
  0
CIRCLE
  8
0
 62
     2
 10
-92.165039
 20
48.687698
 40
3.000000
  0
CIRCLE
  8
0
 62
     2
 10
-92.165039
 20
-17.312302
 40
3.000000
  0
CIRCLE
  8
0
 62
     2
 10
-116.165039
 20
48.687698
 40
3.000000
  0
CIRCLE
  8
0
 10
-104.165039
 20
-13.312303
 40
5.750000
  0
CIRCLE
  8
0
 62
     2
 10
-116.165039
 20
-17.312302
 40
3.000000
  0
CIRCLE
  8
0
 10
-104.165039
 20
15.687697
 40
5.750000
  0
CIRCLE
  8
0
 10
-104.165039
 20
44.687698
 40
5.750000
  0
CIRCLE
  8
0
 10
-6.165037
 20
-11.312303
 40
2.067000
  0
CIRCLE
  8
0
 62
     2
 10
-6.165037
 20
-11.312303
 40
2.500000
  0
CIRCLE
  8
0
 62
     2
 10
8.834963
 20
-11.312287
 40
4.863995
  0
CIRCLE
  8
0
 10
8.834963
 20
-11.312303
 40
4.283005
  0
CIRCLE
  8
0
 62
     2
 10
33.834961
 20
-11.312287
 40
4.863995
  0
CIRCLE
  8
0
 10
33.834961
 20
-11.312303
 40
4.283005
  0
CIRCLE
  8
0
 10
23.834963
 20
0.687697
 40
4.750000
  0
CIRCLE
  8
0
 10
3.834963
 20
0.687697
 40
4.750000
  0
CIRCLE
  8
0
 10
3.834963
 20
0.687697
 40
2.599999
  0
CIRCLE
  8
0
  6
DASHED
 62
     2
 10
3.834963
 20
0.687697
 40
3.000000
  0
CIRCLE
  8
0
 10
23.834963
 20
0.687697
 40
2.599999
  0
CIRCLE
  8
0
  6
DASHED
 62
     2
 10
23.834963
 20
0.687697
 40
3.000000
  0
CIRCLE
  8
0
 10
23.834963
 20
30.687698
 40
4.750000
  0
CIRCLE
  8
0
 10
3.834963
 20
30.687698
 40
4.750000
  0
CIRCLE
  8
0
 10
3.834963
 20
30.687698
 40
2.599999
  0
CIRCLE
  8
0
  6
DASHED
 62
     2
 10
3.834963
 20
30.687698
 40
3.000000
  0
CIRCLE
  8
0
 10
23.834963
 20
30.687698
 40
2.599999
  0
CIRCLE
  8
0
  6
DASHED
 62
     2
 10
23.834963
 20
30.687698
 40
3.000000
  0
ARC
  8
0
 10
-18.665037
 20
15.687697
 40
5.000000
 50
323.130096
 51
36.869907
  0
TEXT
  8
0
 10
-131.157135
 20
-91.379997
 40
3.200000
  1
STRETCH LIST
 50
0.000000
 41
1.052632
 51
0.000000
  7
STANDARD
  0
TEXT
  8
0
 10
-48.657143
 20
-121.379997
 40
3.200000
  1
90
 50
0.000000
 41
1.052632
 51
0.000000
  7
STANDARD
  0
TEXT
  8
0
 10
-50.257141
 20
-113.379997
 40
3.200000
  1
100
 50
0.000000
 41
1.052632
 51
0.000000
  7
STANDARD
  0
TEXT
  8
0
 10
-50.257156
 20
-101.879997
 40
3.200000
  1
200
 50
0.000000
 41
1.052632
 51
0.000000
  7
STANDARD
  0
TEXT
  8
0
 10
-60.657143
 20
-121.379997
 40
3.200000
  1
90
 50
0.000000
 41
1.052632
 51
0.000000
  7
STANDARD
  0
TEXT
  8
0
 10
-60.657143
 20
-113.379997
 40
3.200000
  1
75
 50
0.000000
 41
1.052632
 51
0.000000
  7
STANDARD
  0
TEXT
  8
0
 10
-62.257156
 20
-101.879997
 40
3.200000
  1
175
 50
0.000000
 41
1.052632
 51
0.000000
  7
STANDARD
  0
TEXT
  8
0
 10
-72.657143
 20
-121.379997
 40
3.200000
  1
90
 50
0.000000
 41
1.052632
 51
0.000000
  7
STANDARD
  0
TEXT
  8
0
 10
-72.657143
 20
-113.379997
 40
3.200000
  1
50
 50
0.000000
 41
1.052632
 51
0.000000
  7
STANDARD
  0
TEXT
  8
0
 10
-74.257156
 20
-101.879997
 40
3.200000
  1
150
 50
0.000000
 41
1.052632
 51
0.000000
  7
STANDARD
  0
TEXT
  8
0
 10
-84.657143
 20
-121.379997
 40
3.200000
  1
90
 50
0.000000
 41
1.052632
 51
0.000000
  7
STANDARD
  0
TEXT
  8
0
 10
-84.657143
 20
-113.379997
 40
3.200000
  1
25
 50
0.000000
 41
1.052632
 51
0.000000
  7
STANDARD
  0
TEXT
  8
0
 10
-86.257156
 20
-101.879997
 40
3.200000
  1
125
 50
0.000000
 41
1.052632
 51
0.000000
  7
STANDARD
  0
TEXT
  8
0
 62
     3
 10
3.932851
 20
69.256523
 40
3.200000
  1
STRETCH LINE A
 50
0.000000
 41
1.052632
 51
0.000000
  7
STANDARD
  0
TEXT
  8
0
 10
-186.892654
 20
104.550003
 40
4.500000
  1
MODEL:CS-SGDAQ20*ST(10)
 50
0.000000
 41
1.052632
 51
0.000000
  7
STANDARD
  0
TEXT
  8
0
 10
-173.557007
 20
-121.379997
 40
3.200000
  1
B
 50
0.000000
 41
1.052632
 51
0.000000
  7
STANDARD
  0
TEXT
  8
0
 10
-96.657143
 20
-113.379997
 40
3.200000
  1
50
 50
0.000000
 41
1.052632
 51
0.000000
  7
STANDARD
  0
TEXT
  8
0
 10
-108.657143
 20
-113.379997
 40
3.200000
  1
25
 50
0.000000
 41
1.052632
 51
0.000000
  7
STANDARD
  0
TEXT
  8
0
 10
-96.657143
 20
-121.379997
 40
3.200000
  1
40
 50
0.000000
 41
1.052632
 51
0.000000
  7
STANDARD
  0
TEXT
  8
0
 10
-108.657143
 20
-121.379997
 40
3.200000
  1
40
 50
0.000000
 41
1.052632
 51
0.000000
  7
STANDARD
  0
TEXT
  8
0
 10
-119.057144
 20
-113.379997
 40
3.200000
  1
0
 50
0.000000
 41
1.052632
 51
0.000000
  7
STANDARD
  0
TEXT
  8
0
 10
-120.657143
 20
-121.379997
 40
3.200000
  1
40
 50
0.000000
 41
1.052632
 51
0.000000
  7
STANDARD
  0
TEXT
  8
0
 10
-131.057144
 20
-113.379997
 40
3.200000
  1
0
 50
0.000000
 41
1.052632
 51
0.000000
  7
STANDARD
  0
TEXT
  8
0
 10
-132.657135
 20
-121.379997
 40
3.200000
  1
20
 50
0.000000
 41
1.052632
 51
0.000000
  7
STANDARD
  0
TEXT
  8
0
 10
-144.657135
 20
-121.379997
 40
3.200000
  1
10
 50
0.000000
 41
1.052632
 51
0.000000
  7
STANDARD
  0
TEXT
  8
0
 10
-143.057144
 20
-113.379997
 40
3.200000
  1
0
 50
0.000000
 41
1.052632
 51
0.000000
  7
STANDARD
  0
TEXT
  8
0
 10
-50.857143
 20
-91.379997
 40
3.200000
  1
üiüvÝúÝ)
 50
0.000000
 41
0.833333
 51
0.000000
  7
STANDARD
  0
TEXT
  8
0
 10
-98.257156
 20
-101.879997
 40
3.200000
  1
100
 50
0.000000
 41
1.052632
 51
0.000000
  7
STANDARD
  0
TEXT
  8
0
 10
-108.657158
 20
-101.879997
 40
3.200000
  1
75
 50
0.000000
 41
1.052632
 51
0.000000
  7
STANDARD
  0
TEXT
  8
0
 10
-120.657158
 20
-101.879997
 40
3.200000
  1
50
 50
0.000000
 41
1.052632
 51
0.000000
  7
STANDARD
  0
TEXT
  8
0
 10
-132.657150
 20
-101.879997
 40
3.200000
  1
30
 50
0.000000
 41
1.052632
 51
0.000000
  7
STANDARD
  0
TEXT
  8
0
 10
-144.657150
 20
-101.879997
 40
3.200000
  1
20
 50
0.000000
 41
1.052632
 51
0.000000
  7
STANDARD
  0
TEXT
  8
0
 10
-155.057144
 20
-113.379997
 40
3.200000
  1
0
 50
0.000000
 41
1.052632
 51
0.000000
  7
STANDARD
  0
TEXT
  8
0
 10
-156.657150
 20
-101.879997
 40
3.200000
  1
10
 50
0.000000
 41
1.052632
 51
0.000000
  7
STANDARD
  0
TEXT
  8
0
 10
-155.057144
 20
-121.379997
 40
3.200000
  1
0
 50
0.000000
 41
1.052632
 51
0.000000
  7
STANDARD
  0
TEXT
  8
0
 10
-184.496872
 20
-101.019997
 40
3.200000
  1
STRETCH
 50
0.000000
 41
1.052632
 51
0.000000
  7
STANDARD
  0
TEXT
  8
0
 10
-184.496872
 20
-105.820000
 40
3.200000
  1
  PLACE
 50
0.000000
 41
1.052632
 51
0.000000
  7
STANDARD
  0
TEXT
  8
0
 10
-173.557144
 20
-113.379997
 40
3.200000
  1
A
 50
0.000000
 41
1.052632
 51
0.000000
  7
STANDARD
  0
TEXT
  8
0
 10
-181.557144
 20
-96.879997
 40
3.200000
  1
STROKE
 50
0.000000
 41
1.052632
 51
0.000000
  7
STANDARD
  0
TEXT
  8
0
 62
     3
 10
20.023066
 20
62.455441
 40
3.200000
  1
STRETCH LINE B
 50
0.000000
 41
1.052632
 51
0.000000
  7
STANDARD
  0
TEXT
  8
0
 10
-193.142654
 20
122.050003
 40
4.500000
  1
CS JIG CYLINDER WITH GUIDE
 50
0.000000
 41
1.052632
 51
0.000000
  7
STANDARD
  0
TEXT
  8
0
 10
113.700287
 20
-130.669998
 40
6.300000
  1
KOGANEI CORP.
 50
0.000000
 41
1.052632
 51
0.000000
  7
STANDARD
  0
TEXT
  8
0
 10
133.907150
 20
122.050003
 40
4.500000
  1
éuéàéÆüDü@éPüDéO
 50
0.000000
 41
0.833333
 51
0.000000
  7
STANDARD
  0
TEXT
  8
0
 62
     2
 10
62.358768
 20
-48.529888
 40
3.200000
  1
ST=75,100,125
 50
0.000000
 41
1.052632
 51
0.000000
  7
STANDARD
  0
LINE
  8
0
 62
     2
 10
60.834965
 20
-49.529888
 11
103.708771
 21
-49.529888
  0
LINE
  8
0
 62
     2
 10
60.834965
 20
-49.529888
 11
43.834965
 21
-49.529888
  0
LINE
  8
0
 62
     2
 10
60.834965
 20
-49.529888
 11
57.937187
 21
-50.306347
  0
LINE
  8
0
 62
     2
 10
60.834965
 20
-49.529888
 11
57.937187
 21
-48.753429
  0
LINE
  8
0
 62
     2
 10
43.834965
 20
-49.529888
 11
46.732742
 21
-48.753429
  0
LINE
  8
0
 62
     2
 10
43.834965
 20
-49.529888
 11
46.732742
 21
-50.306347
  0
LINE
  8
0
 62
     2
 10
60.834965
 20
-18.812304
 11
60.834965
 21
-51.029888
  0
LINE
  8
0
 62
     2
 10
43.834965
 20
-24.812304
 11
43.834965
 21
-51.029888
  0
ENDSEC
  0
EOF
