  0
SECTION
  2
HEADER
  0
ENDSEC
  0
SECTION
  2
TABLES
  0
TABLE
  2
LTYPE
 70
     4
  0
LTYPE
  2
CONTINUOUS
 70
    64
  3
Solid line
 72
    65
 73
     0
 40
0.000000
  0
LTYPE
  2
DASHED
 70
    64
  3
__ __ __ __ __ __ __ __ __ __ __ __ __ __ __
 72
    65
 73
     2
 40
3.500000
 49
2.000000
 49
-1.500000
  0
LTYPE
  2
CENTER
 70
    64
  3
____ _ ____ _ ____ _ ____ _ ____ _ ____ _ ____
 72
    65
 73
     4
 40
17.500000
 49
13.000000
 49
-1.500000
 49
1.500000
 49
-1.500000
  0
LTYPE
  2
PHANTOM
 70
    64
  3
_____ _ _ _____ _ _ _____ _ _ _____ _ _ ____  
 72
    65
 73
     6
 40
15.500000
 49
8.000000
 49
-1.500000
 49
1.500000
 49
-1.500000
 49
1.500000
 49
-1.500000
  0
LTYPE
  2
DASHED1
 70
    64
  3
__ __ __ __ __ __ __ __ __ __ __ __ __ __ __
 72
    65
 73
     2
 40
1.500000
 49
1.000000
 49
-0.500000
  0
LTYPE
  2
DASHED2
 70
    64
  3
__ __ __ __ __ __ __ __ __ __ __ __ __ __ __
 72
    65
 73
     2
 40
3.500000
 49
2.500000
 49
-1.000000
  0
LTYPE
  2
DASHED3
 70
    64
  3
__ __ __ __ __ __ __ __ __ __ __ __ __ __ __
 72
    65
 73
     2
 40
6.000000
 49
4.000000
 49
-2.000000
  0
LTYPE
  2
DASHED4
 70
    64
  3
__ __ __ __ __ __ __ __ __ __ __ __ __ __ __
 72
    65
 73
     2
 40
12.000000
 49
10.000000
 49
-2.000000
  0
LTYPE
  2
DASHED5
 70
    64
  3
__ __ __ __ __ __ __ __ __ __ __ __ __ __ __
 72
    65
 73
     2
 40
17.000000
 49
15.000000
 49
-2.000000
  0
LTYPE
  2
DASHED6
 70
    64
  3
__ __ __ __ __ __ __ __ __ __ __ __ __ __ __
 72
    65
 73
     2
 40
29.000000
 49
27.000000
 49
-2.000000
  0
LTYPE
  2
PHANTOM1
 70
    64
  3
_____ _ _ _____ _ _ _____ _ _ _____ _ _ ____  
 72
    65
 73
     6
 40
31.000000
 49
25.000000
 49
-1.500000
 49
1.000000
 49
-1.000000
 49
1.000000
 49
-1.500000
  0
LTYPE
  2
PHANTOM2
 70
    64
  3
_____ _ _ _____ _ _ _____ _ _ _____ _ _ ____  
 72
    65
 73
     6
 40
36.000000
 49
27.000000
 49
-1.500000
 49
2.500000
 49
-1.000000
 49
2.500000
 49
-1.500000
  0
LTYPE
  2
PHANTOM3
 70
    64
  3
_____ _ _ _____ _ _ _____ _ _ _____ _ _ ____  
 72
    65
 73
     6
 40
78.000000
 49
64.000000
 49
-2.000000
 49
4.000000
 49
-2.000000
 49
4.000000
 49
-2.000000
  0
LTYPE
  2
CENTER1
 70
    64
  3
____ _ ____ _ ____ _ ____ _ ____ _ ____ _ ____
 72
    65
 73
     4
 40
19.000000
 49
14.000000
 49
-1.000000
 49
3.000000
 49
-1.000000
  0
LTYPE
  2
CENTER2
 70
    64
  3
____ _ ____ _ ____ _ ____ _ ____ _ ____ _ ____
 72
    65
 73
     4
 40
28.500000
 49
25.000000
 49
-1.000000
 49
1.500000
 49
-1.000000
  0
LTYPE
  2
CENTER3
 70
    64
  3
____ _ ____ _ ____ _ ____ _ ____ _ ____ _ ____
 72
    65
 73
     4
 40
31.500000
 49
27.000000
 49
-1.000000
 49
2.500000
 49
-1.000000
  0
LTYPE
  2
CENTER4
 70
    64
  3
____ _ ____ _ ____ _ ____ _ ____ _ ____ _ ____
 72
    65
 73
     4
 40
50.000000
 49
45.000000
 49
-1.000000
 49
3.000000
 49
-1.000000
  0
LTYPE
  2
CENTER5
 70
    64
  3
____ _ ____ _ ____ _ ____ _ ____ _ ____ _ ____
 72
    65
 73
     4
 40
100.000000
 49
92.000000
 49
-2.000000
 49
4.000000
 49
-2.000000
  0
LTYPE
  2
SBK1
 70
    64
  3
______ _ _ _ ______ _ _ _ ______ _ _ _ _____  
 72
    65
 73
     8
 40
60.500000
 49
45.000000
 49
-2.000000
 49
2.500000
 49
-2.000000
 49
2.500000
 49
-2.000000
 49
2.500000
 49
-2.000000
  0
LTYPE
  2
SBK2
 70
    64
  3
______ _ _ _ ______ _ _ _ ______ _ _ _ _____  
 72
    65
 73
     8
 40
84.000000
 49
64.000000
 49
-2.000000
 49
4.000000
 49
-2.000000
 49
4.000000
 49
-2.000000
 49
4.000000
 49
-2.000000
  0
LTYPE
  2
STCH
 70
    64
  3
__ __ __ __ __ __ __ __ __ __ __ __ __ __ __
 72
    65
 73
     2
 40
3.000000
 49
1.000000
 49
-2.000000
  0
LTYPE
  2
MTCH
 70
    64
  3
_____ _ _ _____ _ _ _____ _ _ _____ _ _ ____  
 72
    65
 73
     6
 40
80.000000
 49
66.000000
 49
-2.000000
 49
4.000000
 49
-2.000000
 49
4.000000
 49
-2.000000
  0
ENDTAB
  0
TABLE
  2
LAYER
 70
     1
  0
LAYER
  2
0
 70
     0
 62
     7
  6
CONTINUOUS
  0
ENDTAB
  0
TABLE
  2
STYLE
 70
     1
  0
STYLE
  2
STANDARD
 70
     0
 40
0.000000
 41
1.000000
 50
0.000000
 71
     0
 42
0.200000
  3
txt
  4
BIGFONT
  0
ENDTAB
  0
TABLE
  2
VIEW
 70
     0
  0
ENDTAB
  0
ENDSEC
  0
SECTION
  2
BLOCKS
  0
ENDSEC
  0
SECTION
  2
ENTITIES
  0
LINE
  8
0
  6
DASHED
 62
     2
 10
110.796158
 20
-39.788696
 11
110.796158
 21
-44.098698
  0
LINE
  8
0
  6
DASHED
 62
     2
 10
115.796158
 20
-39.788696
 11
115.796158
 21
-44.098698
  0
LINE
  8
0
  6
DASHED
 62
     2
 10
111.296158
 20
-39.788696
 11
111.296158
 21
-44.098698
  0
LINE
  8
0
  6
DASHED
 62
     2
 10
115.296158
 20
-39.788696
 11
115.296158
 21
-44.098698
  0
LINE
  8
0
 10
147.796158
 20
-22.448698
 11
147.796158
 21
-27.748697
  0
LINE
  8
0
 10
107.796158
 20
12.321302
 11
107.796158
 21
-8.528698
  0
LINE
  8
0
 10
147.796158
 20
12.321302
 11
147.796158
 21
-8.528698
  0
LINE
  8
0
 10
107.796158
 20
31.051302
 11
107.796158
 21
26.751303
  0
LINE
  8
0
 10
147.796158
 20
31.551302
 11
147.796158
 21
26.251303
  0
LINE
  8
0
  6
CENTER
 62
     2
 10
147.066162
 20
-38.098698
 11
138.436157
 21
-38.098698
  0
LINE
  8
0
  6
CENTER
 62
     2
 10
142.796158
 20
-34.048698
 11
142.796158
 21
-42.508698
  0
LINE
  8
0
  6
CENTER
 62
     2
 10
113.296158
 20
-25.218699
 11
113.296158
 21
-29.108698
  0
LINE
  8
0
  6
CENTER
 62
     2
 10
111.306160
 20
-27.098698
 11
115.386154
 21
-27.098698
  0
LINE
  8
0
  6
CENTER
 62
     2
 10
113.296158
 20
-39.788696
 11
113.296158
 21
-45.918697
  0
LINE
  8
0
  6
CENTER
 62
     2
 10
109.796158
 20
28.901302
 11
115.916161
 21
28.901302
  0
LINE
  8
0
  6
CENTER
 62
     2
 10
139.696152
 20
-25.098698
 11
143.476166
 21
-25.098698
  0
LINE
  8
0
  6
CENTER
 62
     2
 10
139.826157
 20
28.901302
 11
143.946152
 21
28.901302
  0
LINE
  8
0
  6
CENTER
 62
     2
 10
108.516159
 20
41.901302
 11
117.146156
 21
41.901302
  0
LINE
  8
0
  6
CENTER
 62
     2
 10
112.796158
 20
37.851303
 11
112.796158
 21
46.311302
  0
LINE
  8
0
 10
136.276154
 20
30.401302
 11
141.296158
 21
30.401302
  0
LINE
  8
0
 10
134.496155
 20
27.401302
 11
141.296158
 21
27.401302
  0
LINE
  8
0
 10
136.276154
 20
-26.598698
 11
141.296158
 21
-26.598698
  0
LINE
  8
0
 10
134.496155
 20
-23.598698
 11
141.296158
 21
-23.598698
  0
LINE
  8
0
  6
CENTER
 62
     2
 10
147.066162
 20
41.901302
 11
138.436157
 21
41.901302
  0
LINE
  8
0
  6
CENTER
 62
     2
 10
142.796158
 20
37.851303
 11
142.796158
 21
46.311302
  0
LINE
  8
0
  6
CENTER
 62
     2
 10
117.066162
 20
-38.098698
 11
108.436157
 21
-38.098698
  0
LINE
  8
0
  6
CENTER
 62
     2
 10
112.796158
 20
-34.048698
 11
112.796158
 21
-42.508698
  0
LINE
  8
0
  6
CENTER
 62
     2
 10
116.846161
 20
-29.598698
 11
138.946152
 21
-29.598698
  0
LINE
  8
0
 10
141.296158
 20
-29.248697
 11
141.296158
 21
-20.948698
  0
LINE
  8
0
 10
145.796158
 20
-22.448698
 11
145.796158
 21
-20.948698
  0
LINE
  8
0
 10
145.796158
 20
-29.248697
 11
145.796158
 21
-27.748697
  0
LINE
  8
0
 10
145.796158
 20
-22.448698
 11
148.496155
 21
-22.448698
  0
LINE
  8
0
 10
145.796158
 20
-27.748697
 11
148.496155
 21
-27.748697
  0
LINE
  8
0
 10
141.296158
 20
-20.948698
 11
145.796158
 21
-20.948698
  0
LINE
  8
0
 10
141.296158
 20
-29.248697
 11
145.796158
 21
-29.248697
  0
LINE
  8
0
 10
148.796158
 20
-22.148697
 11
148.796158
 21
-9.098698
  0
LINE
  8
0
 10
148.796158
 20
-42.098698
 11
148.796158
 21
-28.048698
  0
LINE
  8
0
 10
147.796158
 20
12.321300
 11
148.796158
 21
12.901304
  0
LINE
  8
0
 10
146.796158
 20
-2.098698
 11
145.196152
 21
-2.098698
  0
LINE
  8
0
 10
147.296173
 20
-2.598697
 11
146.796158
 21
-2.098697
  0
LINE
  8
0
 10
147.796158
 20
-2.598698
 11
147.296158
 21
-2.598698
  0
LINE
  8
0
 10
147.296158
 20
-5.798699
 11
146.796158
 21
-6.298700
  0
LINE
  8
0
 10
147.796158
 20
-5.798697
 11
147.296158
 21
-5.798697
  0
LINE
  8
0
 10
146.796158
 20
-6.298697
 11
145.196152
 21
-6.298697
  0
LINE
  8
0
 10
146.796158
 20
5.901302
 11
145.196152
 21
5.901302
  0
LINE
  8
0
 10
147.296158
 20
6.401301
 11
146.796158
 21
5.901301
  0
LINE
  8
0
 10
147.796158
 20
6.401302
 11
147.296158
 21
6.401302
  0
LINE
  8
0
 10
147.296158
 20
9.601306
 11
146.796158
 21
10.101306
  0
LINE
  8
0
 10
147.796158
 20
9.601302
 11
147.296158
 21
9.601302
  0
LINE
  8
0
 10
146.796158
 20
10.101302
 11
145.196152
 21
10.101302
  0
LINE
  8
0
 10
147.796158
 20
-8.528699
 11
148.796158
 21
-9.098701
  0
LINE
  8
0
 10
107.796158
 20
-8.528701
 11
106.796158
 21
-9.098699
  0
LINE
  8
0
 10
107.796158
 20
12.321300
 11
106.796158
 21
12.901300
  0
LINE
  8
0
 10
108.796158
 20
-2.098698
 11
110.396156
 21
-2.098698
  0
LINE
  8
0
 10
108.296165
 20
-2.598697
 11
108.796165
 21
-2.098697
  0
LINE
  8
0
 10
107.796158
 20
-2.598698
 11
108.296158
 21
-2.598698
  0
LINE
  8
0
 10
108.296158
 20
-5.798699
 11
108.796158
 21
-6.298700
  0
LINE
  8
0
 10
107.796158
 20
-5.798697
 11
108.296158
 21
-5.798697
  0
LINE
  8
0
 10
108.796158
 20
-6.298697
 11
110.396156
 21
-6.298697
  0
LINE
  8
0
 10
106.796158
 20
-43.098698
 11
107.796158
 21
-44.098698
  0
LINE
  8
0
 10
141.296158
 20
33.051300
 11
141.296158
 21
24.751303
  0
LINE
  8
0
 10
106.796158
 20
26.451302
 11
106.796158
 21
12.901302
  0
LINE
  8
0
 10
109.796158
 20
26.751303
 11
109.796158
 21
25.251303
  0
LINE
  8
0
 10
107.096161
 20
31.051302
 11
109.796158
 21
31.051302
  0
LINE
  8
0
 10
107.096161
 20
26.751303
 11
109.796158
 21
26.751303
  0
LINE
  8
0
 10
109.796158
 20
25.251303
 11
113.796158
 21
25.251303
  0
LINE
  8
0
 10
109.796158
 20
32.551300
 11
113.796158
 21
32.551300
  0
LINE
  8
0
 10
113.796158
 20
32.551300
 11
113.796158
 21
25.251303
  0
LINE
  8
0
 10
109.796158
 20
32.551300
 11
109.796158
 21
31.051302
  0
LINE
  8
0
 10
145.796158
 20
26.251303
 11
145.796158
 21
24.751303
  0
LINE
  8
0
 10
145.796158
 20
33.051300
 11
145.796158
 21
31.551302
  0
LINE
  8
0
 10
145.796158
 20
26.251303
 11
148.496155
 21
26.251303
  0
LINE
  8
0
 10
145.796158
 20
31.551302
 11
148.496155
 21
31.551302
  0
LINE
  8
0
 10
141.296158
 20
24.751303
 11
145.796158
 21
24.751303
  0
LINE
  8
0
 10
141.296158
 20
33.051300
 11
145.796158
 21
33.051300
  0
LINE
  8
0
 10
106.796158
 20
45.901302
 11
106.796158
 21
31.351303
  0
LINE
  8
0
 10
108.796158
 20
5.901302
 11
110.396156
 21
5.901302
  0
LINE
  8
0
 10
108.296158
 20
6.401301
 11
108.796158
 21
5.901301
  0
LINE
  8
0
 10
107.796158
 20
6.401302
 11
108.296158
 21
6.401302
  0
LINE
  8
0
 10
108.296158
 20
9.601300
 11
108.796158
 21
10.101301
  0
LINE
  8
0
 10
107.796158
 20
9.601302
 11
108.296158
 21
9.601302
  0
LINE
  8
0
 10
108.796158
 20
10.101302
 11
110.396156
 21
10.101302
  0
LINE
  8
0
 10
146.796158
 20
47.901299
 11
148.796158
 21
45.901299
  0
LINE
  8
0
 10
146.796158
 20
-44.098698
 11
148.796158
 21
-42.098698
  0
LINE
  8
0
 10
108.796158
 20
47.901299
 11
106.796158
 21
45.901302
  0
LINE
  8
0
 10
148.796158
 20
25.951302
 11
148.796158
 21
12.901302
  0
LINE
  8
0
 10
106.796158
 20
-9.098698
 11
106.796158
 21
-43.098698
  0
LINE
  8
0
  6
CENTER
 62
     2
 10
103.966156
 20
1.901302
 11
151.566162
 21
1.901302
  0
LINE
  8
0
  6
CENTER
 62
     2
 10
116.846161
 20
33.401302
 11
138.946152
 21
33.401302
  0
LINE
  8
0
 10
108.796158
 20
47.901302
 11
146.796158
 21
47.901302
  0
LINE
  8
0
 10
107.796158
 20
-44.098698
 11
146.796158
 21
-44.098698
  0
LINE
  8
0
 10
148.796158
 20
45.901302
 11
148.796158
 21
31.851303
  0
LINE
  8
0
  6
DASHED
 62
     2
 10
118.026161
 20
-41.278698
 11
118.156158
 21
-44.098698
  0
LINE
  8
0
  6
DASHED
 62
     2
 10
117.576157
 20
-41.278698
 11
117.576157
 21
-44.098698
  0
LINE
  8
0
  6
DASHED
 62
     2
 10
109.006157
 20
-41.278698
 11
109.006157
 21
-44.098698
  0
LINE
  8
0
  6
DASHED
 62
     2
 10
108.556160
 20
-41.278698
 11
108.426155
 21
-44.098698
  0
LINE
  8
0
  6
CENTER
 62
     2
 10
127.796158
 20
50.561302
 11
127.796158
 21
-47.828697
  0
LINE
  8
0
 10
-139.703827
 20
-43.098694
 11
-140.203842
 21
-42.598694
  0
LINE
  8
0
 10
-100.703842
 20
-43.098701
 11
-100.203842
 21
-42.598701
  0
LINE
  8
0
 10
-100.203835
 20
46.401299
 11
-100.703842
 21
46.901302
  0
LINE
  8
0
 10
-140.203842
 20
46.401302
 11
-139.703842
 21
46.901302
  0
LINE
  8
0
 10
-140.203842
 20
46.401302
 11
-140.203842
 21
-42.598698
  0
LINE
  8
0
 10
-100.203842
 20
46.401302
 11
-100.203842
 21
-42.598698
  0
LINE
  8
0
 10
-100.703842
 20
46.901302
 11
-139.703842
 21
46.901302
  0
LINE
  8
0
 10
-100.703842
 20
-43.098698
 11
-139.703842
 21
-43.098698
  0
LINE
  8
0
  6
CENTER
 62
     2
 10
-111.423843
 20
-36.098698
 11
-103.013840
 21
-36.098698
  0
LINE
  8
0
  6
CENTER
 62
     2
 10
-127.183846
 20
-29.598698
 11
-112.823845
 21
-29.598698
  0
LINE
  8
0
  6
CENTER
 62
     2
 10
-127.323845
 20
33.401302
 11
-113.103844
 21
33.401302
  0
LINE
  8
0
  6
CENTER
 62
     2
 10
-111.963844
 20
39.901302
 11
-102.343842
 21
39.901302
  0
LINE
  8
0
  6
CENTER
 62
     2
 10
-107.203842
 20
44.471302
 11
-107.203842
 21
35.051304
  0
LINE
  8
0
  6
CENTER
 62
     2
 10
-133.203842
 20
44.541302
 11
-133.203842
 21
35.051304
  0
LINE
  8
0
 10
-141.203842
 20
-22.148697
 11
-141.203842
 21
-9.098698
  0
LINE
  8
0
 10
-101.203842
 20
45.901302
 11
-101.203842
 21
-42.098698
  0
LINE
  8
0
 10
-139.203842
 20
45.901302
 11
-139.203842
 21
-42.098698
  0
LINE
  8
0
  6
CENTER
 62
     2
 10
-120.203842
 20
51.771301
 11
-120.203842
 21
-47.248699
  0
LINE
  8
0
 10
-120.203842
 20
35.701302
 11
-118.203842
 21
34.551304
  0
LINE
  8
0
 10
-118.203842
 20
34.551304
 11
-118.203842
 21
32.241302
  0
LINE
  8
0
 10
-118.203842
 20
32.241302
 11
-120.203842
 21
31.091299
  0
LINE
  8
0
 10
-120.203850
 20
31.091299
 11
-122.203850
 21
32.241299
  0
LINE
  8
0
 10
-122.203842
 20
34.551304
 11
-122.203842
 21
32.241302
  0
LINE
  8
0
 10
-120.203835
 20
35.701298
 11
-122.203835
 21
34.551304
  0
LINE
  8
0
 10
-120.203842
 20
4.201303
 11
-118.203842
 21
3.051300
  0
LINE
  8
0
 10
-118.203842
 20
3.051302
 11
-118.203842
 21
0.741302
  0
LINE
  8
0
 10
-118.203842
 20
0.741302
 11
-120.203842
 21
-0.408701
  0
LINE
  8
0
 10
-120.203842
 20
-0.408692
 11
-122.203842
 21
0.741307
  0
LINE
  8
0
 10
-122.203842
 20
3.051302
 11
-122.203842
 21
0.741302
  0
LINE
  8
0
 10
-120.203842
 20
4.201305
 11
-122.203835
 21
3.051306
  0
LINE
  8
0
 10
-120.203835
 20
-27.288696
 11
-118.203842
 21
-28.438694
  0
LINE
  8
0
 10
-118.203842
 20
-28.438698
 11
-118.203842
 21
-30.748699
  0
LINE
  8
0
 10
-118.203842
 20
-30.748695
 11
-120.203850
 21
-31.898699
  0
LINE
  8
0
 10
-120.203850
 20
-31.898703
 11
-122.203842
 21
-30.748703
  0
LINE
  8
0
 10
-122.203842
 20
-28.438698
 11
-122.203842
 21
-30.748699
  0
LINE
  8
0
 10
-120.203842
 20
-27.288700
 11
-122.203842
 21
-28.438700
  0
LINE
  8
0
  6
CENTER
 62
     2
 10
-107.203842
 20
-40.698696
 11
-107.203842
 21
-31.608696
  0
LINE
  8
0
  6
CENTER
 62
     2
 10
-137.913849
 20
39.901302
 11
-128.423843
 21
39.901302
  0
LINE
  8
0
  6
CENTER
 62
     2
 10
-138.623840
 20
-36.098698
 11
-128.233841
 21
-36.098698
  0
LINE
  8
0
  6
CENTER
 62
     2
 10
-133.203842
 20
-40.698696
 11
-133.203842
 21
-31.608696
  0
LINE
  8
0
 10
-101.203842
 20
-42.098698
 11
-102.203835
 21
-43.098694
  0
LINE
  8
0
 10
-139.203842
 20
-42.098698
 11
-138.203842
 21
-43.098701
  0
LINE
  8
0
 10
-102.203842
 20
46.901302
 11
-101.203842
 21
45.901299
  0
LINE
  8
0
 10
-138.203842
 20
46.901299
 11
-139.203842
 21
45.901299
  0
LINE
  8
0
 10
-140.203842
 20
-22.448698
 11
-140.903839
 21
-22.448698
  0
LINE
  8
0
 10
-140.203842
 20
-27.748697
 11
-140.903839
 21
-27.748697
  0
LINE
  8
0
 10
-141.203842
 20
-42.098698
 11
-141.203842
 21
-28.048698
  0
LINE
  8
0
 10
-140.203842
 20
12.321300
 11
-141.203842
 21
12.901299
  0
LINE
  8
0
 10
-140.203842
 20
-8.528696
 11
-141.203842
 21
-9.098695
  0
LINE
  8
0
 10
-100.203842
 20
-8.528700
 11
-99.203842
 21
-9.098699
  0
LINE
  8
0
 10
-100.203850
 20
12.321303
 11
-99.203850
 21
12.901304
  0
LINE
  8
0
 10
-99.203842
 20
-43.098698
 11
-100.203842
 21
-44.098698
  0
LINE
  8
0
 10
-99.203842
 20
26.451302
 11
-99.203842
 21
12.901302
  0
LINE
  8
0
 10
-99.503845
 20
31.051302
 11
-100.203842
 21
31.051302
  0
LINE
  8
0
 10
-99.503845
 20
26.751303
 11
-100.203842
 21
26.751303
  0
LINE
  8
0
 10
-140.203842
 20
26.251303
 11
-140.903839
 21
26.251303
  0
LINE
  8
0
 10
-140.203842
 20
31.551302
 11
-140.903839
 21
31.551302
  0
LINE
  8
0
 10
-99.203842
 20
45.901302
 11
-99.203842
 21
31.351303
  0
LINE
  8
0
 10
-139.203842
 20
47.901299
 11
-141.203842
 21
45.901302
  0
LINE
  8
0
 10
-139.203842
 20
-44.098701
 11
-141.203842
 21
-42.098698
  0
LINE
  8
0
 10
-101.203842
 20
47.901302
 11
-99.203835
 21
45.901299
  0
LINE
  8
0
 10
-141.203842
 20
25.951302
 11
-141.203842
 21
12.901302
  0
LINE
  8
0
 10
-99.203842
 20
-9.098698
 11
-99.203842
 21
-43.098698
  0
LINE
  8
0
  6
CENTER
 62
     2
 10
-96.373840
 20
1.901302
 11
-143.973846
 21
1.901302
  0
LINE
  8
0
 10
-101.203842
 20
47.901302
 11
-139.203842
 21
47.901302
  0
LINE
  8
0
 10
-100.203842
 20
-44.098698
 11
-139.203842
 21
-44.098698
  0
LINE
  8
0
 10
-141.203842
 20
45.901302
 11
-141.203842
 21
31.851303
  0
LINE
  8
0
  6
CENTER
 62
     2
 10
-18.617800
 20
-27.098698
 11
-11.910009
 21
-27.098698
  0
LINE
  8
0
  6
DASHED
 62
     2
 10
-13.203842
 20
-42.598698
 11
-13.203842
 21
-37.836952
  0
LINE
  8
0
  6
DASHED
 62
     2
 10
-17.203842
 20
-42.598698
 11
-17.203842
 21
-37.717171
  0
LINE
  8
0
  6
DASHED
 62
     2
 10
-12.703842
 20
-42.598698
 11
-12.703842
 21
-37.836952
  0
LINE
  8
0
  6
DASHED
 62
     2
 10
-17.703842
 20
-42.598698
 11
-17.703842
 21
-37.956734
  0
LINE
  8
0
  6
CENTER
 62
     2
 10
-15.203842
 20
-44.664524
 11
-15.203842
 21
-39.808697
  0
LINE
  8
0
 10
-21.203840
 20
-42.598698
 11
-20.703842
 21
-43.098698
  0
LINE
  8
0
 10
-20.703840
 20
46.901302
 11
-21.203840
 21
46.401299
  0
LINE
  8
0
 10
-20.703842
 20
-43.098698
 11
-11.203842
 21
-43.098698
  0
LINE
  8
0
 10
-20.703842
 20
46.901302
 11
-11.203842
 21
46.901302
  0
LINE
  8
0
 10
-21.203842
 20
-42.598698
 11
-21.203842
 21
46.401302
  0
LINE
  8
0
 10
-25.203842
 20
-36.098698
 11
-21.203842
 21
-36.098698
  0
LINE
  8
0
 10
-25.203842
 20
-23.098698
 11
-21.203842
 21
-23.098698
  0
LINE
  8
0
 10
-25.203842
 20
26.901302
 11
-21.203842
 21
26.901302
  0
LINE
  8
0
 10
-25.203842
 20
39.901302
 11
-21.203842
 21
39.901302
  0
LINE
  8
0
  6
CENTER
 62
     2
 10
8.626160
 20
18.401302
 11
21.056156
 21
18.401302
  0
LINE
  8
0
  6
CENTER
 62
     2
 10
-5.203842
 20
24.571302
 11
-5.203842
 21
12.141302
  0
LINE
  8
0
  6
CENTER
 62
     2
 10
14.796158
 20
24.691303
 11
14.796158
 21
12.141302
  0
LINE
  8
0
  6
CENTER
 62
     2
 10
15.796158
 20
-46.008698
 11
15.796158
 21
-39.808697
  0
LINE
  8
0
 10
-11.203842
 20
-43.598701
 11
-10.703841
 21
-44.098701
  0
LINE
  8
0
 10
36.796158
 20
-43.598698
 11
36.296158
 21
-44.098698
  0
LINE
  8
0
  6
CENTER
 62
     2
 10
-39.653843
 20
1.901302
 11
39.596161
 21
1.901302
  0
LINE
  8
0
  6
CENTER
 62
     2
 10
-5.443739
 20
-27.098698
 11
7.172047
 21
-27.098698
  0
LINE
  8
0
  6
DASHED
 62
     2
 10
5.536159
 20
-41.278698
 11
5.666159
 21
-44.098698
  0
LINE
  8
0
  6
DASHED
 62
     2
 10
5.086159
 20
-41.278698
 11
5.086159
 21
-44.098698
  0
LINE
  8
0
  6
DASHED
 62
     2
 10
-3.933843
 20
-41.278698
 11
-4.063843
 21
-44.098698
  0
LINE
  8
0
  6
DASHED
 62
     2
 10
-3.483841
 20
-41.278698
 11
-3.483841
 21
-44.098698
  0
LINE
  8
0
  6
CENTER
 62
     2
 10
0.796158
 20
-44.898697
 11
0.796158
 21
-39.808697
  0
LINE
  8
0
  6
CENTER
 62
     2
 10
20.035198
 20
-27.098698
 11
33.640457
 21
-27.098698
  0
LINE
  8
0
 10
-11.203842
 20
-43.098698
 11
36.796158
 21
-43.098698
  0
LINE
  8
0
  6
DASHED
 62
     2
 10
20.536158
 20
-41.278698
 11
20.666157
 21
-44.098698
  0
LINE
  8
0
  6
DASHED
 62
     2
 10
20.086159
 20
-41.278698
 11
20.086159
 21
-44.098698
  0
LINE
  8
0
  6
DASHED
 62
     2
 10
11.066159
 20
-41.278698
 11
10.936160
 21
-44.098698
  0
LINE
  8
0
  6
DASHED
 62
     2
 10
11.516159
 20
-41.278698
 11
11.516159
 21
-44.098698
  0
LINE
  8
0
 10
-10.703842
 20
-44.098698
 11
36.296158
 21
-44.098698
  0
LINE
  8
0
 10
36.796158
 20
47.401302
 11
36.796158
 21
-43.598698
  0
LINE
  8
0
  6
CENTER
 62
     2
 10
8.636158
 20
-14.598698
 11
20.796158
 21
-14.598698
  0
LINE
  8
0
 10
-11.203842
 20
-43.598698
 11
-11.203842
 21
47.401302
  0
LINE
  8
0
  6
CENTER
 62
     2
 10
26.796158
 20
-34.418697
 11
26.796158
 21
-20.062349
  0
LINE
  8
0
 10
-11.203842
 20
-5.798697
 11
36.796158
 21
-5.798697
  0
LINE
  8
0
 10
-11.203842
 20
-2.598698
 11
36.796158
 21
-2.598698
  0
LINE
  8
0
 10
-11.203842
 20
-8.098698
 11
36.796158
 21
-8.098698
  0
LINE
  8
0
 10
-11.203842
 20
-9.098698
 11
36.796158
 21
-9.098698
  0
LINE
  8
0
  6
CENTER
 62
     2
 10
-5.203842
 20
-20.638699
 11
-5.203842
 21
-8.648698
  0
LINE
  8
0
  6
CENTER
 62
     2
 10
-10.883842
 20
-14.598698
 11
0.606159
 21
-14.598698
  0
LINE
  8
0
  6
CENTER
 62
     2
 10
14.796158
 20
-20.638699
 11
14.796158
 21
-7.898698
  0
LINE
  8
0
  6
DASHED
 62
     2
 10
54.296158
 20
39.901302
 11
54.296158
 21
26.901302
  0
LINE
  8
0
  6
DASHED
 62
     2
 10
54.796162
 20
27.401302
 11
54.296158
 21
26.901297
  0
LINE
  8
0
  6
DASHED
 62
     2
 10
54.296158
 20
39.901302
 11
54.796158
 21
39.401302
  0
LINE
  8
0
  6
DASHED
 62
     2
 10
36.796158
 20
26.901302
 11
54.296158
 21
26.901302
  0
LINE
  8
0
  6
DASHED
 62
     2
 10
36.796158
 20
39.901302
 11
54.296158
 21
39.901302
  0
LINE
  8
0
  6
DASHED
 62
     2
 10
54.796158
 20
39.401302
 11
54.796158
 21
27.401302
  0
LINE
  8
0
  6
DASHED
 62
     2
 10
54.296158
 20
-23.098698
 11
54.296158
 21
-36.098698
  0
LINE
  8
0
  6
DASHED
 62
     2
 10
54.796158
 20
-35.598698
 11
54.296158
 21
-36.098698
  0
LINE
  8
0
  6
DASHED
 62
     2
 10
54.296158
 20
-23.098696
 11
54.796158
 21
-23.598696
  0
LINE
  8
0
  6
DASHED
 62
     2
 10
36.796158
 20
-36.098698
 11
54.296158
 21
-36.098698
  0
LINE
  8
0
  6
DASHED
 62
     2
 10
36.796158
 20
-23.098698
 11
54.296158
 21
-23.098698
  0
LINE
  8
0
  6
DASHED
 62
     2
 10
54.796158
 20
-23.598698
 11
54.796158
 21
-35.598698
  0
LINE
  8
0
 10
-25.203842
 20
5.211302
 11
-23.703842
 21
5.211302
  0
LINE
  8
0
  6
CENTER
 62
     2
 10
-39.703842
 20
-29.598698
 11
-18.842812
 21
-29.598698
  0
LINE
  8
0
  6
CENTER
 62
     2
 10
-39.703842
 20
33.401302
 11
-19.036680
 21
33.401302
  0
LINE
  8
0
  6
CENTER
 62
     2
 10
-10.883842
 20
18.401302
 11
0.606159
 21
18.401302
  0
LINE
  8
0
 10
-11.203842
 20
26.751303
 11
36.796158
 21
26.751303
  0
LINE
  8
0
 10
-11.203842
 20
31.051302
 11
36.796158
 21
31.051302
  0
LINE
  8
0
 10
-11.203842
 20
45.901302
 11
36.796158
 21
45.901302
  0
LINE
  8
0
 10
36.296158
 20
47.901302
 11
36.796158
 21
47.401302
  0
LINE
  8
0
 10
-10.703841
 20
47.901306
 11
-11.203842
 21
47.401306
  0
LINE
  8
0
 10
-11.203842
 20
12.901302
 11
36.796158
 21
12.901302
  0
LINE
  8
0
 10
-11.203842
 20
11.901302
 11
36.796158
 21
11.901302
  0
LINE
  8
0
 10
-11.203842
 20
9.601302
 11
36.796158
 21
9.601302
  0
LINE
  8
0
 10
-11.203842
 20
6.401302
 11
36.796158
 21
6.401302
  0
LINE
  8
0
 10
-10.703842
 20
47.901302
 11
36.296158
 21
47.901302
  0
LINE
  8
0
 10
-26.203840
 20
46.901306
 11
-25.203840
 21
45.901302
  0
LINE
  8
0
 10
-36.203842
 20
46.901302
 11
-37.203842
 21
45.901302
  0
LINE
  8
0
 10
-25.203844
 20
-42.098701
 11
-26.203840
 21
-43.098701
  0
LINE
  8
0
 10
-37.203842
 20
-42.098698
 11
-36.203842
 21
-43.098698
  0
LINE
  8
0
 10
-36.203842
 20
46.901302
 11
-26.203842
 21
46.901302
  0
LINE
  8
0
 10
-36.203842
 20
-43.098698
 11
-26.203842
 21
-43.098698
  0
LINE
  8
0
 10
-25.203842
 20
-4.098698
 11
-21.203842
 21
-4.098698
  0
LINE
  8
0
 62
     2
 10
-23.703842
 20
-1.418697
 11
-25.203842
 21
3.551303
  0
LINE
  8
0
 62
     2
 10
-25.203842
 20
0.241302
 11
-23.703842
 21
5.211302
  0
LINE
  8
0
 10
-25.203842
 20
-1.418698
 11
-23.703842
 21
-1.418698
  0
LINE
  8
0
 10
-23.703842
 20
5.211302
 11
-23.703842
 21
-1.418698
  0
LINE
  8
0
 10
-37.203842
 20
45.901302
 11
-37.203842
 21
-42.098698
  0
LINE
  8
0
 10
-25.203842
 20
-42.098698
 11
-25.203842
 21
45.901302
  0
LINE
  8
0
 10
-25.203842
 20
7.901302
 11
-21.203842
 21
7.901302
  0
LINE
  8
0
  6
PHANTOM
 62
     3
 10
7.519226
 20
-48.662815
 11
7.519226
 21
59.640419
  0
LINE
  8
0
  6
PHANTOM
 62
     3
 10
22.240051
 20
-22.165323
 11
22.240051
 21
53.752090
  0
LINE
  8
0
  6
PHANTOM
 62
     3
 10
9.411903
 20
-48.662815
 11
9.411903
 21
-22.165323
  0
LINE
  8
0
  6
PHANTOM
 62
     3
 10
9.411903
 20
-22.165323
 11
22.240051
 21
-22.165323
  0
LINE
  8
0
  6
CENTER
 62
     2
 10
-15.203842
 20
-31.041740
 11
-15.203842
 21
-23.463114
  0
LINE
  8
0
  6
CENTER
 62
     2
 10
0.796158
 20
-34.418697
 11
0.796158
 21
-20.062349
  0
LINE
  8
0
 10
-99.250000
 20
-123.500000
 11
-99.250000
 21
-92.500000
  0
LINE
  8
0
 10
-184.250000
 20
-123.500000
 11
-27.250000
 21
-123.500000
  0
LINE
  8
0
 10
-184.250000
 20
-115.500000
 11
-27.250000
 21
-115.500000
  0
LINE
  8
0
 10
-184.250000
 20
-107.500000
 11
-27.250000
 21
-107.500000
  0
LINE
  8
0
 10
-159.250000
 20
-123.500000
 11
-159.250000
 21
-92.500000
  0
LINE
  8
0
 10
-135.250000
 20
-123.500000
 11
-135.250000
 21
-92.500000
  0
LINE
  8
0
 10
-147.250000
 20
-123.500000
 11
-147.250000
 21
-92.500000
  0
LINE
  8
0
 10
-123.250000
 20
-123.500000
 11
-123.250000
 21
-92.500000
  0
LINE
  8
0
 10
-111.250000
 20
-123.500000
 11
-111.250000
 21
-92.500000
  0
LINE
  8
0
 10
-87.250000
 20
-123.500000
 11
-87.250000
 21
-92.500000
  0
LINE
  8
0
 10
-159.250000
 20
-107.499992
 11
-161.930008
 21
-97.500000
  0
LINE
  8
0
 10
-184.250000
 20
-97.500000
 11
-161.929993
 21
-97.500000
  0
LINE
  8
0
 10
-184.250000
 20
-92.500000
 11
-27.250000
 21
-92.500000
  0
LINE
  8
0
 10
-75.250000
 20
-123.500000
 11
-75.250000
 21
-92.500000
  0
LINE
  8
0
 10
-63.250000
 20
-123.500000
 11
-63.250000
 21
-92.500000
  0
LINE
  8
0
 10
-51.250000
 20
-123.500000
 11
-51.250000
 21
-92.500000
  0
LINE
  8
0
 10
-39.250000
 20
-123.500000
 11
-39.250000
 21
-92.500000
  0
LINE
  8
0
 10
-27.250000
 20
-123.500000
 11
-27.250000
 21
-92.500000
  0
LINE
  8
0
 10
-184.250000
 20
-123.500000
 11
-184.250000
 21
-92.500000
  0
LINE
  8
0
 10
-74.250000
 20
132.600006
 11
-74.250000
 21
117.599998
  0
LINE
  8
0
 10
-194.250000
 20
117.599998
 11
-74.250000
 21
117.599998
  0
LINE
  8
0
 10
109.800003
 20
117.599998
 11
194.800003
 21
117.599998
  0
LINE
  8
0
 10
109.800003
 20
132.600006
 11
109.800003
 21
117.599998
  0
LINE
  8
0
 10
109.800003
 20
-118.500000
 11
194.800003
 21
-118.500000
  0
LINE
  8
0
 10
109.800003
 20
-118.500000
 11
109.800003
 21
-133.500000
  0
LINE
  8
0
 10
-194.250000
 20
-133.500000
 11
194.800003
 21
-133.500000
  0
LINE
  8
0
 10
-194.250000
 20
132.600006
 11
-194.250000
 21
-133.500000
  0
LINE
  8
0
 10
194.800003
 20
132.600006
 11
194.800003
 21
-133.500000
  0
LINE
  8
0
 10
-194.250000
 20
132.600006
 11
194.800003
 21
132.600006
  0
CIRCLE
  8
0
 10
142.796158
 20
-38.098698
 40
2.458500
  0
CIRCLE
  8
0
 10
112.796158
 20
-38.098698
 40
2.458500
  0
CIRCLE
  8
0
 10
112.796158
 20
41.901302
 40
2.458500
  0
CIRCLE
  8
0
 10
142.796158
 20
41.901302
 40
2.458500
  0
CIRCLE
  8
0
 62
     2
 10
142.796158
 20
-38.098698
 40
3.000000
  0
CIRCLE
  8
0
 62
     2
 10
112.796158
 20
-38.098698
 40
3.000000
  0
CIRCLE
  8
0
 62
     2
 10
112.796158
 20
41.901302
 40
3.000000
  0
CIRCLE
  8
0
 62
     2
 10
142.796158
 20
41.901302
 40
3.000000
  0
CIRCLE
  8
0
 10
127.796158
 20
-29.598698
 40
6.500000
  0
CIRCLE
  8
0
 10
127.796158
 20
33.401302
 40
6.500000
  0
CIRCLE
  8
0
 10
113.296158
 20
-27.098698
 40
1.000000
  0
ARC
  8
0
 10
148.496155
 20
-22.148697
 40
0.299999
 50
270.000000
 51
0.000000
  0
ARC
  8
0
 10
148.496155
 20
-28.048698
 40
0.300003
 50
0.000000
 51
90.000000
  0
ARC
  8
0
 10
107.096161
 20
26.451302
 40
0.299999
 50
90.000000
 51
180.000000
  0
ARC
  8
0
 10
107.096161
 20
31.351303
 40
0.300003
 50
180.000000
 51
270.000000
  0
ARC
  8
0
 10
148.496155
 20
25.951302
 40
0.300003
 50
0.000000
 51
90.000000
  0
ARC
  8
0
 10
148.496155
 20
31.851303
 40
0.299999
 50
270.000000
 51
0.000000
  0
CIRCLE
  8
0
 10
127.796158
 20
1.901302
 40
14.000001
  0
CIRCLE
  8
0
 10
127.796158
 20
-29.598698
 40
9.000000
  0
CIRCLE
  8
0
 10
127.796158
 20
33.401302
 40
9.000000
  0
ARC
  8
0
 10
145.196152
 20
8.001302
 40
2.099999
 50
90.000000
 51
270.000000
  0
ARC
  8
0
 10
145.196152
 20
-4.198698
 40
2.100000
 50
90.000000
 51
270.000000
  0
ARC
  8
0
 10
110.396156
 20
-4.198698
 40
2.100000
 50
270.000000
 51
90.000000
  0
ARC
  8
0
 10
110.396156
 20
8.001302
 40
2.100000
 50
270.000000
 51
90.000000
  0
CIRCLE
  8
0
 10
-133.203842
 20
39.901302
 40
2.458500
  0
CIRCLE
  8
0
 10
-107.203842
 20
39.901302
 40
2.458500
  0
CIRCLE
  8
0
 10
-133.203842
 20
-36.098698
 40
2.458500
  0
CIRCLE
  8
0
 10
-107.203842
 20
-36.098698
 40
2.458500
  0
CIRCLE
  8
0
 10
-120.203842
 20
33.401302
 40
3.400000
  0
CIRCLE
  8
0
 10
-120.203842
 20
33.401302
 40
5.250000
  0
CIRCLE
  8
0
 10
-120.203842
 20
1.901302
 40
3.400000
  0
CIRCLE
  8
0
 10
-120.203842
 20
1.901302
 40
5.250000
  0
CIRCLE
  8
0
 10
-120.203842
 20
-29.598698
 40
3.400000
  0
CIRCLE
  8
0
 10
-120.203842
 20
-29.598698
 40
5.250000
  0
CIRCLE
  8
0
 62
     2
 10
-107.203842
 20
39.901302
 40
3.000000
  0
CIRCLE
  8
0
 62
     2
 10
-107.203842
 20
-36.098698
 40
3.000000
  0
CIRCLE
  8
0
 62
     2
 10
-133.203842
 20
39.901302
 40
3.000000
  0
CIRCLE
  8
0
 10
-120.203842
 20
-29.598698
 40
5.750000
  0
CIRCLE
  8
0
 62
     2
 10
-133.203842
 20
-36.098698
 40
3.000000
  0
CIRCLE
  8
0
 10
-120.203842
 20
1.901302
 40
5.750000
  0
CIRCLE
  8
0
 10
-120.203842
 20
33.401302
 40
5.750000
  0
ARC
  8
0
 10
-99.503830
 20
26.451309
 40
0.299995
 50
359.998535
 51
90.001457
  0
ARC
  8
0
 10
-99.503830
 20
31.351295
 40
0.299992
 50
269.998535
 51
0.001457
  0
ARC
  8
0
 10
-140.903854
 20
-28.048691
 40
0.299992
 50
89.997086
 51
180.001450
  0
ARC
  8
0
 10
-140.903854
 20
-22.148705
 40
0.299988
 50
179.998550
 51
270.000000
  0
ARC
  8
0
 10
-140.903854
 20
25.951309
 40
0.299992
 50
89.997086
 51
180.001450
  0
ARC
  8
0
 10
-140.903854
 20
31.851295
 40
0.299988
 50
179.998550
 51
270.000000
  0
CIRCLE
  8
0
 10
-15.203842
 20
-27.098698
 40
2.067000
  0
CIRCLE
  8
0
 62
     2
 10
-15.203842
 20
-27.098698
 40
2.500000
  0
CIRCLE
  8
0
 10
0.796158
 20
-27.098698
 40
4.283000
  0
CIRCLE
  8
0
 10
26.796158
 20
-27.098698
 40
4.283000
  0
CIRCLE
  8
0
 62
     2
 10
0.796158
 20
-27.098698
 40
4.864000
  0
CIRCLE
  8
0
 62
     2
 10
26.796158
 20
-27.098698
 40
4.864000
  0
CIRCLE
  8
0
 10
-5.203842
 20
-14.598698
 40
4.750000
  0
CIRCLE
  8
0
  6
DASHED
 62
     2
 10
-5.203842
 20
-14.598698
 40
3.000000
  0
CIRCLE
  8
0
 10
-5.203842
 20
-14.598698
 40
2.599999
  0
CIRCLE
  8
0
 10
14.796158
 20
-14.598698
 40
2.599999
  0
CIRCLE
  8
0
  6
DASHED
 62
     2
 10
14.796158
 20
-14.598698
 40
3.000000
  0
CIRCLE
  8
0
 10
14.796158
 20
-14.598698
 40
4.750000
  0
CIRCLE
  8
0
 10
-5.203842
 20
18.401302
 40
2.599999
  0
CIRCLE
  8
0
  6
DASHED
 62
     2
 10
-5.203842
 20
18.401302
 40
3.000000
  0
CIRCLE
  8
0
 10
-5.203842
 20
18.401302
 40
4.750000
  0
CIRCLE
  8
0
  6
DASHED
 62
     2
 10
14.796158
 20
18.401302
 40
3.000000
  0
CIRCLE
  8
0
 10
14.796158
 20
18.401302
 40
2.599999
  0
CIRCLE
  8
0
 10
14.796158
 20
18.401302
 40
4.750000
  0
ARC
  8
0
 10
-28.703844
 20
1.896302
 40
5.999104
 50
326.455627
 51
33.544369
  0
TEXT
  8
0
 10
-108.657158
 20
-101.879997
 40
3.200000
  1
50
 50
0.000000
 41
1.052632
 51
0.000000
  7
STANDARD
  0
TEXT
  8
0
 10
-108.656998
 20
-113.379997
 40
3.200000
  1
50
 50
0.000000
 41
1.052632
 51
0.000000
  7
STANDARD
  0
TEXT
  8
0
 10
-107.056999
 20
-121.379997
 40
3.200000
  1
0
 50
0.000000
 41
1.052632
 51
0.000000
  7
STANDARD
  0
TEXT
  8
0
 10
-181.557144
 20
-96.879997
 40
3.200000
  1
STROKE
 50
0.000000
 41
1.052632
 51
0.000000
  7
STANDARD
  0
TEXT
  8
0
 10
-173.557144
 20
-113.379997
 40
3.200000
  1
A
 50
0.000000
 41
1.052632
 51
0.000000
  7
STANDARD
  0
TEXT
  8
0
 10
-184.496872
 20
-101.019997
 40
3.200000
  1
STRETCH
 50
0.000000
 41
1.052632
 51
0.000000
  7
STANDARD
  0
TEXT
  8
0
 10
-184.496872
 20
-105.820000
 40
3.200000
  1
  PLACE
 50
0.000000
 41
1.052632
 51
0.000000
  7
STANDARD
  0
TEXT
  8
0
 10
-156.657150
 20
-101.879997
 40
3.200000
  1
10
 50
0.000000
 41
1.052632
 51
0.000000
  7
STANDARD
  0
TEXT
  8
0
 10
-144.657150
 20
-101.879997
 40
3.200000
  1
20
 50
0.000000
 41
1.052632
 51
0.000000
  7
STANDARD
  0
TEXT
  8
0
 10
-132.657150
 20
-101.879997
 40
3.200000
  1
30
 50
0.000000
 41
1.052632
 51
0.000000
  7
STANDARD
  0
TEXT
  8
0
 10
-120.657158
 20
-101.879997
 40
3.200000
  1
40
 50
0.000000
 41
1.052632
 51
0.000000
  7
STANDARD
  0
TEXT
  8
0
 10
-96.657158
 20
-101.879997
 40
3.200000
  1
75
 50
0.000000
 41
1.052632
 51
0.000000
  7
STANDARD
  0
TEXT
  8
0
 10
-39.857143
 20
-91.379997
 40
3.200000
  1
（ｍｍ）
 50
0.000000
 41
0.833333
 51
0.000000
  7
STANDARD
  0
TEXT
  8
0
 10
-125.157143
 20
-91.379997
 40
3.200000
  1
STRETCH LIST
 50
0.000000
 41
1.052632
 51
0.000000
  7
STANDARD
  0
TEXT
  8
0
 10
-173.557007
 20
-121.379997
 40
3.200000
  1
B
 50
0.000000
 41
1.052632
 51
0.000000
  7
STANDARD
  0
TEXT
  8
0
 10
-86.257156
 20
-101.879997
 40
3.200000
  1
100
 50
0.000000
 41
1.052632
 51
0.000000
  7
STANDARD
  0
TEXT
  8
0
 10
-74.257156
 20
-101.879997
 40
3.200000
  1
125
 50
0.000000
 41
1.052632
 51
0.000000
  7
STANDARD
  0
TEXT
  8
0
 10
-62.257156
 20
-101.879997
 40
3.200000
  1
150
 50
0.000000
 41
1.052632
 51
0.000000
  7
STANDARD
  0
TEXT
  8
0
 10
-50.257156
 20
-101.879997
 40
3.200000
  1
175
 50
0.000000
 41
1.052632
 51
0.000000
  7
STANDARD
  0
TEXT
  8
0
 10
-38.257156
 20
-101.879997
 40
3.200000
  1
200
 50
0.000000
 41
1.052632
 51
0.000000
  7
STANDARD
  0
TEXT
  8
0
 10
-155.057007
 20
-113.379997
 40
3.200000
  1
0
 50
0.000000
 41
1.052632
 51
0.000000
  7
STANDARD
  0
TEXT
  8
0
 10
-144.656998
 20
-113.379997
 40
3.200000
  1
10
 50
0.000000
 41
1.052632
 51
0.000000
  7
STANDARD
  0
TEXT
  8
0
 10
-132.656998
 20
-113.379997
 40
3.200000
  1
20
 50
0.000000
 41
1.052632
 51
0.000000
  7
STANDARD
  0
TEXT
  8
0
 10
-120.656998
 20
-113.379997
 40
3.200000
  1
40
 50
0.000000
 41
1.052632
 51
0.000000
  7
STANDARD
  0
TEXT
  8
0
 10
-96.656998
 20
-113.379997
 40
3.200000
  1
40
 50
0.000000
 41
1.052632
 51
0.000000
  7
STANDARD
  0
TEXT
  8
0
 10
-84.656998
 20
-113.379997
 40
3.200000
  1
40
 50
0.000000
 41
1.052632
 51
0.000000
  7
STANDARD
  0
TEXT
  8
0
 10
-72.656998
 20
-113.379997
 40
3.200000
  1
90
 50
0.000000
 41
1.052632
 51
0.000000
  7
STANDARD
  0
TEXT
  8
0
 10
-60.657001
 20
-113.379997
 40
3.200000
  1
90
 50
0.000000
 41
1.052632
 51
0.000000
  7
STANDARD
  0
TEXT
  8
0
 10
-48.657001
 20
-113.379997
 40
3.200000
  1
90
 50
0.000000
 41
1.052632
 51
0.000000
  7
STANDARD
  0
TEXT
  8
0
 10
-36.657001
 20
-113.379997
 40
3.200000
  1
90
 50
0.000000
 41
1.052632
 51
0.000000
  7
STANDARD
  0
TEXT
  8
0
 10
-155.057007
 20
-121.379997
 40
3.200000
  1
0
 50
0.000000
 41
1.052632
 51
0.000000
  7
STANDARD
  0
TEXT
  8
0
 10
-143.057007
 20
-121.379997
 40
3.200000
  1
0
 50
0.000000
 41
1.052632
 51
0.000000
  7
STANDARD
  0
TEXT
  8
0
 10
-131.057007
 20
-121.379997
 40
3.200000
  1
0
 50
0.000000
 41
1.052632
 51
0.000000
  7
STANDARD
  0
TEXT
  8
0
 10
-119.056999
 20
-121.379997
 40
3.200000
  1
0
 50
0.000000
 41
1.052632
 51
0.000000
  7
STANDARD
  0
TEXT
  8
0
 10
-96.656998
 20
-121.379997
 40
3.200000
  1
40
 50
0.000000
 41
1.052632
 51
0.000000
  7
STANDARD
  0
TEXT
  8
0
 10
-84.656998
 20
-121.379997
 40
3.200000
  1
40
 50
0.000000
 41
1.052632
 51
0.000000
  7
STANDARD
  0
TEXT
  8
0
 10
-72.656998
 20
-121.379997
 40
3.200000
  1
25
 50
0.000000
 41
1.052632
 51
0.000000
  7
STANDARD
  0
TEXT
  8
0
 10
-60.657001
 20
-121.379997
 40
3.200000
  1
50
 50
0.000000
 41
1.052632
 51
0.000000
  7
STANDARD
  0
TEXT
  8
0
 10
-48.657001
 20
-121.379997
 40
3.200000
  1
75
 50
0.000000
 41
1.052632
 51
0.000000
  7
STANDARD
  0
TEXT
  8
0
 10
-38.257000
 20
-121.379997
 40
3.200000
  1
100
 50
0.000000
 41
1.052632
 51
0.000000
  7
STANDARD
  0
TEXT
  8
0
 62
     3
 10
-8.167412
 20
60.704586
 40
3.200000
  1
STRETCH LINE A
 50
0.000000
 41
1.052632
 51
0.000000
  7
STANDARD
  0
TEXT
  8
0
 10
-186.892654
 20
104.550003
 40
4.500000
  1
MODEL:CS-SGDAQ25*ST(10)
 50
0.000000
 41
1.052632
 51
0.000000
  7
STANDARD
  0
TEXT
  8
0
 62
     3
 10
12.651902
 20
54.395657
 40
3.200000
  1
STRETCH LINE B
 50
0.000000
 41
1.052632
 51
0.000000
  7
STANDARD
  0
TEXT
  8
0
 10
-193.142654
 20
122.050003
 40
4.500000
  1
CS JIG CYLINDER WITH GUIDE
 50
0.000000
 41
1.052632
 51
0.000000
  7
STANDARD
  0
TEXT
  8
0
 10
113.700287
 20
-130.669998
 40
6.300000
  1
KOGANEI CORP.
 50
0.000000
 41
1.052632
 51
0.000000
  7
STANDARD
  0
TEXT
  8
0
 10
133.907150
 20
122.050003
 40
4.500000
  1
Ｖｅｒ．　１．０
 50
0.000000
 41
0.833333
 51
0.000000
  7
STANDARD
  0
TEXT
  8
0
 62
     2
 10
37.604233
 20
-58.149094
 40
3.200000
  1
ST=75,100,125,150,175,200
 50
0.000000
 41
1.052632
 51
0.000000
  7
STANDARD
  0
LINE
  8
0
 62
     2
 10
54.796158
 20
-59.149094
 11
117.354233
 21
-59.149094
  0
LINE
  8
0
 62
     2
 10
54.796158
 20
-59.149094
 11
36.796158
 21
-59.149094
  0
LINE
  8
0
 62
     2
 10
54.796158
 20
-59.149094
 11
51.898380
 21
-59.925552
  0
LINE
  8
0
 62
     2
 10
54.796158
 20
-59.149094
 11
51.898380
 21
-58.372635
  0
LINE
  8
0
 62
     2
 10
36.796158
 20
-59.149094
 11
39.693935
 21
-58.372635
  0
LINE
  8
0
 62
     2
 10
36.796158
 20
-59.149094
 11
39.693935
 21
-59.925552
  0
LINE
  8
0
 62
     2
 10
54.796158
 20
-35.598698
 11
54.796158
 21
-60.649094
  0
LINE
  8
0
 62
     2
 10
36.796158
 20
-43.598698
 11
36.796158
 21
-60.649094
  0
ENDSEC
  0
EOF
