  0
SECTION
  2
HEADER
  0
ENDSEC
  0
SECTION
  2
TABLES
  0
TABLE
  2
LTYPE
 70
     4
  0
LTYPE
  2
CONTINUOUS
 70
    64
  3
Solid line
 72
    65
 73
     0
 40
0.000000
  0
LTYPE
  2
DASHED
 70
    64
  3
__ __ __ __ __ __ __ __ __ __ __ __ __ __ __
 72
    65
 73
     2
 40
3.500000
 49
2.000000
 49
-1.500000
  0
LTYPE
  2
CENTER
 70
    64
  3
____ _ ____ _ ____ _ ____ _ ____ _ ____ _ ____
 72
    65
 73
     4
 40
17.500000
 49
13.000000
 49
-1.500000
 49
1.500000
 49
-1.500000
  0
LTYPE
  2
PHANTOM
 70
    64
  3
_____ _ _ _____ _ _ _____ _ _ _____ _ _ ____  
 72
    65
 73
     6
 40
15.500000
 49
8.000000
 49
-1.500000
 49
1.500000
 49
-1.500000
 49
1.500000
 49
-1.500000
  0
LTYPE
  2
DASHED1
 70
    64
  3
__ __ __ __ __ __ __ __ __ __ __ __ __ __ __
 72
    65
 73
     2
 40
1.500000
 49
1.000000
 49
-0.500000
  0
LTYPE
  2
DASHED2
 70
    64
  3
__ __ __ __ __ __ __ __ __ __ __ __ __ __ __
 72
    65
 73
     2
 40
3.500000
 49
2.500000
 49
-1.000000
  0
LTYPE
  2
DASHED3
 70
    64
  3
__ __ __ __ __ __ __ __ __ __ __ __ __ __ __
 72
    65
 73
     2
 40
6.000000
 49
4.000000
 49
-2.000000
  0
LTYPE
  2
DASHED4
 70
    64
  3
__ __ __ __ __ __ __ __ __ __ __ __ __ __ __
 72
    65
 73
     2
 40
12.000000
 49
10.000000
 49
-2.000000
  0
LTYPE
  2
DASHED5
 70
    64
  3
__ __ __ __ __ __ __ __ __ __ __ __ __ __ __
 72
    65
 73
     2
 40
17.000000
 49
15.000000
 49
-2.000000
  0
LTYPE
  2
DASHED6
 70
    64
  3
__ __ __ __ __ __ __ __ __ __ __ __ __ __ __
 72
    65
 73
     2
 40
29.000000
 49
27.000000
 49
-2.000000
  0
LTYPE
  2
PHANTOM1
 70
    64
  3
_____ _ _ _____ _ _ _____ _ _ _____ _ _ ____  
 72
    65
 73
     6
 40
31.000000
 49
25.000000
 49
-1.500000
 49
1.000000
 49
-1.000000
 49
1.000000
 49
-1.500000
  0
LTYPE
  2
PHANTOM2
 70
    64
  3
_____ _ _ _____ _ _ _____ _ _ _____ _ _ ____  
 72
    65
 73
     6
 40
36.000000
 49
27.000000
 49
-1.500000
 49
2.500000
 49
-1.000000
 49
2.500000
 49
-1.500000
  0
LTYPE
  2
PHANTOM3
 70
    64
  3
_____ _ _ _____ _ _ _____ _ _ _____ _ _ ____  
 72
    65
 73
     6
 40
78.000000
 49
64.000000
 49
-2.000000
 49
4.000000
 49
-2.000000
 49
4.000000
 49
-2.000000
  0
LTYPE
  2
CENTER1
 70
    64
  3
____ _ ____ _ ____ _ ____ _ ____ _ ____ _ ____
 72
    65
 73
     4
 40
19.000000
 49
14.000000
 49
-1.000000
 49
3.000000
 49
-1.000000
  0
LTYPE
  2
CENTER2
 70
    64
  3
____ _ ____ _ ____ _ ____ _ ____ _ ____ _ ____
 72
    65
 73
     4
 40
28.500000
 49
25.000000
 49
-1.000000
 49
1.500000
 49
-1.000000
  0
LTYPE
  2
CENTER3
 70
    64
  3
____ _ ____ _ ____ _ ____ _ ____ _ ____ _ ____
 72
    65
 73
     4
 40
31.500000
 49
27.000000
 49
-1.000000
 49
2.500000
 49
-1.000000
  0
LTYPE
  2
CENTER4
 70
    64
  3
____ _ ____ _ ____ _ ____ _ ____ _ ____ _ ____
 72
    65
 73
     4
 40
50.000000
 49
45.000000
 49
-1.000000
 49
3.000000
 49
-1.000000
  0
LTYPE
  2
CENTER5
 70
    64
  3
____ _ ____ _ ____ _ ____ _ ____ _ ____ _ ____
 72
    65
 73
     4
 40
100.000000
 49
92.000000
 49
-2.000000
 49
4.000000
 49
-2.000000
  0
LTYPE
  2
SBK1
 70
    64
  3
______ _ _ _ ______ _ _ _ ______ _ _ _ _____  
 72
    65
 73
     8
 40
60.500000
 49
45.000000
 49
-2.000000
 49
2.500000
 49
-2.000000
 49
2.500000
 49
-2.000000
 49
2.500000
 49
-2.000000
  0
LTYPE
  2
SBK2
 70
    64
  3
______ _ _ _ ______ _ _ _ ______ _ _ _ _____  
 72
    65
 73
     8
 40
84.000000
 49
64.000000
 49
-2.000000
 49
4.000000
 49
-2.000000
 49
4.000000
 49
-2.000000
 49
4.000000
 49
-2.000000
  0
LTYPE
  2
STCH
 70
    64
  3
__ __ __ __ __ __ __ __ __ __ __ __ __ __ __
 72
    65
 73
     2
 40
3.000000
 49
1.000000
 49
-2.000000
  0
LTYPE
  2
MTCH
 70
    64
  3
_____ _ _ _____ _ _ _____ _ _ _____ _ _ ____  
 72
    65
 73
     6
 40
80.000000
 49
66.000000
 49
-2.000000
 49
4.000000
 49
-2.000000
 49
4.000000
 49
-2.000000
  0
ENDTAB
  0
TABLE
  2
LAYER
 70
     1
  0
LAYER
  2
0
 70
     0
 62
     7
  6
CONTINUOUS
  0
ENDTAB
  0
TABLE
  2
STYLE
 70
     1
  0
STYLE
  2
STANDARD
 70
     0
 40
0.000000
 41
1.000000
 50
0.000000
 71
     0
 42
0.200000
  3
txt
  4
BIGFONT
  0
ENDTAB
  0
TABLE
  2
VIEW
 70
     0
  0
ENDTAB
  0
ENDSEC
  0
SECTION
  2
BLOCKS
  0
ENDSEC
  0
SECTION
  2
ENTITIES
  0
LINE
  8
0
 10
147.471802
 20
-62.562149
 11
207.471802
 21
-62.562149
  0
LINE
  8
0
  6
CENTER
 62
     2
 10
159.557510
 20
67.437851
 11
194.043228
 21
67.437851
  0
LINE
  8
0
  6
CENTER
 62
     2
 10
160.100372
 20
-42.562149
 11
194.043228
 21
-42.562149
  0
LINE
  8
0
 10
147.471802
 20
87.437859
 11
144.471802
 21
84.437859
  0
LINE
  8
0
 10
207.471802
 20
87.437859
 11
210.471802
 21
84.437859
  0
LINE
  8
0
 10
210.471802
 20
-59.562153
 11
207.471802
 21
-62.562149
  0
LINE
  8
0
 10
144.471802
 20
-9.562147
 11
144.471802
 21
-59.562149
  0
LINE
  8
0
 10
210.471802
 20
-9.562147
 11
210.471802
 21
-33.405006
  0
LINE
  8
0
 10
210.471802
 20
-41.705002
 11
210.471802
 21
-59.562149
  0
LINE
  8
0
 10
146.471802
 20
23.237854
 11
146.971802
 21
23.237854
  0
LINE
  8
0
 10
146.971802
 20
23.237848
 11
147.471802
 21
22.737854
  0
LINE
  8
0
 10
147.471802
 20
22.737854
 11
149.071808
 21
22.737854
  0
LINE
  8
0
 10
147.471802
 20
26.937853
 11
149.071808
 21
26.937853
  0
LINE
  8
0
 10
146.971802
 20
26.437853
 11
147.471802
 21
26.937853
  0
LINE
  8
0
 10
146.471802
 20
26.437853
 11
146.971802
 21
26.437853
  0
LINE
  8
0
 10
146.471802
 20
32.437859
 11
144.471802
 21
34.437859
  0
LINE
  8
0
 10
146.471802
 20
32.437851
 11
146.471802
 21
26.437853
  0
LINE
  8
0
 10
146.471802
 20
1.637853
 11
146.971802
 21
1.637853
  0
LINE
  8
0
 10
146.971802
 20
1.637850
 11
147.471802
 21
2.137850
  0
LINE
  8
0
 10
147.471802
 20
2.137853
 11
149.071808
 21
2.137853
  0
LINE
  8
0
 10
147.471802
 20
-2.062147
 11
149.071808
 21
-2.062147
  0
LINE
  8
0
 10
146.971802
 20
-1.562147
 11
147.471802
 21
-2.062148
  0
LINE
  8
0
 10
146.471802
 20
-1.562147
 11
146.971802
 21
-1.562147
  0
LINE
  8
0
 10
208.471802
 20
23.237854
 11
207.971802
 21
23.237854
  0
LINE
  8
0
 10
207.971802
 20
23.237854
 11
207.471802
 21
22.737854
  0
LINE
  8
0
 10
207.471802
 20
22.737854
 11
205.871796
 21
22.737854
  0
LINE
  8
0
 10
207.471802
 20
26.937853
 11
205.871796
 21
26.937853
  0
LINE
  8
0
 10
207.971802
 20
26.437847
 11
207.471802
 21
26.937853
  0
LINE
  8
0
 10
208.471802
 20
26.437853
 11
207.971802
 21
26.437853
  0
LINE
  8
0
 10
208.471802
 20
1.637853
 11
207.971802
 21
1.637853
  0
LINE
  8
0
 10
207.971802
 20
1.637863
 11
207.471802
 21
2.137863
  0
LINE
  8
0
 10
207.471802
 20
2.137853
 11
205.871796
 21
2.137853
  0
LINE
  8
0
 10
207.471802
 20
-2.062147
 11
205.871796
 21
-2.062147
  0
LINE
  8
0
 10
207.971817
 20
-1.562144
 11
207.471802
 21
-2.062144
  0
LINE
  8
0
 10
208.471802
 20
-1.562147
 11
207.971802
 21
-1.562147
  0
LINE
  8
0
 10
146.471802
 20
-7.562150
 11
144.557510
 21
-9.476438
  0
LINE
  8
0
 10
208.471802
 20
32.437855
 11
210.371780
 21
34.337849
  0
LINE
  8
0
 10
208.471802
 20
32.437851
 11
208.471802
 21
26.437853
  0
LINE
  8
0
 10
208.471802
 20
-7.562147
 11
210.371796
 21
-9.476425
  0
LINE
  8
0
 10
198.971802
 20
-30.905005
 11
205.971802
 21
-30.905005
  0
LINE
  8
0
 10
205.971802
 20
-30.905005
 11
205.971802
 21
-33.405006
  0
LINE
  8
0
 10
205.971802
 20
-33.405006
 11
210.471802
 21
-33.405006
  0
LINE
  8
0
 10
205.971802
 20
-41.705002
 11
210.471802
 21
-41.705002
  0
LINE
  8
0
 10
205.971802
 20
-41.705002
 11
205.971802
 21
-44.205002
  0
LINE
  8
0
 10
198.971802
 20
-30.905005
 11
198.971802
 21
-44.205002
  0
LINE
  8
0
 10
198.971802
 20
-44.205002
 11
205.971802
 21
-44.205002
  0
LINE
  8
0
  6
CENTER
 62
     2
 10
148.357513
 20
-52.562149
 11
162.514664
 21
-52.562149
  0
LINE
  8
0
  6
CENTER
 62
     2
 10
199.471802
 20
-45.562149
 11
199.471802
 21
-59.562149
  0
LINE
  8
0
 10
147.471802
 20
87.437851
 11
207.471802
 21
87.437851
  0
LINE
  8
0
 10
144.471802
 20
-59.562145
 11
147.471802
 21
-62.562149
  0
LINE
  8
0
 10
178.971802
 20
87.437851
 11
178.971802
 21
81.352135
  0
LINE
  8
0
 10
175.971802
 20
87.437851
 11
175.971802
 21
81.352135
  0
LINE
  8
0
 10
144.471802
 20
84.437851
 11
144.471802
 21
65.080711
  0
LINE
  8
0
 10
144.471802
 20
65.080711
 11
147.471802
 21
65.080711
  0
LINE
  8
0
 10
147.471802
 20
66.437851
 11
147.471802
 21
65.080711
  0
LINE
  8
0
 10
147.471802
 20
66.437851
 11
151.971802
 21
66.437851
  0
LINE
  8
0
 10
151.971802
 20
66.437851
 11
151.971802
 21
58.437851
  0
LINE
  8
0
 10
147.471802
 20
58.437851
 11
151.971802
 21
58.437851
  0
LINE
  8
0
 10
147.471802
 20
59.594994
 11
147.471802
 21
58.437851
  0
LINE
  8
0
 10
144.471802
 20
59.780708
 11
147.471802
 21
59.780708
  0
LINE
  8
0
 10
144.471802
 20
59.780708
 11
144.471802
 21
34.437851
  0
LINE
  8
0
 10
210.471802
 20
66.580711
 11
210.471802
 21
84.437851
  0
LINE
  8
0
 10
205.971802
 20
66.580711
 11
210.471802
 21
66.580711
  0
LINE
  8
0
 10
205.971802
 20
66.580711
 11
205.971802
 21
69.080711
  0
LINE
  8
0
 10
198.971802
 20
69.080711
 11
205.971802
 21
69.080711
  0
LINE
  8
0
 10
198.971802
 20
55.780708
 11
198.971802
 21
69.080711
  0
LINE
  8
0
 10
198.971802
 20
55.780708
 11
205.971802
 21
55.780708
  0
LINE
  8
0
 10
205.971802
 20
58.280708
 11
210.471802
 21
58.280708
  0
LINE
  8
0
 10
205.971802
 20
55.780708
 11
205.971802
 21
58.280708
  0
LINE
  8
0
 10
210.471802
 20
34.437851
 11
210.471802
 21
58.280708
  0
LINE
  8
0
  6
CENTER
 62
     2
 10
148.328949
 20
77.437851
 11
162.757523
 21
77.437851
  0
LINE
  8
0
  6
CENTER
 62
     2
 10
199.471802
 20
84.980713
 11
199.471802
 21
70.066422
  0
LINE
  8
0
  6
CENTER
 62
     2
 10
192.000366
 20
77.437851
 11
206.928940
 21
77.437851
  0
LINE
  8
0
  6
CENTER
 62
     2
 10
155.471802
 20
84.594994
 11
155.471802
 21
70.323570
  0
LINE
  8
0
  6
CENTER
 62
     2
 10
192.143234
 20
-52.562149
 11
206.657516
 21
-52.562149
  0
LINE
  8
0
  6
DASHED
 62
     2
 10
149.043228
 20
-57.676430
 11
148.914658
 21
-62.405006
  0
LINE
  8
0
  6
DASHED
 62
     2
 10
148.771805
 20
-62.562145
 11
149.771805
 21
-61.562141
  0
LINE
  8
0
  6
DASHED
 62
     2
 10
149.771805
 20
-57.676437
 11
149.771805
 21
-61.562149
  0
LINE
  8
0
  6
DASHED
 62
     2
 10
161.171799
 20
-61.562149
 11
149.771805
 21
-61.562149
  0
LINE
  8
0
  6
DASHED
 62
     2
 10
161.171799
 20
-61.562149
 11
162.171799
 21
-62.562138
  0
LINE
  8
0
  6
DASHED
 62
     2
 10
161.886093
 20
-57.676437
 11
162.014664
 21
-62.562145
  0
LINE
  8
0
  6
DASHED
 62
     2
 10
161.171799
 20
-57.676437
 11
161.171799
 21
-61.562149
  0
LINE
  8
0
  6
CENTER
 62
     2
 10
177.471802
 20
92.552139
 11
177.471802
 21
-66.190720
  0
LINE
  8
0
  6
CENTER
 62
     2
 10
142.257507
 20
12.437853
 11
213.300369
 21
12.437853
  0
LINE
  8
0
  6
CENTER
 62
     2
 10
161.457520
 20
-40.062149
 11
154.471802
 21
-40.062149
  0
LINE
  8
0
  6
CENTER
 62
     2
 10
157.971802
 20
-36.590721
 11
157.971802
 21
-43.576431
  0
LINE
  8
0
  6
CENTER
 62
     2
 10
195.900375
 20
-37.562149
 11
210.471802
 21
-37.562149
  0
LINE
  8
0
  6
CENTER
 62
     2
 10
196.300369
 20
62.437851
 11
210.471802
 21
62.437851
  0
LINE
  8
0
  6
CENTER
 62
     2
 10
144.471802
 20
62.437851
 11
154.643234
 21
62.437851
  0
LINE
  8
0
 10
175.971802
 20
-56.476433
 11
175.971802
 21
-62.562149
  0
LINE
  8
0
 10
178.971802
 20
-56.476433
 11
178.971802
 21
-62.562149
  0
LINE
  8
0
  6
CENTER
 62
     2
 10
155.471802
 20
-46.119293
 11
155.471802
 21
-63.605011
  0
LINE
  8
0
 10
209.471802
 20
66.580711
 11
209.471802
 21
58.280708
  0
LINE
  8
0
 10
145.471802
 20
65.080711
 11
145.471802
 21
59.780708
  0
LINE
  8
0
 10
209.471802
 20
33.437851
 11
209.471802
 21
-8.569666
  0
LINE
  8
0
 10
145.471802
 20
33.437851
 11
145.471802
 21
-8.562147
  0
LINE
  8
0
 10
208.471802
 20
23.237854
 11
208.471802
 21
1.637853
  0
LINE
  8
0
 10
208.471802
 20
-1.562147
 11
208.471802
 21
-7.562147
  0
LINE
  8
0
 10
146.471802
 20
23.237854
 11
146.471802
 21
1.637853
  0
LINE
  8
0
 10
146.471802
 20
-1.562147
 11
146.471802
 21
-7.562147
  0
LINE
  8
0
 10
209.471802
 20
-33.405006
 11
209.471802
 21
-41.705002
  0
LINE
  8
0
  6
DASHED
 62
     2
 10
157.971802
 20
-57.799995
 11
157.971802
 21
-62.562149
  0
LINE
  8
0
  6
DASHED
 62
     2
 10
152.971802
 20
-57.946938
 11
152.971802
 21
-62.562149
  0
LINE
  8
0
  6
DASHED
 62
     2
 10
157.471802
 20
-57.873466
 11
157.471802
 21
-62.562149
  0
LINE
  8
0
  6
DASHED
 62
     2
 10
153.471802
 20
-57.946938
 11
153.471802
 21
-62.562149
  0
LINE
  8
0
  6
CENTER
 62
     2
 10
-181.099625
 20
-66.833580
 11
-181.099625
 21
92.437851
  0
LINE
  8
0
 10
-151.099625
 20
87.437851
 11
-211.099625
 21
87.437851
  0
LINE
  8
0
 10
-151.099625
 20
-62.562149
 11
-211.099625
 21
-62.562149
  0
LINE
  8
0
 10
-148.099625
 20
84.437851
 11
-148.099625
 21
65.080711
  0
LINE
  8
0
 10
-151.099625
 20
87.437859
 11
-150.099625
 21
86.437859
  0
LINE
  8
0
 10
-211.099625
 20
87.437866
 11
-212.099625
 21
86.437866
  0
LINE
  8
0
 10
-214.099625
 20
-59.562153
 11
-213.099625
 21
-60.562153
  0
LINE
  8
0
 10
-148.099625
 20
-9.562147
 11
-148.099625
 21
-59.562149
  0
LINE
  8
0
  6
CENTER
 62
     2
 10
-217.642487
 20
12.437853
 11
-144.842484
 21
12.437853
  0
LINE
  8
0
 10
-214.099625
 20
-9.562147
 11
-214.099625
 21
-33.405006
  0
LINE
  8
0
 10
-148.099625
 20
-59.562149
 11
-149.099625
 21
-60.562149
  0
LINE
  8
0
 10
-214.099625
 20
-41.705002
 11
-214.099625
 21
-59.562149
  0
LINE
  8
0
 10
-214.099625
 20
66.580711
 11
-214.099625
 21
84.437851
  0
LINE
  8
0
 10
-214.099625
 20
34.437851
 11
-214.099625
 21
58.280708
  0
LINE
  8
0
 10
-149.099625
 20
33.437855
 11
-148.099625
 21
34.437851
  0
LINE
  8
0
 10
-150.099625
 20
-7.562149
 11
-148.185333
 21
-9.476437
  0
LINE
  8
0
 10
-213.099625
 20
33.437847
 11
-213.999619
 21
34.337852
  0
LINE
  8
0
 10
-212.099625
 20
-7.562133
 11
-213.999619
 21
-9.476422
  0
LINE
  8
0
 10
-213.099625
 20
58.280708
 11
-214.099625
 21
58.280708
  0
LINE
  8
0
 10
-213.099625
 20
66.580711
 11
-214.099625
 21
66.580711
  0
LINE
  8
0
 10
-148.099625
 20
65.080711
 11
-149.099625
 21
65.080711
  0
LINE
  8
0
 10
-148.099625
 20
59.780708
 11
-149.099625
 21
59.780708
  0
LINE
  8
0
 10
-148.099625
 20
59.780708
 11
-148.099625
 21
34.437851
  0
LINE
  8
0
 10
-212.099625
 20
-33.405006
 11
-214.099625
 21
-33.405006
  0
LINE
  8
0
 10
-212.099625
 20
-41.705002
 11
-214.099625
 21
-41.705002
  0
LINE
  8
0
 10
-211.099625
 20
86.437866
 11
-212.099625
 21
85.437859
  0
LINE
  8
0
 10
-212.099625
 20
-60.562153
 11
-211.099625
 21
-61.562153
  0
LINE
  8
0
 10
-150.099625
 20
-60.562149
 11
-151.099625
 21
-61.562153
  0
LINE
  8
0
 10
-151.099625
 20
86.437851
 11
-150.099625
 21
85.437843
  0
LINE
  8
0
  6
CENTER
 62
     2
 10
-202.099625
 20
-55.790718
 11
-202.099625
 21
-39.190720
  0
LINE
  8
0
  6
CENTER
 62
     2
 10
-193.842484
 20
-47.562149
 11
-209.342484
 21
-47.562149
  0
LINE
  8
0
 10
-181.099625
 20
-39.090725
 11
-184.099625
 21
-40.819290
  0
LINE
  8
0
 10
-184.099625
 20
-40.819290
 11
-184.099625
 21
-44.290718
  0
LINE
  8
0
 10
-181.099625
 20
-46.019287
 11
-184.099625
 21
-44.290722
  0
LINE
  8
0
 10
-178.099625
 20
-44.290726
 11
-181.099625
 21
-46.019299
  0
LINE
  8
0
 10
-178.099625
 20
-40.819290
 11
-178.099625
 21
-44.290718
  0
LINE
  8
0
 10
-181.099625
 20
-39.090717
 11
-178.099625
 21
-40.819290
  0
LINE
  8
0
 10
-181.099625
 20
70.894997
 11
-184.099625
 21
69.166428
  0
LINE
  8
0
 10
-184.099625
 20
69.166428
 11
-184.099625
 21
65.695000
  0
LINE
  8
0
 10
-181.099625
 20
63.966427
 11
-184.099609
 21
65.695000
  0
LINE
  8
0
 10
-178.099625
 20
65.695000
 11
-181.099625
 21
63.966427
  0
LINE
  8
0
 10
-178.099625
 20
69.166428
 11
-178.099625
 21
65.695000
  0
LINE
  8
0
 10
-181.099625
 20
70.895004
 11
-178.099609
 21
69.166428
  0
LINE
  8
0
 10
-181.099625
 20
15.894995
 11
-184.099625
 21
14.166418
  0
LINE
  8
0
 10
-184.099625
 20
14.166424
 11
-184.099625
 21
10.694996
  0
LINE
  8
0
 10
-181.099625
 20
8.966424
 11
-184.099625
 21
10.695001
  0
LINE
  8
0
 10
-178.099625
 20
10.694990
 11
-181.099625
 21
8.966414
  0
LINE
  8
0
 10
-178.099625
 20
14.166424
 11
-178.099625
 21
10.694996
  0
LINE
  8
0
 10
-181.099625
 20
15.894997
 11
-178.099625
 21
14.166429
  0
LINE
  8
0
 10
-212.099625
 20
85.437851
 11
-212.099625
 21
-60.562149
  0
LINE
  8
0
 10
-150.099625
 20
85.437851
 11
-150.099625
 21
-60.562149
  0
LINE
  8
0
  6
CENTER
 62
     2
 10
-202.099625
 20
80.666420
 11
-202.099625
 21
64.066422
  0
LINE
  8
0
  6
CENTER
 62
     2
 10
-193.842484
 20
72.437851
 11
-209.342484
 21
72.437851
  0
LINE
  8
0
  6
CENTER
 62
     2
 10
-160.099625
 20
-55.790718
 11
-160.099625
 21
-39.190720
  0
LINE
  8
0
  6
CENTER
 62
     2
 10
-168.342484
 20
-47.562149
 11
-152.856766
 21
-47.562149
  0
LINE
  8
0
  6
CENTER
 62
     2
 10
-160.099625
 20
80.666420
 11
-160.099625
 21
64.066422
  0
LINE
  8
0
  6
CENTER
 62
     2
 10
-168.342484
 20
72.437851
 11
-152.856766
 21
72.437851
  0
LINE
  8
0
  6
CENTER
 62
     2
 10
-193.156769
 20
67.437851
 11
-169.099625
 21
67.437851
  0
LINE
  8
0
  6
CENTER
 62
     2
 10
-193.156769
 20
-42.562149
 11
-169.099625
 21
-42.562149
  0
LINE
  8
0
 10
-213.099625
 20
-61.062149
 11
-213.099625
 21
85.937851
  0
LINE
  8
0
 10
-149.099625
 20
-61.062149
 11
-149.099625
 21
85.937851
  0
LINE
  8
0
 10
-212.599625
 20
86.437851
 11
-149.599625
 21
86.437851
  0
LINE
  8
0
 10
-212.599625
 20
-61.562149
 11
-149.599625
 21
-61.562149
  0
LINE
  8
0
 10
-149.099625
 20
85.937851
 11
-149.599625
 21
86.437851
  0
LINE
  8
0
 10
-213.099625
 20
85.937859
 11
-212.599625
 21
86.437859
  0
LINE
  8
0
 10
-149.099625
 20
85.437859
 11
-148.099625
 21
84.437859
  0
LINE
  8
0
 10
-213.099625
 20
85.437859
 11
-214.099625
 21
84.437859
  0
LINE
  8
0
 10
-212.599625
 20
-61.562149
 11
-213.099625
 21
-61.062149
  0
LINE
  8
0
 10
-149.099625
 20
-61.062145
 11
-149.599625
 21
-61.562145
  0
LINE
  8
0
 10
-150.099625
 20
-61.562153
 11
-151.099625
 21
-62.562153
  0
LINE
  8
0
 10
-212.099625
 20
-61.562153
 11
-211.099625
 21
-62.562157
  0
LINE
  8
0
  6
PHANTOM
 62
     3
 10
-2.528194
 20
-30.437147
 11
8.471806
 21
-30.437147
  0
LINE
  8
0
  6
PHANTOM
 62
     3
 10
12.471806
 20
-30.437147
 11
26.471806
 21
-30.437147
  0
LINE
  8
0
 10
-34.528194
 20
2.437853
 11
-29.528194
 21
2.437853
  0
LINE
  8
0
  6
CENTER
 62
     2
 10
-56.042480
 20
67.437851
 11
-27.080755
 21
67.437851
  0
LINE
  8
0
 10
-34.528194
 20
85.437851
 11
-34.528194
 21
-60.562149
  0
LINE
  8
0
 10
-51.528194
 20
86.437851
 11
-35.528194
 21
86.437851
  0
LINE
  8
0
 10
-51.528194
 20
-61.562149
 11
-35.528194
 21
-61.562149
  0
LINE
  8
0
 10
-52.528194
 20
85.437851
 11
-52.528194
 21
-60.562149
  0
LINE
  8
0
 10
-34.528194
 20
22.437853
 11
-29.528194
 21
22.437853
  0
LINE
  8
0
 10
-34.528194
 20
8.066424
 11
-32.528194
 21
8.066424
  0
LINE
  8
0
 10
-32.528194
 20
8.066424
 11
-32.528194
 21
16.794996
  0
LINE
  8
0
 62
     2
 10
-34.528194
 20
13.880709
 11
-32.528194
 21
8.066424
  0
LINE
  8
0
 62
     2
 10
-32.528194
 20
16.794996
 11
-34.528194
 21
10.980709
  0
LINE
  8
0
  6
CENTER
 62
     2
 10
-55.471050
 20
-42.562149
 11
-27.080755
 21
-42.562149
  0
LINE
  8
0
 10
-51.528198
 20
86.437851
 11
-52.528198
 21
85.437859
  0
LINE
  8
0
 10
-35.528194
 20
86.437851
 11
-34.528194
 21
85.437851
  0
LINE
  8
0
 10
-52.528194
 20
-60.562149
 11
-51.528194
 21
-61.562149
  0
LINE
  8
0
 10
-34.528194
 20
-60.562149
 11
-35.528194
 21
-61.562153
  0
LINE
  8
0
 10
-19.028194
 20
87.437851
 11
36.971806
 21
87.437851
  0
LINE
  8
0
 10
-19.528194
 20
22.837852
 11
37.471806
 21
22.837852
  0
LINE
  8
0
 10
-19.528194
 20
26.037853
 11
37.471806
 21
26.037853
  0
LINE
  8
0
 10
-19.528194
 20
84.437851
 11
37.471806
 21
84.437851
  0
LINE
  8
0
  6
CENTER
 62
     2
 10
-0.471050
 20
45.437851
 11
17.171810
 21
45.437851
  0
LINE
  8
0
  6
CENTER
 62
     2
 10
8.471806
 20
54.037857
 11
8.471806
 21
36.709282
  0
LINE
  8
0
 10
-19.528194
 20
34.437851
 11
37.471806
 21
34.437851
  0
LINE
  8
0
 10
-19.528194
 20
33.437851
 11
37.471806
 21
33.437851
  0
LINE
  8
0
 10
-19.528194
 20
65.080711
 11
37.471806
 21
65.080711
  0
LINE
  8
0
 10
-19.528194
 20
59.780708
 11
37.471806
 21
59.780708
  0
LINE
  8
0
 10
36.971806
 20
87.437859
 11
37.471806
 21
86.937859
  0
LINE
  8
0
 10
-19.028196
 20
87.437851
 11
-19.528198
 21
86.937851
  0
LINE
  8
0
 10
-34.528194
 20
16.794996
 11
-32.528194
 21
16.794996
  0
LINE
  8
0
  6
DASHED
 62
     2
 10
66.471802
 20
-33.062149
 11
66.471802
 21
-52.062149
  0
LINE
  8
0
  6
DASHED
 62
     2
 10
37.471806
 20
-32.562149
 11
65.971802
 21
-32.562149
  0
LINE
  8
0
  6
DASHED
 62
     2
 10
37.471806
 20
-52.562149
 11
65.971802
 21
-52.562149
  0
LINE
  8
0
  6
DASHED
 62
     2
 10
65.971809
 20
-32.562141
 11
66.471809
 21
-33.062149
  0
LINE
  8
0
  6
DASHED
 62
     2
 10
66.471802
 20
-52.062141
 11
65.971802
 21
-52.562141
  0
LINE
  8
0
  6
DASHED
 62
     2
 10
65.971802
 20
-32.562149
 11
65.971802
 21
-52.562149
  0
LINE
  8
0
  6
DASHED
 62
     2
 10
66.471802
 20
76.937851
 11
66.471802
 21
57.937851
  0
LINE
  8
0
  6
DASHED
 62
     2
 10
37.471806
 20
77.437851
 11
65.971802
 21
77.437851
  0
LINE
  8
0
  6
DASHED
 62
     2
 10
37.471806
 20
57.437851
 11
65.971802
 21
57.437851
  0
LINE
  8
0
  6
DASHED
 62
     2
 10
65.971802
 20
77.437851
 11
66.471802
 21
76.937851
  0
LINE
  8
0
  6
DASHED
 62
     2
 10
66.471809
 20
57.937851
 11
65.971809
 21
57.437851
  0
LINE
  8
0
  6
DASHED
 62
     2
 10
65.971802
 20
77.437851
 11
65.971802
 21
57.437851
  0
LINE
  8
0
  6
CENTER
 62
     2
 10
-55.985336
 20
12.437853
 11
40.086094
 21
12.437853
  0
LINE
  8
0
  6
CENTER
 62
     2
 10
-11.528194
 20
54.037857
 11
-11.528194
 21
36.709282
  0
LINE
  8
0
  6
CENTER
 62
     2
 10
-20.471050
 20
45.437851
 11
-2.828194
 21
45.437851
  0
LINE
  8
0
 10
-19.528194
 20
86.937851
 11
-19.528194
 21
-62.062149
  0
LINE
  8
0
 10
-19.028194
 20
-62.562149
 11
36.971806
 21
-62.562149
  0
LINE
  8
0
 10
-19.528194
 20
-59.562149
 11
37.471806
 21
-59.562149
  0
LINE
  8
0
  6
CENTER
 62
     2
 10
-0.613907
 20
-20.562147
 11
17.100376
 21
-20.562147
  0
LINE
  8
0
 10
37.471806
 20
86.937851
 11
37.471806
 21
-62.062149
  0
LINE
  8
0
  6
CENTER
 62
     2
 10
-20.471050
 20
-20.562147
 11
-2.828194
 21
-20.562147
  0
LINE
  8
0
  6
CENTER
 62
     2
 10
-11.528194
 20
-11.962147
 11
-11.528194
 21
-29.276434
  0
LINE
  8
0
  6
CENTER
 62
     2
 10
8.471806
 20
-11.962147
 11
8.471806
 21
-29.605005
  0
LINE
  8
0
  6
CENTER
 62
     2
 10
30.100506
 20
-40.062149
 11
14.586094
 21
-40.062149
  0
LINE
  8
0
 10
-19.528194
 20
-9.562147
 11
37.471806
 21
-9.562147
  0
LINE
  8
0
 10
-19.528194
 20
-8.562147
 11
37.471806
 21
-8.562147
  0
LINE
  8
0
 10
-19.528194
 20
-1.162148
 11
37.471806
 21
-1.162148
  0
LINE
  8
0
 10
-19.528194
 20
2.037852
 11
37.471806
 21
2.037852
  0
LINE
  8
0
  6
DASHED
 62
     2
 10
-3.828195
 20
-61.562141
 11
-2.828193
 21
-62.562141
  0
LINE
  8
0
  6
DASHED
 62
     2
 10
-16.228193
 20
-62.562145
 11
-15.228191
 21
-61.562145
  0
LINE
  8
0
  6
DASHED
 62
     2
 10
-3.828194
 20
-61.562149
 11
-15.228195
 21
-61.562149
  0
LINE
  8
0
  6
DASHED
 62
     2
 10
-15.228195
 20
-57.676437
 11
-15.228195
 21
-61.562149
  0
LINE
  8
0
  6
DASHED
 62
     2
 10
-15.942480
 20
-57.676434
 11
-16.071051
 21
-62.405010
  0
LINE
  8
0
  6
DASHED
 62
     2
 10
-3.828194
 20
-57.676437
 11
-3.828194
 21
-61.562149
  0
LINE
  8
0
  6
DASHED
 62
     2
 10
-3.099624
 20
-57.676430
 11
-2.971053
 21
-62.562153
  0
LINE
  8
0
  6
CENTER
 62
     2
 10
6.471806
 20
-56.519295
 11
6.471806
 21
-63.947868
  0
LINE
  8
0
  6
DASHED
 62
     2
 10
12.171806
 20
-61.562149
 11
13.171808
 21
-62.562153
  0
LINE
  8
0
  6
DASHED
 62
     2
 10
-0.228194
 20
-62.562149
 11
0.771804
 21
-61.562153
  0
LINE
  8
0
  6
DASHED
 62
     2
 10
12.171810
 20
-61.562149
 11
0.771805
 21
-61.562149
  0
LINE
  8
0
  6
DASHED
 62
     2
 10
0.771805
 20
-57.676437
 11
0.771805
 21
-61.562149
  0
LINE
  8
0
  6
DASHED
 62
     2
 10
0.057523
 20
-57.676434
 11
-0.071049
 21
-62.405003
  0
LINE
  8
0
  6
DASHED
 62
     2
 10
12.171810
 20
-57.676437
 11
12.171810
 21
-61.562149
  0
LINE
  8
0
  6
DASHED
 62
     2
 10
12.900378
 20
-57.676437
 11
13.028950
 21
-62.562157
  0
LINE
  8
0
 10
37.471806
 20
-62.062145
 11
36.971806
 21
-62.562145
  0
LINE
  8
0
 10
-19.528196
 20
-62.062145
 11
-19.028196
 21
-62.562145
  0
LINE
  8
0
  6
CENTER
 62
     2
 10
-9.528194
 20
-56.233582
 11
-9.528194
 21
-64.090721
  0
LINE
  8
0
  6
CENTER
 62
     2
 10
3.671806
 20
-40.062149
 11
-27.191029
 21
-40.062149
  0
LINE
  8
0
  6
CENTER
 62
     2
 10
-4.028194
 20
-31.776434
 11
-4.028194
 21
-48.341591
  0
LINE
  8
0
  6
CENTER
 62
     2
 10
22.471806
 20
-31.876432
 11
22.471806
 21
-48.341591
  0
LINE
  8
0
 10
-34.528194
 20
77.437851
 11
-29.528194
 21
77.437851
  0
LINE
  8
0
 10
-34.528194
 20
57.437851
 11
-29.528194
 21
57.437851
  0
LINE
  8
0
 10
-34.528194
 20
-32.562149
 11
-29.528194
 21
-32.562149
  0
LINE
  8
0
 10
-34.528194
 20
-52.562149
 11
-29.528194
 21
-52.562149
  0
LINE
  8
0
 10
-29.528194
 20
85.937851
 11
-29.528194
 21
-61.062149
  0
LINE
  8
0
 10
-29.028194
 20
86.437851
 11
-19.528194
 21
86.437851
  0
LINE
  8
0
 10
-29.028194
 20
-61.562149
 11
-19.528194
 21
-61.562149
  0
LINE
  8
0
 10
-29.028194
 20
-61.562145
 11
-29.528189
 21
-61.062149
  0
LINE
  8
0
 10
-29.528193
 20
85.937866
 11
-29.028198
 21
86.437851
  0
LINE
  8
0
  6
CENTER
 62
     2
 10
-23.528194
 20
-36.532478
 11
-23.528194
 21
-65.156494
  0
LINE
  8
0
  6
DASHED
 62
     2
 10
-21.028194
 20
-56.107613
 11
-21.028194
 21
-61.562149
  0
LINE
  8
0
  6
DASHED
 62
     2
 10
-26.028194
 20
-56.107613
 11
-26.028194
 21
-61.562149
  0
LINE
  8
0
  6
DASHED
 62
     2
 10
-21.528194
 20
-56.107613
 11
-21.528194
 21
-61.562149
  0
LINE
  8
0
  6
DASHED
 62
     2
 10
-25.528194
 20
-56.107613
 11
-25.528194
 21
-61.562149
  0
LINE
  8
0
  6
PHANTOM
 62
     3
 10
12.471806
 20
-53.076828
 11
12.471806
 21
-30.437147
  0
LINE
  8
0
  6
PHANTOM
 62
     3
 10
-0.528194
 20
-53.076828
 11
12.471806
 21
-53.076828
  0
LINE
  8
0
  6
PHANTOM
 62
     3
 10
-2.528194
 20
-49.076820
 11
8.471806
 21
-49.076820
  0
LINE
  8
0
  6
PHANTOM
 62
     3
 10
26.471806
 20
-30.437147
 11
26.471806
 21
100.826469
  0
LINE
  8
0
  6
PHANTOM
 62
     3
 10
8.471806
 20
-49.076820
 11
8.471806
 21
-30.437147
  0
LINE
  8
0
  6
PHANTOM
 62
     3
 10
-2.528194
 20
-30.437147
 11
-2.528194
 21
114.356537
  0
LINE
  8
0
  6
PHANTOM
 62
     3
 10
-2.528194
 20
-75.955894
 11
-2.528194
 21
-49.076820
  0
LINE
  8
0
  6
PHANTOM
 62
     3
 10
-0.528194
 20
-75.955894
 11
-0.528194
 21
-53.076828
  0
LINE
  8
0
 10
-151.250000
 20
-144.000000
 11
-151.250000
 21
-185.000000
  0
LINE
  8
0
 10
-11.250000
 20
-144.000000
 11
-11.250000
 21
-185.000000
  0
LINE
  8
0
 10
-31.250000
 20
-144.000000
 11
-31.250000
 21
-185.000000
  0
LINE
  8
0
 10
-51.250000
 20
-144.000000
 11
-51.250000
 21
-185.000000
  0
LINE
  8
0
 10
-71.250000
 20
-144.000000
 11
-71.250000
 21
-185.000000
  0
LINE
  8
0
 10
-271.250000
 20
-175.000000
 11
-11.250000
 21
-175.000000
  0
LINE
  8
0
 10
-91.250000
 20
-144.000000
 11
-91.250000
 21
-185.000000
  0
LINE
  8
0
 10
-111.250000
 20
-144.000000
 11
-111.250000
 21
-185.000000
  0
LINE
  8
0
 10
-131.250000
 20
-144.000000
 11
-131.250000
 21
-185.000000
  0
LINE
  8
0
 10
-171.250000
 20
-144.000000
 11
-171.250000
 21
-185.000000
  0
LINE
  8
0
 10
-191.250000
 20
-144.000000
 11
-191.250000
 21
-185.000000
  0
LINE
  8
0
 10
-211.250000
 20
-144.000000
 11
-211.250000
 21
-185.000000
  0
LINE
  8
0
 10
-231.250015
 20
-165.000000
 11
-235.000015
 21
-151.000000
  0
LINE
  8
0
 10
-271.250000
 20
-144.000000
 11
-11.250000
 21
-144.000000
  0
LINE
  8
0
 10
-271.250000
 20
-165.000000
 11
-11.250000
 21
-165.000000
  0
LINE
  8
0
 10
-271.250000
 20
-151.000000
 11
-235.000000
 21
-151.000000
  0
LINE
  8
0
 10
-231.250000
 20
-144.000000
 11
-231.250000
 21
-185.000000
  0
LINE
  8
0
 10
-271.250000
 20
-144.000000
 11
-271.250000
 21
-185.000000
  0
LINE
  8
0
 10
-271.250000
 20
-185.000000
 11
-11.250000
 21
-185.000000
  0
LINE
  8
0
 10
282.099854
 20
195.500000
 11
282.099854
 21
-195.000000
  0
LINE
  8
0
 10
-281.250000
 20
195.500000
 11
282.099854
 21
195.500000
  0
LINE
  8
0
 10
-281.250000
 20
195.500000
 11
-281.250000
 21
-195.000000
  0
LINE
  8
0
 10
-281.250000
 20
-195.000000
 11
282.099854
 21
-195.000000
  0
LINE
  8
0
 10
162.099976
 20
-175.000000
 11
162.099976
 21
-195.000000
  0
LINE
  8
0
 10
162.099976
 20
-175.000000
 11
282.099854
 21
-175.000000
  0
LINE
  8
0
 10
162.099976
 20
175.500000
 11
282.099854
 21
175.500000
  0
LINE
  8
0
 10
-281.250000
 20
175.500000
 11
-111.250000
 21
175.500000
  0
LINE
  8
0
 10
162.099976
 20
195.500000
 11
162.099976
 21
175.500000
  0
LINE
  8
0
 10
-111.250000
 20
195.500000
 11
-111.250000
 21
175.500000
  0
CIRCLE
  8
0
 10
177.471802
 20
-42.562149
 40
14.000001
  0
CIRCLE
  8
0
 10
177.471802
 20
67.437851
 40
14.000001
  0
ARC
  8
0
 10
149.071808
 20
24.837852
 40
2.100000
 50
270.000000
 51
90.000000
  0
ARC
  8
0
 10
149.071808
 20
0.037852
 40
2.100000
 50
270.000000
 51
90.000000
  0
ARC
  8
0
 10
205.871796
 20
24.837852
 40
2.100000
 50
90.000000
 51
270.000000
  0
ARC
  8
0
 10
205.871796
 20
0.037852
 40
2.100000
 50
90.000000
 51
270.000000
  0
CIRCLE
  8
0
 62
     2
 10
155.471832
 20
-52.562149
 40
5.000000
  0
CIRCLE
  8
0
 10
155.471832
 20
-52.562149
 40
4.249999
  0
CIRCLE
  8
0
 62
     2
 10
199.471756
 20
-52.562149
 40
5.000000
  0
CIRCLE
  8
0
 10
199.471756
 20
-52.562149
 40
4.249999
  0
CIRCLE
  8
0
 62
     2
 10
155.471832
 20
77.437851
 40
5.000000
  0
CIRCLE
  8
0
 10
155.471832
 20
77.437851
 40
4.249999
  0
CIRCLE
  8
0
 62
     2
 10
199.471756
 20
77.437851
 40
5.000000
  0
CIRCLE
  8
0
 10
199.471756
 20
77.437851
 40
4.249999
  0
CIRCLE
  8
0
 10
177.471848
 20
12.437853
 40
25.999996
  0
CIRCLE
  8
0
 10
177.471848
 20
12.437853
 40
19.000000
  0
CIRCLE
  8
0
 10
157.971802
 20
-40.062149
 40
1.499999
  0
CIRCLE
  8
0
 62
     2
 10
157.971802
 20
-40.062149
 40
2.000000
  0
CIRCLE
  8
0
 10
177.471802
 20
67.437851
 40
10.000000
  0
CIRCLE
  8
0
 10
177.471802
 20
-42.562149
 40
10.000000
  0
CIRCLE
  8
0
 10
-181.099625
 20
12.437853
 40
10.000000
  0
CIRCLE
  8
0
 10
-181.099625
 20
-42.562149
 40
10.000000
  0
CIRCLE
  8
0
 10
-181.099625
 20
67.437851
 40
10.000000
  0
CIRCLE
  8
0
 62
     2
 10
-202.099625
 20
-47.562149
 40
5.000000
  0
CIRCLE
  8
0
 10
-202.099625
 20
-47.562149
 40
4.249999
  0
CIRCLE
  8
0
 10
-202.099625
 20
72.437851
 40
4.249999
  0
CIRCLE
  8
0
 62
     2
 10
-202.099625
 20
72.437851
 40
5.000000
  0
CIRCLE
  8
0
 10
-160.099625
 20
-47.562149
 40
4.249999
  0
CIRCLE
  8
0
 62
     2
 10
-160.099625
 20
-47.562149
 40
5.000000
  0
CIRCLE
  8
0
 10
-160.099625
 20
72.437851
 40
4.249999
  0
CIRCLE
  8
0
 62
     2
 10
-160.099625
 20
72.437851
 40
5.000000
  0
CIRCLE
  8
0
 10
-181.099625
 20
-42.562149
 40
8.750000
  0
CIRCLE
  8
0
 10
-181.099625
 20
-42.562149
 40
5.599999
  0
CIRCLE
  8
0
 10
-181.099625
 20
67.437851
 40
8.750000
  0
CIRCLE
  8
0
 10
-181.099625
 20
67.437851
 40
5.599999
  0
CIRCLE
  8
0
 10
-181.099625
 20
12.437853
 40
8.750000
  0
CIRCLE
  8
0
 10
-181.099625
 20
12.437853
 40
5.599999
  0
ARC
  8
0
 10
-41.528179
 20
12.430710
 40
10.002336
 50
334.130249
 51
25.869745
  0
CIRCLE
  8
0
 10
-11.528175
 20
45.437859
 40
7.000000
  0
CIRCLE
  8
0
  6
DASHED
 62
     2
 10
-11.528175
 20
45.437859
 40
5.000000
  0
CIRCLE
  8
0
 10
-11.528175
 20
45.437859
 40
4.299999
  0
CIRCLE
  8
0
 10
8.471802
 20
45.437859
 40
7.000000
  0
CIRCLE
  8
0
 10
8.471802
 20
45.437859
 40
4.299999
  0
CIRCLE
  8
0
  6
DASHED
 62
     2
 10
8.471802
 20
45.437859
 40
5.000000
  0
CIRCLE
  8
0
 10
8.471813
 20
-20.562155
 40
4.299999
  0
CIRCLE
  8
0
 10
-11.528156
 20
-20.562155
 40
7.000000
  0
CIRCLE
  8
0
 10
-11.528156
 20
-20.562155
 40
4.299999
  0
CIRCLE
  8
0
  6
DASHED
 62
     2
 10
-11.528156
 20
-20.562155
 40
5.000000
  0
CIRCLE
  8
0
 10
8.471813
 20
-20.562155
 40
7.000000
  0
CIRCLE
  8
0
  6
DASHED
 62
     2
 10
8.471813
 20
-20.562155
 40
5.000000
  0
CIRCLE
  8
0
 62
     2
 10
22.471821
 20
-40.062141
 40
6.750000
  0
CIRCLE
  8
0
 10
22.471821
 20
-40.062141
 40
5.750000
  0
CIRCLE
  8
0
 62
     2
 10
-4.028164
 20
-40.062141
 40
6.750000
  0
CIRCLE
  8
0
 10
-4.028164
 20
-40.062141
 40
5.750000
  0
CIRCLE
  8
0
 62
     2
 10
-23.528194
 20
-40.062149
 40
2.500000
  0
CIRCLE
  8
0
 10
-23.528194
 20
-40.062149
 40
2.000000
  0
TEXT
  8
0
 10
-163.892654
 20
-183.050003
 40
4.500000
  1
0
 50
0.000000
 41
1.052632
 51
0.000000
  7
STANDARD
  0
TEXT
  8
0
 10
-166.142654
 20
-173.050003
 40
4.500000
  1
30
 50
0.000000
 41
1.052632
 51
0.000000
  7
STANDARD
  0
TEXT
  8
0
 10
-166.142654
 20
-157.550003
 40
4.500000
  1
40
 50
0.000000
 41
1.052632
 51
0.000000
  7
STANDARD
  0
TEXT
  8
0
 10
-203.892654
 20
-183.050003
 40
4.500000
  1
0
 50
0.000000
 41
1.052632
 51
0.000000
  7
STANDARD
  0
TEXT
  8
0
 10
-183.892654
 20
-183.050003
 40
4.500000
  1
0
 50
0.000000
 41
1.052632
 51
0.000000
  7
STANDARD
  0
TEXT
  8
0
 10
-143.892654
 20
-183.050003
 40
4.500000
  1
0
 50
0.000000
 41
1.052632
 51
0.000000
  7
STANDARD
  0
TEXT
  8
0
 10
-126.142654
 20
-183.050003
 40
4.500000
  1
25
 50
0.000000
 41
1.052632
 51
0.000000
  7
STANDARD
  0
TEXT
  8
0
 10
-106.142654
 20
-183.050003
 40
4.500000
  1
50
 50
0.000000
 41
1.052632
 51
0.000000
  7
STANDARD
  0
TEXT
  8
0
 10
-86.142654
 20
-183.050003
 40
4.500000
  1
25
 50
0.000000
 41
1.052632
 51
0.000000
  7
STANDARD
  0
TEXT
  8
0
 10
-66.142654
 20
-183.050003
 40
4.500000
  1
50
 50
0.000000
 41
1.052632
 51
0.000000
  7
STANDARD
  0
TEXT
  8
0
 10
-46.142658
 20
-183.050003
 40
4.500000
  1
75
 50
0.000000
 41
1.052632
 51
0.000000
  7
STANDARD
  0
TEXT
  8
0
 10
-28.392656
 20
-183.050003
 40
4.500000
  1
100
 50
0.000000
 41
1.052632
 51
0.000000
  7
STANDARD
  0
TEXT
  8
0
 10
-223.892654
 20
-183.050003
 40
4.500000
  1
0
 50
0.000000
 41
1.052632
 51
0.000000
  7
STANDARD
  0
TEXT
  8
0
 10
-223.892654
 20
-173.050003
 40
4.500000
  1
0
 50
0.000000
 41
1.052632
 51
0.000000
  7
STANDARD
  0
TEXT
  8
0
 10
-26.142656
 20
-173.050003
 40
4.500000
  1
90
 50
0.000000
 41
1.052632
 51
0.000000
  7
STANDARD
  0
TEXT
  8
0
 10
-46.142658
 20
-173.050003
 40
4.500000
  1
90
 50
0.000000
 41
1.052632
 51
0.000000
  7
STANDARD
  0
TEXT
  8
0
 10
-66.142654
 20
-173.050003
 40
4.500000
  1
90
 50
0.000000
 41
1.052632
 51
0.000000
  7
STANDARD
  0
TEXT
  8
0
 10
-86.142654
 20
-173.050003
 40
4.500000
  1
90
 50
0.000000
 41
1.052632
 51
0.000000
  7
STANDARD
  0
TEXT
  8
0
 10
-106.142654
 20
-173.050003
 40
4.500000
  1
40
 50
0.000000
 41
1.052632
 51
0.000000
  7
STANDARD
  0
TEXT
  8
0
 10
-126.142654
 20
-173.050003
 40
4.500000
  1
40
 50
0.000000
 41
1.052632
 51
0.000000
  7
STANDARD
  0
TEXT
  8
0
 10
-146.142654
 20
-173.050003
 40
4.500000
  1
40
 50
0.000000
 41
1.052632
 51
0.000000
  7
STANDARD
  0
TEXT
  8
0
 10
-186.142654
 20
-173.050003
 40
4.500000
  1
20
 50
0.000000
 41
1.052632
 51
0.000000
  7
STANDARD
  0
TEXT
  8
0
 10
-206.142654
 20
-173.050003
 40
4.500000
  1
10
 50
0.000000
 41
1.052632
 51
0.000000
  7
STANDARD
  0
TEXT
  8
0
 10
-28.392656
 20
-157.550003
 40
4.500000
  1
200
 50
0.000000
 41
1.052632
 51
0.000000
  7
STANDARD
  0
TEXT
  8
0
 10
-48.392658
 20
-157.550003
 40
4.500000
  1
175
 50
0.000000
 41
1.052632
 51
0.000000
  7
STANDARD
  0
TEXT
  8
0
 10
-68.392654
 20
-157.550003
 40
4.500000
  1
150
 50
0.000000
 41
1.052632
 51
0.000000
  7
STANDARD
  0
TEXT
  8
0
 10
-88.392654
 20
-157.550003
 40
4.500000
  1
125
 50
0.000000
 41
1.052632
 51
0.000000
  7
STANDARD
  0
TEXT
  8
0
 10
-30.642656
 20
-144.050003
 40
4.500000
  1
üiüvÝúÝ)
 50
0.000000
 41
0.833333
 51
0.000000
  7
STANDARD
  0
TEXT
  8
0
 10
-168.642654
 20
-142.050003
 40
4.500000
  1
STRETCH LIST
 50
0.000000
 41
1.052632
 51
0.000000
  7
STANDARD
  0
TEXT
  8
0
 10
-253.892654
 20
-183.050003
 40
4.500000
  1
B
 50
0.000000
 41
1.052632
 51
0.000000
  7
STANDARD
  0
TEXT
  8
0
 10
-253.892654
 20
-173.050003
 40
4.500000
  1
A
 50
0.000000
 41
1.052632
 51
0.000000
  7
STANDARD
  0
TEXT
  8
0
 10
-267.392670
 20
-156.324997
 40
4.500000
  1
STRETCH
 50
0.000000
 41
1.052632
 51
0.000000
  7
STANDARD
  0
TEXT
  8
0
 10
-267.392670
 20
-163.074997
 40
4.500000
  1
  PLACE
 50
0.000000
 41
1.052632
 51
0.000000
  7
STANDARD
  0
TEXT
  8
0
 10
-265.142670
 20
-150.550003
 40
4.500000
  1
STROKE
 50
0.000000
 41
1.052632
 51
0.000000
  7
STANDARD
  0
TEXT
  8
0
 10
-108.392654
 20
-157.550003
 40
4.500000
  1
100
 50
0.000000
 41
1.052632
 51
0.000000
  7
STANDARD
  0
TEXT
  8
0
 10
-126.142654
 20
-157.550003
 40
4.500000
  1
75
 50
0.000000
 41
1.052632
 51
0.000000
  7
STANDARD
  0
TEXT
  8
0
 10
-146.142654
 20
-157.550003
 40
4.500000
  1
50
 50
0.000000
 41
1.052632
 51
0.000000
  7
STANDARD
  0
TEXT
  8
0
 10
-186.142654
 20
-157.550003
 40
4.500000
  1
30
 50
0.000000
 41
1.052632
 51
0.000000
  7
STANDARD
  0
TEXT
  8
0
 10
-206.142654
 20
-157.550003
 40
4.500000
  1
20
 50
0.000000
 41
1.052632
 51
0.000000
  7
STANDARD
  0
TEXT
  8
0
 10
-226.142654
 20
-157.550003
 40
4.500000
  1
10
 50
0.000000
 41
1.052632
 51
0.000000
  7
STANDARD
  0
TEXT
  8
0
 10
-278.799713
 20
180.830002
 40
6.300000
  1
CS JIG CYLINDER WITH GUIDE
 50
0.000000
 41
1.052632
 51
0.000000
  7
STANDARD
  0
TEXT
  8
0
 10
196.250259
 20
180.830002
 40
6.300000
  1
éuüvÕú‗.ü@éPüDéO
 50
0.000000
 41
0.833333
 51
0.000000
  7
STANDARD
  0
TEXT
  8
0
 62
     3
 10
-47.067257
 20
114.360413
 40
6.300000
  1
STRETCH LINE A
 50
0.000000
 41
1.052632
 51
0.000000
  7
STANDARD
  0
TEXT
  8
0
 62
     3
 10
5.271455
 20
101.537697
 40
6.300000
  1
STRETCH LINE B
 50
0.000000
 41
1.052632
 51
0.000000
  7
STANDARD
  0
TEXT
  8
0
 10
-270.049713
 20
155.830002
 40
6.300000
  1
MODEL:CS-SGDAQ50*ST(10)
 50
0.000000
 41
1.052632
 51
0.000000
  7
STANDARD
  0
TEXT
  8
0
 10
167.564667
 20
-192.100006
 40
9.000000
  1
KOGANEI CORP.
 50
0.000000
 41
1.052632
 51
0.000000
  7
STANDARD
  0
TEXT
  8
0
 62
     2
 10
56.905174
 20
-93.226830
 40
3.200000
  1
ST=75,100,125,150,175,200
 50
0.000000
 41
1.052632
 51
0.000000
  7
STANDARD
  0
LINE
  8
0
 62
     2
 10
66.471809
 20
-94.226830
 11
136.655182
 21
-94.226830
  0
LINE
  8
0
 62
     2
 10
66.471809
 20
-94.226830
 11
37.471806
 21
-94.226830
  0
LINE
  8
0
 62
     2
 10
66.471809
 20
-94.226830
 11
63.574032
 21
-95.003288
  0
LINE
  8
0
 62
     2
 10
66.471809
 20
-94.226830
 11
63.574032
 21
-93.450371
  0
LINE
  8
0
 62
     2
 10
37.471806
 20
-94.226830
 11
40.369583
 21
-93.450371
  0
LINE
  8
0
 62
     2
 10
37.471806
 20
-94.226830
 11
40.369583
 21
-95.003288
  0
LINE
  8
0
 62
     2
 10
66.471809
 20
-52.062149
 11
66.471809
 21
-95.726830
  0
LINE
  8
0
 62
     2
 10
37.471806
 20
-62.062145
 11
37.471806
 21
-95.726830
  0
ENDSEC
  0
EOF
