  0
SECTION
  2
HEADER
  0
ENDSEC
  0
SECTION
  2
TABLES
  0
TABLE
  2
LTYPE
 70
     4
  0
LTYPE
  2
CONTINUOUS
 70
    64
  3
Solid line
 72
    65
 73
     0
 40
0.000000
  0
LTYPE
  2
DASHED
 70
    64
  3
__ __ __ __ __ __ __ __ __ __ __ __ __ __ __
 72
    65
 73
     2
 40
3.500000
 49
2.000000
 49
-1.500000
  0
LTYPE
  2
CENTER
 70
    64
  3
____ _ ____ _ ____ _ ____ _ ____ _ ____ _ ____
 72
    65
 73
     4
 40
17.500000
 49
13.000000
 49
-1.500000
 49
1.500000
 49
-1.500000
  0
LTYPE
  2
PHANTOM
 70
    64
  3
_____ _ _ _____ _ _ _____ _ _ _____ _ _ ____  
 72
    65
 73
     6
 40
15.500000
 49
8.000000
 49
-1.500000
 49
1.500000
 49
-1.500000
 49
1.500000
 49
-1.500000
  0
LTYPE
  2
DASHED1
 70
    64
  3
__ __ __ __ __ __ __ __ __ __ __ __ __ __ __
 72
    65
 73
     2
 40
1.500000
 49
1.000000
 49
-0.500000
  0
LTYPE
  2
DASHED2
 70
    64
  3
__ __ __ __ __ __ __ __ __ __ __ __ __ __ __
 72
    65
 73
     2
 40
3.500000
 49
2.500000
 49
-1.000000
  0
LTYPE
  2
DASHED3
 70
    64
  3
__ __ __ __ __ __ __ __ __ __ __ __ __ __ __
 72
    65
 73
     2
 40
6.000000
 49
4.000000
 49
-2.000000
  0
LTYPE
  2
DASHED4
 70
    64
  3
__ __ __ __ __ __ __ __ __ __ __ __ __ __ __
 72
    65
 73
     2
 40
12.000000
 49
10.000000
 49
-2.000000
  0
LTYPE
  2
DASHED5
 70
    64
  3
__ __ __ __ __ __ __ __ __ __ __ __ __ __ __
 72
    65
 73
     2
 40
17.000000
 49
15.000000
 49
-2.000000
  0
LTYPE
  2
DASHED6
 70
    64
  3
__ __ __ __ __ __ __ __ __ __ __ __ __ __ __
 72
    65
 73
     2
 40
29.000000
 49
27.000000
 49
-2.000000
  0
LTYPE
  2
PHANTOM1
 70
    64
  3
_____ _ _ _____ _ _ _____ _ _ _____ _ _ ____  
 72
    65
 73
     6
 40
31.000000
 49
25.000000
 49
-1.500000
 49
1.000000
 49
-1.000000
 49
1.000000
 49
-1.500000
  0
LTYPE
  2
PHANTOM2
 70
    64
  3
_____ _ _ _____ _ _ _____ _ _ _____ _ _ ____  
 72
    65
 73
     6
 40
36.000000
 49
27.000000
 49
-1.500000
 49
2.500000
 49
-1.000000
 49
2.500000
 49
-1.500000
  0
LTYPE
  2
PHANTOM3
 70
    64
  3
_____ _ _ _____ _ _ _____ _ _ _____ _ _ ____  
 72
    65
 73
     6
 40
78.000000
 49
64.000000
 49
-2.000000
 49
4.000000
 49
-2.000000
 49
4.000000
 49
-2.000000
  0
LTYPE
  2
CENTER1
 70
    64
  3
____ _ ____ _ ____ _ ____ _ ____ _ ____ _ ____
 72
    65
 73
     4
 40
19.000000
 49
14.000000
 49
-1.000000
 49
3.000000
 49
-1.000000
  0
LTYPE
  2
CENTER2
 70
    64
  3
____ _ ____ _ ____ _ ____ _ ____ _ ____ _ ____
 72
    65
 73
     4
 40
28.500000
 49
25.000000
 49
-1.000000
 49
1.500000
 49
-1.000000
  0
LTYPE
  2
CENTER3
 70
    64
  3
____ _ ____ _ ____ _ ____ _ ____ _ ____ _ ____
 72
    65
 73
     4
 40
31.500000
 49
27.000000
 49
-1.000000
 49
2.500000
 49
-1.000000
  0
LTYPE
  2
CENTER4
 70
    64
  3
____ _ ____ _ ____ _ ____ _ ____ _ ____ _ ____
 72
    65
 73
     4
 40
50.000000
 49
45.000000
 49
-1.000000
 49
3.000000
 49
-1.000000
  0
LTYPE
  2
CENTER5
 70
    64
  3
____ _ ____ _ ____ _ ____ _ ____ _ ____ _ ____
 72
    65
 73
     4
 40
100.000000
 49
92.000000
 49
-2.000000
 49
4.000000
 49
-2.000000
  0
LTYPE
  2
SBK1
 70
    64
  3
______ _ _ _ ______ _ _ _ ______ _ _ _ _____  
 72
    65
 73
     8
 40
60.500000
 49
45.000000
 49
-2.000000
 49
2.500000
 49
-2.000000
 49
2.500000
 49
-2.000000
 49
2.500000
 49
-2.000000
  0
LTYPE
  2
SBK2
 70
    64
  3
______ _ _ _ ______ _ _ _ ______ _ _ _ _____  
 72
    65
 73
     8
 40
84.000000
 49
64.000000
 49
-2.000000
 49
4.000000
 49
-2.000000
 49
4.000000
 49
-2.000000
 49
4.000000
 49
-2.000000
  0
LTYPE
  2
STCH
 70
    64
  3
__ __ __ __ __ __ __ __ __ __ __ __ __ __ __
 72
    65
 73
     2
 40
3.000000
 49
1.000000
 49
-2.000000
  0
LTYPE
  2
MTCH
 70
    64
  3
_____ _ _ _____ _ _ _____ _ _ _____ _ _ ____  
 72
    65
 73
     6
 40
80.000000
 49
66.000000
 49
-2.000000
 49
4.000000
 49
-2.000000
 49
4.000000
 49
-2.000000
  0
ENDTAB
  0
TABLE
  2
LAYER
 70
     1
  0
LAYER
  2
0
 70
     0
 62
     7
  6
CONTINUOUS
  0
ENDTAB
  0
TABLE
  2
STYLE
 70
     1
  0
STYLE
  2
STANDARD
 70
     0
 40
0.000000
 41
1.000000
 50
0.000000
 71
     0
 42
0.200000
  3
txt
  4
BIGFONT
  0
ENDTAB
  0
TABLE
  2
VIEW
 70
     0
  0
ENDTAB
  0
ENDSEC
  0
SECTION
  2
BLOCKS
  0
ENDSEC
  0
SECTION
  2
ENTITIES
  0
LINE
  8
0
 10
-140.763336
 20
94.302391
 11
-210.763336
 21
94.302391
  0
LINE
  8
0
 10
-140.763336
 20
-67.697609
 11
-210.763336
 21
-67.697609
  0
LINE
  8
0
 10
-137.763336
 20
91.302391
 11
-137.763336
 21
75.945244
  0
LINE
  8
0
 10
-140.763336
 20
94.302391
 11
-137.763321
 21
91.302383
  0
LINE
  8
0
 10
-210.763336
 20
94.302391
 11
-213.763336
 21
91.302391
  0
LINE
  8
0
 10
-213.763336
 20
-64.697617
 11
-210.763336
 21
-67.697617
  0
LINE
  8
0
 10
-137.763336
 20
-11.197612
 11
-137.763336
 21
-64.697609
  0
LINE
  8
0
  6
CENTER
 62
     2
 10
-217.306198
 20
13.302388
 11
-134.834763
 21
13.302388
  0
LINE
  8
0
 10
-213.763336
 20
-11.197612
 11
-213.763336
 21
-42.540470
  0
LINE
  8
0
 10
-137.763336
 20
-64.697617
 11
-140.763336
 21
-67.697624
  0
LINE
  8
0
 10
-213.763336
 20
77.445251
 11
-213.763336
 21
91.302391
  0
LINE
  8
0
 10
-213.763336
 20
37.802387
 11
-213.763336
 21
69.145248
  0
LINE
  8
0
 10
-138.263336
 20
25.102388
 11
-138.763336
 21
25.102388
  0
LINE
  8
0
 10
-138.263336
 20
28.302387
 11
-138.763336
 21
28.302387
  0
LINE
  8
0
 10
-138.263336
 20
37.302387
 11
-138.263336
 21
28.302387
  0
LINE
  8
0
 10
-138.263336
 20
25.102388
 11
-138.263336
 21
1.502388
  0
LINE
  8
0
 10
-212.763336
 20
69.145248
 11
-213.763336
 21
69.145248
  0
LINE
  8
0
 10
-212.763336
 20
77.445251
 11
-213.763336
 21
77.445251
  0
LINE
  8
0
 10
-137.763336
 20
75.945244
 11
-138.763336
 21
75.945244
  0
LINE
  8
0
 10
-137.763336
 20
70.645248
 11
-138.763336
 21
70.645248
  0
LINE
  8
0
 10
-137.763336
 20
70.645248
 11
-137.763336
 21
37.802387
  0
LINE
  8
0
 10
-138.263336
 20
37.302391
 11
-137.763336
 21
37.802399
  0
LINE
  8
0
 10
-138.263336
 20
1.502388
 11
-138.763336
 21
1.502388
  0
LINE
  8
0
 10
-138.263336
 20
-1.697612
 11
-138.763336
 21
-1.697612
  0
LINE
  8
0
 10
-138.263336
 20
-10.697612
 11
-138.263336
 21
-1.697612
  0
LINE
  8
0
 10
-138.263336
 20
-10.697613
 11
-137.763336
 21
-11.197614
  0
LINE
  8
0
 10
-213.263336
 20
25.102388
 11
-212.763336
 21
25.102388
  0
LINE
  8
0
 10
-213.263336
 20
28.302387
 11
-212.763336
 21
28.302387
  0
LINE
  8
0
 10
-213.263336
 20
37.302387
 11
-213.263336
 21
28.302387
  0
LINE
  8
0
 10
-213.263336
 20
25.102388
 11
-213.263336
 21
1.502388
  0
LINE
  8
0
 10
-213.263336
 20
-10.697614
 11
-213.763336
 21
-11.197615
  0
LINE
  8
0
 10
-213.263336
 20
37.302383
 11
-213.763336
 21
37.802387
  0
LINE
  8
0
 10
-213.263336
 20
1.502388
 11
-212.763336
 21
1.502388
  0
LINE
  8
0
 10
-213.263336
 20
-1.697612
 11
-212.763336
 21
-1.697612
  0
LINE
  8
0
 10
-213.263336
 20
-10.697612
 11
-213.263336
 21
-1.697612
  0
LINE
  8
0
 10
-213.763336
 20
-50.840473
 11
-213.763336
 21
-64.697609
  0
LINE
  8
0
 10
-212.763336
 20
-42.540470
 11
-213.763336
 21
-42.540470
  0
LINE
  8
0
 10
-212.763336
 20
-50.840473
 11
-213.763336
 21
-50.840473
  0
LINE
  8
0
 10
-210.763336
 20
93.302391
 11
-211.763336
 21
92.302399
  0
LINE
  8
0
 10
-211.763336
 20
-65.697617
 11
-210.763336
 21
-66.697609
  0
LINE
  8
0
 10
-139.763336
 20
-65.697617
 11
-140.763336
 21
-66.697617
  0
LINE
  8
0
 10
-140.763336
 20
93.302391
 11
-139.763336
 21
92.302383
  0
LINE
  8
0
  6
CENTER
 62
     2
 10
-201.763336
 20
-59.797611
 11
-201.763336
 21
-45.426186
  0
LINE
  8
0
  6
CENTER
 62
     2
 10
-194.063339
 20
-52.697613
 11
-209.006195
 21
-52.697613
  0
LINE
  8
0
  6
CENTER
 62
     2
 10
-193.577621
 20
79.302391
 11
-209.006195
 21
79.302391
  0
LINE
  8
0
  6
CENTER
 62
     2
 10
-149.763336
 20
-59.983326
 11
-149.763336
 21
-45.426186
  0
LINE
  8
0
 10
-139.763336
 20
92.302391
 11
-139.763336
 21
-65.697609
  0
LINE
  8
0
 10
-211.763336
 20
92.302391
 11
-211.763336
 21
-65.697609
  0
LINE
  8
0
 10
-175.763336
 20
77.759537
 11
-178.763336
 21
76.030960
  0
LINE
  8
0
 10
-178.763336
 20
76.030960
 11
-178.763336
 21
72.559532
  0
LINE
  8
0
 10
-175.763336
 20
70.830963
 11
-178.763336
 21
72.559532
  0
LINE
  8
0
 10
-172.763336
 20
72.559532
 11
-175.763336
 21
70.830963
  0
LINE
  8
0
 10
-172.763336
 20
76.030960
 11
-172.763336
 21
72.559532
  0
LINE
  8
0
 10
-175.763321
 20
77.759537
 11
-172.763336
 21
76.030960
  0
LINE
  8
0
 10
-175.763336
 20
-44.226177
 11
-172.763336
 21
-45.954750
  0
LINE
  8
0
 10
-175.763336
 20
-44.226189
 11
-178.763336
 21
-45.954754
  0
LINE
  8
0
 10
-178.763336
 20
-45.954758
 11
-178.763336
 21
-49.426186
  0
LINE
  8
0
 10
-175.763336
 20
-51.154755
 11
-178.763336
 21
-49.426182
  0
LINE
  8
0
 10
-172.763336
 20
-49.426186
 11
-175.763336
 21
-51.154755
  0
LINE
  8
0
 10
-172.763336
 20
-45.954758
 11
-172.763336
 21
-49.426186
  0
LINE
  8
0
 10
-175.763336
 20
16.759535
 11
-172.763336
 21
15.030966
  0
LINE
  8
0
 10
-175.763336
 20
16.759527
 11
-178.763336
 21
15.030951
  0
LINE
  8
0
 10
-178.763336
 20
15.030960
 11
-178.763336
 21
11.559531
  0
LINE
  8
0
 10
-175.763336
 20
9.830961
 11
-178.763336
 21
11.559530
  0
LINE
  8
0
 10
-172.763336
 20
11.559530
 11
-175.763336
 21
9.830955
  0
LINE
  8
0
 10
-172.763336
 20
15.030960
 11
-172.763336
 21
11.559531
  0
LINE
  8
0
  6
CENTER
 62
     2
 10
-175.763336
 20
98.516678
 11
-175.763336
 21
-72.354752
  0
LINE
  8
0
  6
CENTER
 62
     2
 10
-201.763336
 20
86.388107
 11
-201.763336
 21
71.973816
  0
LINE
  8
0
  6
CENTER
 62
     2
 10
-157.320480
 20
-52.697613
 11
-142.349045
 21
-52.697613
  0
LINE
  8
0
  6
CENTER
 62
     2
 10
-157.606201
 20
79.302391
 11
-142.349045
 21
79.302391
  0
LINE
  8
0
  6
CENTER
 62
     2
 10
-149.763336
 20
86.673820
 11
-149.763336
 21
71.973816
  0
LINE
  8
0
  6
CENTER
 62
     2
 10
-187.949051
 20
74.302391
 11
-164.106201
 21
74.302391
  0
LINE
  8
0
  6
CENTER
 62
     2
 10
-187.949051
 20
-47.697613
 11
-164.106201
 21
-47.697613
  0
LINE
  8
0
 10
-138.763336
 20
92.802391
 11
-138.763336
 21
-66.197609
  0
LINE
  8
0
 10
-212.763336
 20
92.802391
 11
-212.763336
 21
-66.197609
  0
LINE
  8
0
 10
-212.263336
 20
93.302391
 11
-139.263336
 21
93.302391
  0
LINE
  8
0
 10
-212.263336
 20
-66.697609
 11
-139.263336
 21
-66.697609
  0
LINE
  8
0
 10
-138.763336
 20
92.802391
 11
-139.263336
 21
93.302391
  0
LINE
  8
0
 10
-212.263336
 20
93.302391
 11
-212.763336
 21
92.802391
  0
LINE
  8
0
 10
-138.763336
 20
-66.197609
 11
-139.263336
 21
-66.697609
  0
LINE
  8
0
 10
-212.763336
 20
-66.197624
 11
-212.263336
 21
-66.697624
  0
LINE
  8
0
  6
CENTER
 62
     2
 10
169.150970
 20
73.302391
 11
151.504822
 21
73.302391
  0
LINE
  8
0
 10
157.808105
 20
94.302391
 11
227.808105
 21
94.302391
  0
LINE
  8
0
 10
157.808105
 20
-67.697609
 11
227.808105
 21
-67.697609
  0
LINE
  8
0
  6
CENTER
 62
     2
 10
173.365250
 20
74.302391
 11
211.850967
 21
74.302391
  0
LINE
  8
0
  6
CENTER
 62
     2
 10
176.265244
 20
-47.697613
 11
209.708099
 21
-47.697613
  0
LINE
  8
0
 10
157.808105
 20
94.302391
 11
154.808105
 21
91.302383
  0
LINE
  8
0
 10
227.808090
 20
94.302383
 11
230.808105
 21
91.302383
  0
LINE
  8
0
 10
230.808105
 20
-64.697617
 11
227.808105
 21
-67.697617
  0
LINE
  8
0
 10
154.808105
 20
-11.197612
 11
154.808105
 21
-64.697609
  0
LINE
  8
0
 10
230.808105
 20
-11.197612
 11
230.808105
 21
-42.540470
  0
LINE
  8
0
 10
154.808105
 20
-64.697617
 11
157.808105
 21
-67.697609
  0
LINE
  8
0
 10
155.308105
 20
25.102388
 11
155.808105
 21
25.102388
  0
LINE
  8
0
 10
155.808105
 20
25.102386
 11
156.308105
 21
24.602386
  0
LINE
  8
0
 10
156.308105
 20
24.602388
 11
157.908112
 21
24.602388
  0
LINE
  8
0
 10
156.308105
 20
28.802387
 11
157.908112
 21
28.802387
  0
LINE
  8
0
 10
155.808105
 20
28.302387
 11
156.308105
 21
28.802387
  0
LINE
  8
0
 10
155.308105
 20
28.302387
 11
155.808105
 21
28.302387
  0
LINE
  8
0
 10
155.308105
 20
37.302387
 11
155.308105
 21
28.302387
  0
LINE
  8
0
 10
155.308105
 20
25.102388
 11
155.308105
 21
1.502388
  0
LINE
  8
0
 10
155.308105
 20
37.302391
 11
154.808105
 21
37.802391
  0
LINE
  8
0
 10
155.308105
 20
1.502388
 11
155.808105
 21
1.502388
  0
LINE
  8
0
 10
155.808105
 20
1.502388
 11
156.308105
 21
2.002384
  0
LINE
  8
0
 10
156.308105
 20
2.002388
 11
157.908112
 21
2.002388
  0
LINE
  8
0
 10
156.308105
 20
-2.197612
 11
157.908112
 21
-2.197612
  0
LINE
  8
0
 10
155.808105
 20
-1.697610
 11
156.308105
 21
-2.197611
  0
LINE
  8
0
 10
155.308105
 20
-1.697612
 11
155.808105
 21
-1.697612
  0
LINE
  8
0
 10
155.308105
 20
-10.697612
 11
155.308105
 21
-1.697612
  0
LINE
  8
0
 10
155.308105
 20
-10.697607
 11
154.808105
 21
-11.197608
  0
LINE
  8
0
 10
230.308105
 20
25.102388
 11
229.808105
 21
25.102388
  0
LINE
  8
0
 10
229.808090
 20
25.102386
 11
229.308105
 21
24.602398
  0
LINE
  8
0
 10
229.308105
 20
24.602388
 11
227.708099
 21
24.602388
  0
LINE
  8
0
 10
229.308105
 20
28.802387
 11
227.708099
 21
28.802387
  0
LINE
  8
0
 10
229.808105
 20
28.302397
 11
229.308105
 21
28.802399
  0
LINE
  8
0
 10
230.308105
 20
28.302387
 11
229.808105
 21
28.302387
  0
LINE
  8
0
 10
230.308105
 20
37.302387
 11
230.308105
 21
28.302387
  0
LINE
  8
0
 10
230.308105
 20
25.102388
 11
230.308105
 21
1.502388
  0
LINE
  8
0
 10
230.308121
 20
-10.697609
 11
230.808121
 21
-11.197610
  0
LINE
  8
0
 10
230.308105
 20
37.302376
 11
230.808105
 21
37.802376
  0
LINE
  8
0
 10
230.308105
 20
1.502388
 11
229.808105
 21
1.502388
  0
LINE
  8
0
 10
229.808121
 20
1.502388
 11
229.308121
 21
2.002388
  0
LINE
  8
0
 10
229.308105
 20
2.002388
 11
227.708099
 21
2.002388
  0
LINE
  8
0
 10
229.308105
 20
-2.197612
 11
227.708099
 21
-2.197612
  0
LINE
  8
0
 10
229.808121
 20
-1.697614
 11
229.308121
 21
-2.197615
  0
LINE
  8
0
 10
230.308105
 20
-1.697612
 11
229.808105
 21
-1.697612
  0
LINE
  8
0
 10
230.308105
 20
-10.697612
 11
230.308105
 21
-1.697612
  0
LINE
  8
0
 10
230.808105
 20
-50.840473
 11
230.808105
 21
-64.697609
  0
LINE
  8
0
 10
226.308105
 20
-50.840473
 11
226.308105
 21
-53.340473
  0
LINE
  8
0
 10
219.308105
 20
-40.040470
 11
219.308105
 21
-53.340473
  0
LINE
  8
0
 10
226.308105
 20
-40.040470
 11
226.308105
 21
-42.540470
  0
LINE
  8
0
 10
219.308105
 20
-53.340473
 11
226.308105
 21
-53.340473
  0
LINE
  8
0
 10
219.308105
 20
-40.040470
 11
226.308105
 21
-40.040470
  0
LINE
  8
0
 10
226.308105
 20
-42.540470
 11
230.808105
 21
-42.540470
  0
LINE
  8
0
 10
226.308105
 20
-50.840473
 11
230.808105
 21
-50.840473
  0
LINE
  8
0
  6
CENTER
 62
     2
 10
163.665253
 20
85.302391
 11
178.093826
 21
85.302391
  0
LINE
  8
0
  6
CENTER
 62
     2
 10
163.665253
 20
-58.697613
 11
178.093826
 21
-58.697613
  0
LINE
  8
0
  6
DASHED
 62
     2
 10
170.808105
 20
-62.208401
 11
170.808105
 21
-67.697609
  0
LINE
  8
0
  6
CENTER
 62
     2
 10
214.808105
 20
-51.697613
 11
214.808105
 21
-65.697609
  0
LINE
  8
0
 10
194.308105
 20
-67.697609
 11
194.308105
 21
-61.611897
  0
LINE
  8
0
 10
191.308105
 20
-67.697609
 11
191.308105
 21
-61.611897
  0
LINE
  8
0
 10
194.308105
 20
94.302391
 11
194.308105
 21
88.216675
  0
LINE
  8
0
 10
191.308105
 20
94.302391
 11
191.308105
 21
88.216675
  0
LINE
  8
0
 10
154.808105
 20
91.302391
 11
154.808105
 21
75.945244
  0
LINE
  8
0
 10
154.808105
 20
75.945244
 11
157.808105
 21
75.945244
  0
LINE
  8
0
 10
157.808105
 20
77.302391
 11
157.808105
 21
75.945244
  0
LINE
  8
0
 10
157.808105
 20
77.302391
 11
162.308105
 21
77.302391
  0
LINE
  8
0
 10
162.308105
 20
77.302391
 11
162.308105
 21
69.302391
  0
LINE
  8
0
 10
157.808105
 20
69.302391
 11
162.308105
 21
69.302391
  0
LINE
  8
0
 10
157.808105
 20
70.459534
 11
157.808105
 21
69.302391
  0
LINE
  8
0
 10
154.808105
 20
70.645248
 11
157.808105
 21
70.645248
  0
LINE
  8
0
 10
154.808105
 20
70.645248
 11
154.808105
 21
37.802387
  0
LINE
  8
0
 10
219.308105
 20
79.945251
 11
226.308105
 21
79.945251
  0
LINE
  8
0
 10
219.308105
 20
66.645248
 11
219.308105
 21
79.945251
  0
LINE
  8
0
 10
219.308105
 20
66.645248
 11
226.308105
 21
66.645248
  0
LINE
  8
0
 10
226.308105
 20
66.645248
 11
226.308105
 21
69.145248
  0
LINE
  8
0
 10
226.308105
 20
69.145248
 11
230.808105
 21
69.145248
  0
LINE
  8
0
 10
230.808105
 20
37.802387
 11
230.808105
 21
69.145248
  0
LINE
  8
0
 10
226.308105
 20
77.445251
 11
230.808105
 21
77.445251
  0
LINE
  8
0
 10
226.308105
 20
77.445251
 11
226.308105
 21
79.945251
  0
LINE
  8
0
 10
230.808105
 20
77.445251
 11
230.808105
 21
91.302391
  0
LINE
  8
0
  6
CENTER
 62
     2
 10
170.808105
 20
92.688110
 11
170.808105
 21
77.816681
  0
LINE
  8
0
  6
CENTER
 62
     2
 10
214.808105
 20
92.488106
 11
214.808105
 21
77.816681
  0
LINE
  8
0
  6
CENTER
 62
     2
 10
208.308105
 20
-58.697613
 11
221.236679
 21
-58.697613
  0
LINE
  8
0
  6
CENTER
 62
     2
 10
207.465240
 20
85.302391
 11
222.336670
 21
85.302391
  0
LINE
  8
0
  6
DASHED
 62
     2
 10
163.108109
 20
-62.311901
 11
163.108109
 21
-66.697609
  0
LINE
  8
0
  6
DASHED
 62
     2
 10
174.508102
 20
-66.697609
 11
163.108109
 21
-66.697609
  0
LINE
  8
0
  6
DASHED
 62
     2
 10
162.393814
 20
-62.311901
 11
162.250961
 21
-67.540474
  0
LINE
  8
0
  6
DASHED
 62
     2
 10
162.108109
 20
-67.697609
 11
163.108109
 21
-66.697617
  0
LINE
  8
0
  6
DASHED
 62
     2
 10
174.508102
 20
-66.697609
 11
175.508102
 21
-67.697617
  0
LINE
  8
0
  6
DASHED
 62
     2
 10
175.208099
 20
-62.311890
 11
175.350967
 21
-67.697609
  0
LINE
  8
0
  6
DASHED
 62
     2
 10
174.508102
 20
-62.311901
 11
174.508102
 21
-66.697609
  0
LINE
  8
0
  6
CENTER
 62
     2
 10
148.508102
 20
13.302388
 11
232.836670
 21
13.302388
  0
LINE
  8
0
  6
CENTER
 62
     2
 10
192.808105
 20
100.088104
 11
192.808105
 21
-70.954750
  0
LINE
  8
0
  6
CENTER
 62
     2
 10
172.279541
 20
-46.697613
 11
165.608109
 21
-46.697613
  0
LINE
  8
0
  6
CENTER
 62
     2
 10
168.808105
 20
-43.540470
 11
168.808105
 21
-49.869041
  0
LINE
  8
0
  6
CENTER
 62
     2
 10
216.465240
 20
73.302391
 11
234.111389
 21
73.302391
  0
LINE
  8
0
  6
CENTER
 62
     2
 10
215.736679
 20
-46.697613
 11
226.308105
 21
-46.697613
  0
LINE
  8
0
  6
CENTER
 62
     2
 10
168.808105
 20
-60.076946
 11
168.808105
 21
-69.811897
  0
LINE
  8
0
 10
229.808105
 20
77.445251
 11
229.808105
 21
69.145248
  0
LINE
  8
0
 10
155.808105
 20
75.945244
 11
155.808105
 21
70.645248
  0
LINE
  8
0
 10
229.808105
 20
-42.540470
 11
229.808105
 21
-50.840473
  0
LINE
  8
0
 10
155.808105
 20
28.302387
 11
155.808105
 21
25.102388
  0
LINE
  8
0
 10
229.808105
 20
28.302387
 11
229.808105
 21
25.102388
  0
LINE
  8
0
 10
229.808105
 20
1.502388
 11
229.808105
 21
-1.697612
  0
LINE
  8
0
 10
155.808105
 20
1.502388
 11
155.808105
 21
-1.697612
  0
LINE
  8
0
  6
DASHED
 62
     2
 10
171.338104
 20
-62.208401
 11
171.338104
 21
-67.697609
  0
LINE
  8
0
  6
DASHED
 62
     2
 10
166.278107
 20
-62.598927
 11
166.278107
 21
-67.697609
  0
LINE
  8
0
  6
DASHED
 62
     2
 10
166.808105
 20
-62.598927
 11
166.808105
 21
-67.697609
  0
LINE
  8
0
  6
CENTER
 62
     2
 10
170.808105
 20
-65.116714
 11
170.808105
 21
-51.721531
  0
LINE
  8
0
  6
PHANTOM
 62
     3
 10
17.808102
 20
-35.521629
 11
31.808102
 21
-35.521629
  0
LINE
  8
0
  6
PHANTOM
 62
     3
 10
17.808102
 20
-59.212292
 11
17.808102
 21
-35.521629
  0
LINE
  8
0
  6
PHANTOM
 62
     3
 10
4.808102
 20
-59.212292
 11
17.808102
 21
-59.212292
  0
LINE
  8
0
  6
PHANTOM
 62
     3
 10
2.808102
 20
-55.212292
 11
13.808102
 21
-55.212292
  0
LINE
  8
0
  6
PHANTOM
 62
     3
 10
31.808102
 20
-35.521629
 11
31.808102
 21
105.011116
  0
LINE
  8
0
  6
PHANTOM
 62
     3
 10
13.808102
 20
-55.212292
 11
13.808102
 21
-35.521629
  0
LINE
  8
0
  6
PHANTOM
 62
     3
 10
2.808102
 20
-35.521629
 11
13.808102
 21
-35.521629
  0
LINE
  8
0
 10
-29.191898
 20
3.302388
 11
-24.191898
 21
3.302388
  0
LINE
  8
0
 10
-29.191898
 20
23.302387
 11
-24.191898
 21
23.302387
  0
LINE
  8
0
  6
CENTER
 62
     2
 10
-50.034756
 20
-47.697613
 11
-21.627649
 21
-47.697613
  0
LINE
  8
0
 10
-46.191898
 20
-66.697609
 11
-30.191898
 21
-66.697609
  0
LINE
  8
0
 10
-29.191898
 20
-65.697609
 11
-29.191898
 21
91.873817
  0
LINE
  8
0
  6
CENTER
 62
     2
 10
-50.034756
 20
74.302391
 11
-21.627649
 21
74.302391
  0
LINE
  8
0
 10
-45.763329
 20
93.302391
 11
-30.620470
 21
93.302391
  0
LINE
  8
0
 10
-47.191898
 20
-65.697609
 11
-47.191898
 21
91.873817
  0
LINE
  8
0
 62
     2
 10
-29.191898
 20
14.745245
 11
-27.191898
 21
8.930960
  0
LINE
  8
0
 62
     2
 10
-27.191898
 20
17.659533
 11
-29.191898
 21
11.845245
  0
LINE
  8
0
 10
-29.191898
 20
8.930960
 11
-27.191898
 21
8.930960
  0
LINE
  8
0
 10
-47.191898
 20
-65.697609
 11
-46.191898
 21
-66.697609
  0
LINE
  8
0
 10
-30.191906
 20
-66.697609
 11
-29.191904
 21
-65.697609
  0
LINE
  8
0
 10
-30.620468
 20
93.302391
 11
-29.191895
 21
91.873817
  0
LINE
  8
0
 10
-45.763325
 20
93.302391
 11
-47.191898
 21
91.873817
  0
LINE
  8
0
 10
-27.191898
 20
17.659531
 11
-27.191898
 21
8.930960
  0
LINE
  8
0
 10
-13.691898
 20
94.302391
 11
42.308102
 21
94.302391
  0
LINE
  8
0
 10
-14.191898
 20
91.302391
 11
42.808102
 21
91.302391
  0
LINE
  8
0
  6
CENTER
 62
     2
 10
-14.277611
 20
52.302387
 11
2.522388
 21
52.302387
  0
LINE
  8
0
 10
42.308102
 20
94.302391
 11
42.808102
 21
93.802391
  0
LINE
  8
0
 10
-13.691899
 20
94.302391
 11
-14.191897
 21
93.802391
  0
LINE
  8
0
 10
-14.191898
 20
75.945244
 11
42.808102
 21
75.945244
  0
LINE
  8
0
 10
-14.191898
 20
70.645248
 11
42.808102
 21
70.645248
  0
LINE
  8
0
 10
-14.191898
 20
37.802387
 11
42.808102
 21
37.802387
  0
LINE
  8
0
 10
-14.191898
 20
37.302387
 11
42.808102
 21
37.302387
  0
LINE
  8
0
 10
-14.191898
 20
28.302387
 11
42.808102
 21
28.302387
  0
LINE
  8
0
 10
-14.191898
 20
25.102388
 11
42.808102
 21
25.102388
  0
LINE
  8
0
 10
-29.191898
 20
17.659531
 11
-27.191898
 21
17.659531
  0
LINE
  8
0
  6
DASHED
 62
     2
 10
71.808105
 20
-38.197613
 11
71.808105
 21
-57.197613
  0
LINE
  8
0
  6
DASHED
 62
     2
 10
42.808102
 20
-37.697613
 11
71.308105
 21
-37.697613
  0
LINE
  8
0
  6
DASHED
 62
     2
 10
42.808102
 20
-57.697613
 11
71.308105
 21
-57.697613
  0
LINE
  8
0
  6
DASHED
 62
     2
 10
71.308105
 20
-37.697609
 11
71.808105
 21
-38.197609
  0
LINE
  8
0
  6
DASHED
 62
     2
 10
71.808098
 20
-57.197617
 11
71.308105
 21
-57.697613
  0
LINE
  8
0
  6
DASHED
 62
     2
 10
71.308105
 20
-37.697613
 11
71.308105
 21
-57.697613
  0
LINE
  8
0
  6
DASHED
 62
     2
 10
71.808105
 20
83.802391
 11
71.808105
 21
64.802391
  0
LINE
  8
0
  6
DASHED
 62
     2
 10
42.808102
 20
84.302391
 11
71.308105
 21
84.302391
  0
LINE
  8
0
  6
DASHED
 62
     2
 10
42.808102
 20
64.302391
 11
71.308105
 21
64.302391
  0
LINE
  8
0
  6
DASHED
 62
     2
 10
71.308105
 20
84.302383
 11
71.808098
 21
83.802391
  0
LINE
  8
0
  6
DASHED
 62
     2
 10
71.808105
 20
64.802383
 11
71.308105
 21
64.302383
  0
LINE
  8
0
  6
DASHED
 62
     2
 10
71.308105
 20
84.302391
 11
71.308105
 21
64.302391
  0
LINE
  8
0
  6
CENTER
 62
     2
 10
-6.191898
 20
60.888103
 11
-6.191898
 21
43.588104
  0
LINE
  8
0
  6
CENTER
 62
     2
 10
13.808102
 20
60.988102
 11
13.808102
 21
44.102390
  0
LINE
  8
0
  6
CENTER
 62
     2
 10
5.093819
 20
52.302387
 11
22.393818
 21
52.302387
  0
LINE
  8
0
  6
CENTER
 62
     2
 10
-51.334755
 20
13.302388
 11
45.993816
 21
13.302388
  0
LINE
  8
0
 10
-14.191898
 20
93.802391
 11
-14.191898
 21
-67.197609
  0
LINE
  8
0
 10
-13.691898
 20
-67.697609
 11
42.308102
 21
-67.697609
  0
LINE
  8
0
 10
-14.191898
 20
-64.697609
 11
42.808102
 21
-64.697609
  0
LINE
  8
0
  6
CENTER
 62
     2
 10
4.722389
 20
-25.697613
 11
22.436672
 21
-25.697613
  0
LINE
  8
0
 10
42.808102
 20
93.802391
 11
42.808102
 21
-67.197609
  0
LINE
  8
0
  6
CENTER
 62
     2
 10
-15.134754
 20
-25.697613
 11
2.508102
 21
-25.697613
  0
LINE
  8
0
  6
CENTER
 62
     2
 10
-6.191898
 20
-17.097610
 11
-6.191898
 21
-34.411900
  0
LINE
  8
0
  6
CENTER
 62
     2
 10
13.808102
 20
-17.097610
 11
13.808102
 21
-34.740471
  0
LINE
  8
0
  6
CENTER
 62
     2
 10
44.379528
 20
-46.697613
 11
20.808102
 21
-46.697613
  0
LINE
  8
0
  6
CENTER
 62
     2
 10
2.808102
 20
-38.154755
 11
2.808102
 21
-54.280880
  0
LINE
  8
0
  6
DASHED
 62
     2
 10
1.508103
 20
-66.697617
 11
2.508105
 21
-67.697617
  0
LINE
  8
0
  6
DASHED
 62
     2
 10
-10.891897
 20
-67.697617
 11
-9.891896
 21
-66.697617
  0
LINE
  8
0
  6
DASHED
 62
     2
 10
1.508102
 20
-66.697609
 11
-9.891899
 21
-66.697609
  0
LINE
  8
0
  6
DASHED
 62
     2
 10
-9.891899
 20
-62.311901
 11
-9.891899
 21
-66.697609
  0
LINE
  8
0
  6
DASHED
 62
     2
 10
-10.591899
 20
-62.311893
 11
-10.734756
 21
-67.540474
  0
LINE
  8
0
  6
DASHED
 62
     2
 10
1.508102
 20
-62.311901
 11
1.508102
 21
-66.697609
  0
LINE
  8
0
  6
DASHED
 62
     2
 10
2.222389
 20
-62.311901
 11
2.365246
 21
-67.697617
  0
LINE
  8
0
  6
CENTER
 62
     2
 10
11.808102
 20
-61.283329
 11
11.808102
 21
-69.883324
  0
LINE
  8
0
  6
DASHED
 62
     2
 10
17.508102
 20
-66.697609
 11
18.508102
 21
-67.697617
  0
LINE
  8
0
  6
DASHED
 62
     2
 10
5.108102
 20
-67.697609
 11
6.108100
 21
-66.697609
  0
LINE
  8
0
  6
DASHED
 62
     2
 10
17.508106
 20
-66.697609
 11
6.108101
 21
-66.697609
  0
LINE
  8
0
  6
DASHED
 62
     2
 10
6.108101
 20
-62.311901
 11
6.108101
 21
-66.697609
  0
LINE
  8
0
  6
DASHED
 62
     2
 10
5.408103
 20
-62.311901
 11
5.265246
 21
-67.540474
  0
LINE
  8
0
  6
CENTER
 62
     2
 10
28.808102
 20
-38.354755
 11
28.808102
 21
-54.280880
  0
LINE
  8
0
 10
42.808098
 20
-67.197609
 11
42.308098
 21
-67.697609
  0
LINE
  8
0
 10
-14.191897
 20
-67.197617
 11
-13.691899
 21
-67.697617
  0
LINE
  8
0
  6
CENTER
 62
     2
 10
10.508102
 20
-46.697613
 11
-4.906185
 21
-46.697613
  0
LINE
  8
0
 10
-14.191898
 20
1.502388
 11
42.808102
 21
1.502388
  0
LINE
  8
0
 10
-14.191898
 20
-1.697612
 11
42.808102
 21
-1.697612
  0
LINE
  8
0
 10
-14.191898
 20
-10.697612
 11
42.808102
 21
-10.697612
  0
LINE
  8
0
 10
-14.191898
 20
-11.197612
 11
42.808102
 21
-11.197612
  0
LINE
  8
0
  6
CENTER
 62
     2
 10
-4.191898
 20
-61.083332
 11
-4.191898
 21
-69.783325
  0
LINE
  8
0
  6
DASHED
 62
     2
 10
17.508106
 20
-62.311901
 11
17.508106
 21
-66.697609
  0
LINE
  8
0
  6
DASHED
 62
     2
 10
18.222387
 20
-62.311901
 11
18.365244
 21
-67.697609
  0
LINE
  8
0
 10
-29.191898
 20
84.302391
 11
-24.191898
 21
84.302391
  0
LINE
  8
0
 10
-29.191898
 20
64.302391
 11
-24.191898
 21
64.302391
  0
LINE
  8
0
 10
-29.191898
 20
-37.697613
 11
-24.191898
 21
-37.697613
  0
LINE
  8
0
 10
-29.191898
 20
-57.697613
 11
-24.191898
 21
-57.697613
  0
LINE
  8
0
 10
-24.191898
 20
92.802391
 11
-24.191898
 21
-66.197609
  0
LINE
  8
0
 10
-23.691898
 20
93.302391
 11
-14.191898
 21
93.302391
  0
LINE
  8
0
 10
-23.691898
 20
-66.697609
 11
-14.191898
 21
-66.697609
  0
LINE
  8
0
 10
-24.191900
 20
92.802391
 11
-23.691898
 21
93.302391
  0
LINE
  8
0
 10
-24.191900
 20
-66.197617
 11
-23.691898
 21
-66.697617
  0
LINE
  8
0
 62
     2
 10
-21.324228
 20
-46.697613
 11
-15.114876
 21
-46.697613
  0
LINE
  8
0
  6
CENTER
 62
     2
 10
-18.191898
 20
-43.342678
 11
-18.191898
 21
-67.197609
  0
LINE
  8
0
  6
DASHED
 62
     2
 10
-15.691898
 20
-61.609722
 11
-15.691898
 21
-66.697609
  0
LINE
  8
0
  6
DASHED
 62
     2
 10
-20.691898
 20
-61.898533
 11
-20.691898
 21
-66.697609
  0
LINE
  8
0
  6
DASHED
 62
     2
 10
-16.191898
 20
-61.537518
 11
-16.191898
 21
-66.697609
  0
LINE
  8
0
  6
DASHED
 62
     2
 10
-20.191898
 20
-61.609722
 11
-20.191898
 21
-66.697609
  0
LINE
  8
0
  6
PHANTOM
 62
     3
 10
2.808102
 20
-35.521629
 11
2.808102
 21
115.221077
  0
LINE
  8
0
  6
PHANTOM
 62
     3
 10
2.808102
 20
-82.091354
 11
2.808102
 21
-55.212292
  0
LINE
  8
0
  6
PHANTOM
 62
     3
 10
4.808102
 20
-82.091354
 11
4.808102
 21
-59.212292
  0
LINE
  8
0
 10
-151.250000
 20
-144.000000
 11
-151.250000
 21
-185.000000
  0
LINE
  8
0
 10
-271.250000
 20
-185.000000
 11
-11.250000
 21
-185.000000
  0
LINE
  8
0
 10
-271.250000
 20
-144.000000
 11
-271.250000
 21
-185.000000
  0
LINE
  8
0
 10
-231.250000
 20
-144.000000
 11
-231.250000
 21
-185.000000
  0
LINE
  8
0
 10
-271.250000
 20
-151.000000
 11
-235.000000
 21
-151.000000
  0
LINE
  8
0
 10
-271.250000
 20
-165.000000
 11
-11.250000
 21
-165.000000
  0
LINE
  8
0
 10
-271.250000
 20
-144.000000
 11
-11.250000
 21
-144.000000
  0
LINE
  8
0
 10
-231.250015
 20
-165.000000
 11
-235.000015
 21
-151.000000
  0
LINE
  8
0
 10
-211.250000
 20
-144.000000
 11
-211.250000
 21
-185.000000
  0
LINE
  8
0
 10
-191.250000
 20
-144.000000
 11
-191.250000
 21
-185.000000
  0
LINE
  8
0
 10
-171.250000
 20
-144.000000
 11
-171.250000
 21
-185.000000
  0
LINE
  8
0
 10
-131.250000
 20
-144.000000
 11
-131.250000
 21
-185.000000
  0
LINE
  8
0
 10
-111.250000
 20
-144.000000
 11
-111.250000
 21
-185.000000
  0
LINE
  8
0
 10
-91.250000
 20
-144.000000
 11
-91.250000
 21
-185.000000
  0
LINE
  8
0
 10
-271.250000
 20
-175.000000
 11
-11.250000
 21
-175.000000
  0
LINE
  8
0
 10
-71.250000
 20
-144.000000
 11
-71.250000
 21
-185.000000
  0
LINE
  8
0
 10
-51.250000
 20
-144.000000
 11
-51.250000
 21
-185.000000
  0
LINE
  8
0
 10
-31.250000
 20
-144.000000
 11
-31.250000
 21
-185.000000
  0
LINE
  8
0
 10
-11.250000
 20
-144.000000
 11
-11.250000
 21
-185.000000
  0
LINE
  8
0
 10
-111.250000
 20
195.500000
 11
-111.250000
 21
175.500000
  0
LINE
  8
0
 10
282.099854
 20
195.500000
 11
282.099854
 21
-195.000000
  0
LINE
  8
0
 10
-281.250000
 20
195.500000
 11
282.099854
 21
195.500000
  0
LINE
  8
0
 10
-281.250000
 20
195.500000
 11
-281.250000
 21
-195.000000
  0
LINE
  8
0
 10
-281.250000
 20
-195.000000
 11
282.099854
 21
-195.000000
  0
LINE
  8
0
 10
162.099976
 20
-175.000000
 11
162.099976
 21
-195.000000
  0
LINE
  8
0
 10
162.099976
 20
-175.000000
 11
282.099854
 21
-175.000000
  0
LINE
  8
0
 10
162.099976
 20
175.500000
 11
282.099854
 21
175.500000
  0
LINE
  8
0
 10
-281.250000
 20
175.500000
 11
-111.250000
 21
175.500000
  0
LINE
  8
0
 10
162.099976
 20
195.500000
 11
162.099976
 21
175.500000
  0
CIRCLE
  8
0
 10
-175.763336
 20
13.302388
 40
10.000000
  0
CIRCLE
  8
0
 10
-175.763336
 20
-47.697617
 40
10.000000
  0
CIRCLE
  8
0
 10
-175.763336
 20
74.302383
 40
10.000000
  0
CIRCLE
  8
0
 62
     2
 10
-201.763336
 20
-52.697613
 40
5.000000
  0
CIRCLE
  8
0
 10
-201.763336
 20
-52.697613
 40
4.249999
  0
CIRCLE
  8
0
 10
-201.763336
 20
79.302391
 40
4.249999
  0
CIRCLE
  8
0
 62
     2
 10
-201.763336
 20
79.302391
 40
5.000000
  0
CIRCLE
  8
0
 10
-149.763321
 20
-52.697613
 40
4.249999
  0
CIRCLE
  8
0
 62
     2
 10
-149.763321
 20
-52.697613
 40
5.000000
  0
CIRCLE
  8
0
 10
-149.763321
 20
79.302391
 40
4.249999
  0
CIRCLE
  8
0
 62
     2
 10
-149.763321
 20
79.302391
 40
5.000000
  0
CIRCLE
  8
0
 10
-175.763336
 20
74.302383
 40
5.599999
  0
CIRCLE
  8
0
 10
-175.763336
 20
74.302383
 40
8.750000
  0
CIRCLE
  8
0
 10
-175.763336
 20
-47.697617
 40
8.750000
  0
CIRCLE
  8
0
 10
-175.763336
 20
-47.697617
 40
5.599999
  0
CIRCLE
  8
0
 10
-175.763336
 20
13.302388
 40
8.750000
  0
CIRCLE
  8
0
 10
-175.763336
 20
13.302388
 40
5.599999
  0
ARC
  8
0
 10
227.708099
 20
-0.097612
 40
2.100000
 50
90.000000
 51
270.000000
  0
CIRCLE
  8
0
 10
192.808105
 20
74.302383
 40
14.000001
  0
ARC
  8
0
 10
157.908112
 20
26.702389
 40
2.100000
 50
270.000000
 51
90.000000
  0
ARC
  8
0
 10
157.908112
 20
-0.097612
 40
2.100000
 50
270.000000
 51
90.000000
  0
ARC
  8
0
 10
227.708099
 20
26.702389
 40
2.100000
 50
90.000000
 51
270.000000
  0
CIRCLE
  8
0
 10
170.808105
 20
85.302383
 40
4.249999
  0
CIRCLE
  8
0
 62
     2
 10
170.808105
 20
85.302383
 40
5.000000
  0
CIRCLE
  8
0
 10
170.808105
 20
-58.697582
 40
4.249999
  0
CIRCLE
  8
0
 62
     2
 10
170.808105
 20
-58.697582
 40
5.000000
  0
CIRCLE
  8
0
 10
214.808105
 20
85.302383
 40
4.249999
  0
CIRCLE
  8
0
 62
     2
 10
214.808105
 20
85.302383
 40
5.000000
  0
CIRCLE
  8
0
 10
214.808105
 20
-58.697582
 40
4.249999
  0
CIRCLE
  8
0
 62
     2
 10
214.808105
 20
-58.697582
 40
5.000000
  0
CIRCLE
  8
0
 10
192.808105
 20
13.302388
 40
32.500000
  0
CIRCLE
  8
0
 10
192.808105
 20
13.302388
 40
20.000000
  0
CIRCLE
  8
0
 10
168.808105
 20
-46.697613
 40
1.749999
  0
CIRCLE
  8
0
 10
192.808105
 20
74.302391
 40
10.000000
  0
CIRCLE
  8
0
 10
192.808105
 20
-47.697613
 40
10.000000
  0
CIRCLE
  8
0
 10
192.808105
 20
-47.697613
 40
14.000000
  0
ARC
  8
0
 10
-36.191883
 20
13.295245
 40
10.002336
 50
334.130249
 51
25.869741
  0
CIRCLE
  8
0
 10
-6.191879
 20
52.302391
 40
7.000000
  0
CIRCLE
  8
0
  6
DASHED
 62
     2
 10
-6.191879
 20
52.302391
 40
5.000000
  0
CIRCLE
  8
0
 10
-6.191879
 20
52.302391
 40
4.299999
  0
CIRCLE
  8
0
 10
13.808121
 20
52.302391
 40
7.000000
  0
CIRCLE
  8
0
 10
13.808121
 20
52.302391
 40
4.299999
  0
CIRCLE
  8
0
  6
DASHED
 62
     2
 10
13.808121
 20
52.302391
 40
5.000000
  0
CIRCLE
  8
0
 10
13.808105
 20
-25.697617
 40
4.299999
  0
CIRCLE
  8
0
 10
-6.191879
 20
-25.697617
 40
7.000000
  0
CIRCLE
  8
0
 10
-6.191879
 20
-25.697617
 40
4.299999
  0
CIRCLE
  8
0
  6
DASHED
 62
     2
 10
-6.191879
 20
-25.697617
 40
5.000000
  0
CIRCLE
  8
0
 10
13.808105
 20
-25.697617
 40
7.000000
  0
CIRCLE
  8
0
  6
DASHED
 62
     2
 10
13.808105
 20
-25.697617
 40
5.000000
  0
CIRCLE
  8
0
 62
     2
 10
28.808102
 20
-46.697613
 40
6.750000
  0
CIRCLE
  8
0
 10
28.808102
 20
-46.697613
 40
5.750000
  0
CIRCLE
  8
0
 62
     2
 10
2.808109
 20
-46.697613
 40
6.750000
  0
CIRCLE
  8
0
 10
2.808109
 20
-46.697613
 40
5.750000
  0
CIRCLE
  8
0
 62
     2
 10
-18.191898
 20
-46.697613
 40
2.500000
  0
CIRCLE
  8
0
 10
-18.191898
 20
-46.697613
 40
2.000000
  0
TEXT
  8
0
 10
-143.892654
 20
-183.050003
 40
4.500000
  1
0
 50
0.000000
 41
1.052632
 51
0.000000
  7
STANDARD
  0
TEXT
  8
0
 10
-146.142654
 20
-173.050003
 40
4.500000
  1
40
 50
0.000000
 41
1.052632
 51
0.000000
  7
STANDARD
  0
TEXT
  8
0
 10
-146.142654
 20
-157.550003
 40
4.500000
  1
50
 50
0.000000
 41
1.052632
 51
0.000000
  7
STANDARD
  0
TEXT
  8
0
 10
-226.142654
 20
-157.550003
 40
4.500000
  1
10
 50
0.000000
 41
1.052632
 51
0.000000
  7
STANDARD
  0
TEXT
  8
0
 10
-206.142654
 20
-157.550003
 40
4.500000
  1
20
 50
0.000000
 41
1.052632
 51
0.000000
  7
STANDARD
  0
TEXT
  8
0
 10
-186.142654
 20
-157.550003
 40
4.500000
  1
30
 50
0.000000
 41
1.052632
 51
0.000000
  7
STANDARD
  0
TEXT
  8
0
 10
-166.142654
 20
-157.550003
 40
4.500000
  1
40
 50
0.000000
 41
1.052632
 51
0.000000
  7
STANDARD
  0
TEXT
  8
0
 10
-126.142654
 20
-157.550003
 40
4.500000
  1
75
 50
0.000000
 41
1.052632
 51
0.000000
  7
STANDARD
  0
TEXT
  8
0
 10
-108.392654
 20
-157.550003
 40
4.500000
  1
100
 50
0.000000
 41
1.052632
 51
0.000000
  7
STANDARD
  0
TEXT
  8
0
 10
-265.142670
 20
-150.550003
 40
4.500000
  1
STROKE
 50
0.000000
 41
1.052632
 51
0.000000
  7
STANDARD
  0
TEXT
  8
0
 10
-267.392670
 20
-156.324997
 40
4.500000
  1
STRETCH
 50
0.000000
 41
1.052632
 51
0.000000
  7
STANDARD
  0
TEXT
  8
0
 10
-267.392670
 20
-163.074997
 40
4.500000
  1
  PLACE
 50
0.000000
 41
1.052632
 51
0.000000
  7
STANDARD
  0
TEXT
  8
0
 10
-253.892654
 20
-173.050003
 40
4.500000
  1
A
 50
0.000000
 41
1.052632
 51
0.000000
  7
STANDARD
  0
TEXT
  8
0
 10
-253.892654
 20
-183.050003
 40
4.500000
  1
B
 50
0.000000
 41
1.052632
 51
0.000000
  7
STANDARD
  0
TEXT
  8
0
 10
-168.642654
 20
-142.050003
 40
4.500000
  1
STRETCH LIST
 50
0.000000
 41
1.052632
 51
0.000000
  7
STANDARD
  0
TEXT
  8
0
 10
-30.642656
 20
-144.050003
 40
4.500000
  1
üiéìéìüj
 50
0.000000
 41
0.833333
 51
0.000000
  7
STANDARD
  0
TEXT
  8
0
 10
-88.392654
 20
-157.550003
 40
4.500000
  1
125
 50
0.000000
 41
1.052632
 51
0.000000
  7
STANDARD
  0
TEXT
  8
0
 10
-68.392654
 20
-157.550003
 40
4.500000
  1
150
 50
0.000000
 41
1.052632
 51
0.000000
  7
STANDARD
  0
TEXT
  8
0
 10
-48.392658
 20
-157.550003
 40
4.500000
  1
175
 50
0.000000
 41
1.052632
 51
0.000000
  7
STANDARD
  0
TEXT
  8
0
 10
-28.392656
 20
-157.550003
 40
4.500000
  1
200
 50
0.000000
 41
1.052632
 51
0.000000
  7
STANDARD
  0
TEXT
  8
0
 10
-206.142654
 20
-173.050003
 40
4.500000
  1
10
 50
0.000000
 41
1.052632
 51
0.000000
  7
STANDARD
  0
TEXT
  8
0
 10
-186.142654
 20
-173.050003
 40
4.500000
  1
20
 50
0.000000
 41
1.052632
 51
0.000000
  7
STANDARD
  0
TEXT
  8
0
 10
-166.142654
 20
-173.050003
 40
4.500000
  1
30
 50
0.000000
 41
1.052632
 51
0.000000
  7
STANDARD
  0
TEXT
  8
0
 10
-126.142654
 20
-173.050003
 40
4.500000
  1
40
 50
0.000000
 41
1.052632
 51
0.000000
  7
STANDARD
  0
TEXT
  8
0
 10
-106.142654
 20
-173.050003
 40
4.500000
  1
40
 50
0.000000
 41
1.052632
 51
0.000000
  7
STANDARD
  0
TEXT
  8
0
 10
-86.142654
 20
-173.050003
 40
4.500000
  1
90
 50
0.000000
 41
1.052632
 51
0.000000
  7
STANDARD
  0
TEXT
  8
0
 10
-66.142654
 20
-173.050003
 40
4.500000
  1
90
 50
0.000000
 41
1.052632
 51
0.000000
  7
STANDARD
  0
TEXT
  8
0
 10
-46.142658
 20
-173.050003
 40
4.500000
  1
90
 50
0.000000
 41
1.052632
 51
0.000000
  7
STANDARD
  0
TEXT
  8
0
 10
-26.142656
 20
-173.050003
 40
4.500000
  1
90
 50
0.000000
 41
1.052632
 51
0.000000
  7
STANDARD
  0
TEXT
  8
0
 10
-223.892654
 20
-173.050003
 40
4.500000
  1
0
 50
0.000000
 41
1.052632
 51
0.000000
  7
STANDARD
  0
TEXT
  8
0
 10
-223.892654
 20
-183.050003
 40
4.500000
  1
0
 50
0.000000
 41
1.052632
 51
0.000000
  7
STANDARD
  0
TEXT
  8
0
 10
-28.392656
 20
-183.050003
 40
4.500000
  1
100
 50
0.000000
 41
1.052632
 51
0.000000
  7
STANDARD
  0
TEXT
  8
0
 10
-46.142658
 20
-183.050003
 40
4.500000
  1
75
 50
0.000000
 41
1.052632
 51
0.000000
  7
STANDARD
  0
TEXT
  8
0
 10
-66.142654
 20
-183.050003
 40
4.500000
  1
50
 50
0.000000
 41
1.052632
 51
0.000000
  7
STANDARD
  0
TEXT
  8
0
 10
-86.142654
 20
-183.050003
 40
4.500000
  1
25
 50
0.000000
 41
1.052632
 51
0.000000
  7
STANDARD
  0
TEXT
  8
0
 10
-106.142654
 20
-183.050003
 40
4.500000
  1
50
 50
0.000000
 41
1.052632
 51
0.000000
  7
STANDARD
  0
TEXT
  8
0
 10
-126.142654
 20
-183.050003
 40
4.500000
  1
25
 50
0.000000
 41
1.052632
 51
0.000000
  7
STANDARD
  0
TEXT
  8
0
 10
-163.892654
 20
-183.050003
 40
4.500000
  1
0
 50
0.000000
 41
1.052632
 51
0.000000
  7
STANDARD
  0
TEXT
  8
0
 10
-183.892654
 20
-183.050003
 40
4.500000
  1
0
 50
0.000000
 41
1.052632
 51
0.000000
  7
STANDARD
  0
TEXT
  8
0
 10
-203.892654
 20
-183.050003
 40
4.500000
  1
0
 50
0.000000
 41
1.052632
 51
0.000000
  7
STANDARD
  0
TEXT
  8
0
 62
     3
 10
-41.730961
 20
115.224945
 40
6.300000
  1
STRETCH LINE A
 50
0.000000
 41
1.052632
 51
0.000000
  7
STANDARD
  0
TEXT
  8
0
 62
     3
 10
27.269045
 20
105.224945
 40
6.300000
  1
STRETCH LINE B
 50
0.000000
 41
1.052632
 51
0.000000
  7
STANDARD
  0
TEXT
  8
0
 10
196.250259
 20
180.830002
 40
6.300000
  1
éuüvÕú‗.ü@éPüDéO
 50
0.000000
 41
0.833333
 51
0.000000
  7
STANDARD
  0
TEXT
  8
0
 10
167.564667
 20
-192.100006
 40
9.000000
  1
KOGANEI CORP.
 50
0.000000
 41
1.052632
 51
0.000000
  7
STANDARD
  0
TEXT
  8
0
 10
-278.799713
 20
180.830002
 40
6.300000
  1
CS JIG CYLINDER WITH GUIDE
 50
0.000000
 41
1.052632
 51
0.000000
  7
STANDARD
  0
TEXT
  8
0
 10
-270.049713
 20
155.830002
 40
6.300000
  1
MODEL:CS-SGDAQ63*ST(10)
 50
0.000000
 41
1.052632
 51
0.000000
  7
STANDARD
  0
TEXT
  8
0
 62
     2
 10
61.308311
 20
-84.640045
 40
3.200000
  1
ST=75,100,125,150,175,200
 50
0.000000
 41
1.052632
 51
0.000000
  7
STANDARD
  0
LINE
  8
0
 62
     2
 10
71.808105
 20
-85.640045
 11
141.058319
 21
-85.640045
  0
LINE
  8
0
 62
     2
 10
71.808105
 20
-85.640045
 11
42.808102
 21
-85.640045
  0
LINE
  8
0
 62
     2
 10
71.808105
 20
-85.640045
 11
68.910332
 21
-86.416504
  0
LINE
  8
0
 62
     2
 10
71.808105
 20
-85.640045
 11
68.910332
 21
-84.863586
  0
LINE
  8
0
 62
     2
 10
42.808102
 20
-85.640045
 11
45.705879
 21
-84.863586
  0
LINE
  8
0
 62
     2
 10
42.808102
 20
-85.640045
 11
45.705879
 21
-86.416504
  0
LINE
  8
0
 62
     2
 10
71.808105
 20
-57.197613
 11
71.808105
 21
-87.140045
  0
LINE
  8
0
 62
     2
 10
42.808102
 20
-67.197617
 11
42.808102
 21
-87.140045
  0
ENDSEC
  0
EOF
