  0
SECTION
  2
HEADER
  9
$ACADVER
  1
AC1012
  9
$DWGCODEPAGE
  3
dos932
  9
$INSBASE
 10
0.0
 20
0.0
 30
0.0
  9
$EXTMIN
 10
-138.39999389648437
 20
-94.800003051757812
 30
0.0
  9
$EXTMAX
 10
138.35000610351562
 20
94.5
 30
0.0
  9
$LIMMIN
 10
-138.39999389648437
 20
-94.800003051757812
  9
$LIMMAX
 10
138.35000610351562
 20
94.5
  9
$ORTHOMODE
 70
               0
  9
$REGENMODE
 70
               1
  9
$FILLMODE
 70
               1
  9
$QTEXTMODE
 70
               0
  9
$MIRRTEXT
 70
               1
  9
$DRAGMODE
 70
               2
  9
$LTSCALE
 40
1.0
  9
$OSMODE
 70
               0
  9
$ATTMODE
 70
               1
  9
$TEXTSIZE
 40
3.2000000476837158
  9
$TRACEWID
 40
0.05
  9
$TEXTSTYLE
  7
MX_NOTE_STANDARD
  9
$CLAYER
  8
0
  9
$CELTYPE
  6
CONTINUOUS
  9
$CECOLOR
 62
             256
  9
$CELTSCALE
 40
1.0
  9
$DELOBJ
 70
               1
  9
$DISPSILH
 70
               0
  9
$DIMSCALE
 40
1.0
  9
$DIMASZ
 40
2.5
  9
$DIMEXO
 40
1.5
  9
$DIMDLI
 40
3.75
  9
$DIMRND
 40
0.0
  9
$DIMDLE
 40
0.0
  9
$DIMEXE
 40
1.5
  9
$DIMTP
 40
0.0
  9
$DIMTM
 40
0.0
  9
$DIMTXT
 40
3.2000000476837158
  9
$DIMCEN
 40
2.5
  9
$DIMTSZ
 40
0.0
  9
$DIMTOL
 70
               0
  9
$DIMLIM
 70
               0
  9
$DIMTIH
 70
               0
  9
$DIMTOH
 70
               0
  9
$DIMSE1
 70
               0
  9
$DIMSE2
 70
               0
  9
$DIMTAD
 70
               1
  9
$DIMZIN
 70
               8
  9
$DIMBLK
  1

  9
$DIMASO
 70
               1
  9
$DIMSHO
 70
               1
  9
$DIMPOST
  1

  9
$DIMAPOST
  1

  9
$DIMALT
 70
               0
  9
$DIMALTD
 70
               4
  9
$DIMALTF
 40
0.03937007874016
  9
$DIMLFAC
 40
1.0
  9
$DIMTOFL
 70
               1
  9
$DIMTVP
 40
0.0
  9
$DIMTIX
 70
               0
  9
$DIMSOXD
 70
               0
  9
$DIMSAH
 70
               0
  9
$DIMBLK1
  1

  9
$DIMBLK2
  1

  9
$DIMSTYLE
  2
MXDIMSTYLE
  9
$DIMCLRD
 70
               0
  9
$DIMCLRE
 70
               0
  9
$DIMCLRT
 70
               0
  9
$DIMTFAC
 40
1.0
  9
$DIMGAP
 40
1.0
  9
$DIMJUST
 70
               0
  9
$DIMSD1
 70
               0
  9
$DIMSD2
 70
               0
  9
$DIMTOLJ
 70
               1
  9
$DIMTZIN
 70
               0
  9
$DIMALTZ
 70
               0
  9
$DIMALTTZ
 70
               0
  9
$DIMFIT
 70
               3
  9
$DIMUPT
 70
               1
  9
$DIMUNIT
 70
               2
  9
$DIMDEC
 70
               4
  9
$DIMTDEC
 70
               4
  9
$DIMALTU
 70
               2
  9
$DIMALTTD
 70
               4
  9
$DIMTXSTY
  7
MX_NOTE_STANDARD
  9
$DIMAUNIT
 70
               0
  9
$LUNITS
 70
               2
  9
$LUPREC
 70
               4
  9
$SKETCHINC
 40
0.1
  9
$FILLETRAD
 40
0.0
  9
$AUNITS
 70
               0
  9
$AUPREC
 70
               0
  9
$MENU
  1
acad
  9
$ELEVATION
 40
0.0
  9
$PELEVATION
 40
0.0
  9
$THICKNESS
 40
0.0
  9
$LIMCHECK
 70
               0
  9
$BLIPMODE
 70
               1
  9
$CHAMFERA
 40
0.0
  9
$CHAMFERB
 40
0.0
  9
$CHAMFERC
 40
0.0
  9
$CHAMFERD
 40
0.0
  9
$SKPOLY
 70
               0
  9
$TDCREATE
 40
2453388.406192130
  9
$TDUPDATE
 40
2453388.406192130
  9
$TDINDWG
 40
0.0000000000
  9
$TDUSRTIMER
 40
0.0000000000
  9
$USRTIMER
 70
               1
  9
$ANGBASE
 50
0.0
  9
$ANGDIR
 70
               0
  9
$PDMODE
 70
               0
  9
$PDSIZE
 40
0.0
  9
$PLINEWID
 40
0.0
  9
$COORDS
 70
               1
  9
$SPLFRAME
 70
               0
  9
$SPLINETYPE
 70
               6
  9
$SPLINESEGS
 70
               8
  9
$ATTDIA
 70
               0
  9
$ATTREQ
 70
               1
  9
$HANDLING
 70
               1
  9
$HANDSEED
  5
2C2
  9
$SURFTAB1
 70
               6
  9
$SURFTAB2
 70
               6
  9
$SURFTYPE
 70
               6
  9
$SURFU
 70
               6
  9
$SURFV
 70
               6
  9
$UCSNAME
  2

  9
$UCSORG
 10
0.0
 20
0.0
 30
0.0
  9
$UCSXDIR
 10
1.0
 20
0.0
 30
0.0
  9
$UCSYDIR
 10
0.0
 20
1.0
 30
0.0
  9
$PUCSNAME
  2

  9
$PUCSORG
 10
0.0
 20
0.0
 30
0.0
  9
$PUCSXDIR
 10
1.0
 20
0.0
 30
0.0
  9
$PUCSYDIR
 10
0.0
 20
1.0
 30
0.0
  9
$USERI1
 70
               0
  9
$USERI2
 70
               0
  9
$USERI3
 70
               0
  9
$USERI4
 70
               0
  9
$USERI5
 70
               0
  9
$USERR1
 40
0.0
  9
$USERR2
 40
0.0
  9
$USERR3
 40
0.0
  9
$USERR4
 40
0.0
  9
$USERR5
 40
0.0
  9
$WORLDVIEW
 70
               1
  9
$SHADEDGE
 70
               3
  9
$SHADEDIF
 70
              70
  9
$TILEMODE
 70
               1
  9
$MAXACTVP
 70
              16
  9
$PINSBASE
 10
0.0
 20
0.0
 30
0.0
  9
$PLIMCHECK
 70
               0
  9
$PEXTMIN
 10
1.0000000000000000E+20
 20
1.0000000000000000E+20
 30
1.0000000000000000E+20
  9
$PEXTMAX
 10
-1.0000000000000000E+20
 20
-1.0000000000000000E+20
 30
-1.0000000000000000E+20
  9
$PLIMMIN
 10
0.0
 20
0.0
  9
$PLIMMAX
 10
12.0
 20
9.0
  9
$UNITMODE
 70
               0
  9
$VISRETAIN
 70
               0
  9
$PLINEGEN
 70
               1
  9
$PSLTSCALE
 70
               0
  9
$TREEDEPTH
 70
            3020
  9
$PICKSTYLE
 70
               1
  9
$CMLSTYLE
  2
Standard
  9
$CMLJUST
 70
               0
  9
$CMLSCALE
 40
1.0
  9
$SAVEIMAGES
 70
               0
  0
ENDSEC
  0
SECTION
  2
CLASSES
  0
CLASS
  1
LWPOLYLINE
  2
AcDbPolyline
  3
"AutoCAD"
 90
        0
280
               0
281
               1
  0
CLASS
  1
IMAGE
  2
AcDbRasterImage
  3
ISM
 90
      127
280
               0
281
               1
  0
CLASS
  1
OLE2FRAME
  2
AcDbOle2Frame
  3
""
 90
        0
280
               0
281
               1
  0
CLASS
  1
HATCH
  2
AcDbHatch
  3
"ACAD_SEDONA"
 90
        0
280
               0
281
               1
  0
CLASS
  1
DICTIONARYVAR
  2
AcDbDictionaryVar
  3
"AutoCAD"
 90
        0
280
               0
281
               0
  0
CLASS
  1
RASTERVARIABLES
  2
AcDbRasterVariables
  3
ISM
 90
        0
280
               0
281
               0
  0
CLASS
  1
IMAGEDEF
  2
AcDbRasterImageDef
  3
ISM
 90
        0
280
               0
281
               0
  0
CLASS
  1
IMAGEDEF_REACTOR
  2
AcDbRasterImageDefReactor
  3
ISM
 90
        1
280
               0
281
               0
  0
CLASS
  1
IDBUFFER
  2
AcDbIdBuffer
  3
"Acad"
 90
        0
280
               0
281
               0
  0
CLASS
  1
SPATIAL_FILTER
  2
AcDbSpatialFilter
  3
"Acad"
 90
        0
280
               0
281
               0
  0
CLASS
  1
XRECORD
  2
AcDbXrecord
  3
"<Built In>"
 90
        0
280
               0
281
               0
  0
CLASS
  1
SORTENTSTABLE
  2
AcDbSortentsTable
  3
"AutoCAD"
 90
        0
280
               0
281
               0
  0
CLASS
  1
LAYER_INDEX
  2
AcDbLayerIndex
  3
"Acad"
 90
        0
280
               0
281
               0
  0
CLASS
  1
SPATIAL_INDEX
  2
AcDbSpatialIndex
  3
"Acad"
 90
        0
280
               0
281
               0
  0
CLASS
  1
OBJECT_PTR
  2
CAseDLPNTableRecord
  3
"ASE-LPNTableRecord"
 90
        1
280
               0
281
               0
  0
CLASS
  1
LAYOUT
  2
AcDbLayout
  3
"AutoCAD 2000"
 90
        1
280
               0
281
               0
  0
CLASS
  1
PLOTSETTINGS
  2
AcDbPlotSettings
  3
"AutoCAD 2000"
 90
        1
280
               0
281
               0
  0
CLASS
  1
ACDBDICTIONARYWDFLT
  2
AcDbDictionaryWithDefault
  3
"AutoCAD 2000"
 90
        1
280
               0
281
               0
  0
CLASS
  1
ACDBPLACEHOLDER
  2
AcDbPlaceHolder
  3
"AutoCAD 2000"
 90
        1
280
               0
281
               0
  0
ENDSEC
  0
SECTION
  2
TABLES
  0
TABLE
  2
VPORT
  5
7
100
AcDbSymbolTable
 70
               1
  0
VPORT
  5
15
100
AcDbSymbolTableRecord
100
AcDbViewportTableRecord
  2
*ACTIVE
 70
               0
 10
0.0
 20
0.0
 11
1.0
 21
1.0
 12
-0.024993896484375
 22
-0.1500015258789063
 13
0.0
 23
0.0
 14
1.0
 24
1.0
 15
0.0
 25
0.0
 16
0.0
 26
0.0
 36
1.0
 17
0.0
 27
0.0
 37
0.0
 40
191.1930030822754
 41
1.7320508075688772
 42
50.0
 43
0.0
 44
0.0
 50
0.0
 51
0.0
 71
               0
 72
             100
 73
               1
 74
               1
 75
               0
 76
               0
 77
               0
 78
               0
  0
ENDTAB
  0
TABLE
  2
LTYPE
  5
4
100
AcDbSymbolTable
 70
               6
  0
LTYPE
  5
11
100
AcDbSymbolTableRecord
100
AcDbLinetypeTableRecord
  2
BYBLOCK
 70
              64
  3

 72
              65
 73
               0
 40
0.0
  0
LTYPE
  5
12
100
AcDbSymbolTableRecord
100
AcDbLinetypeTableRecord
  2
BYLAYER
 70
              64
  3

 72
              65
 73
               0
 40
0.0
  0
LTYPE
  5
13
100
AcDbSymbolTableRecord
100
AcDbLinetypeTableRecord
  2
CONTINUOUS
 70
              64
  3
Solid line
 72
              65
 73
               0
 40
0.0
  0
LTYPE
  5
39
100
AcDbSymbolTableRecord
100
AcDbLinetypeTableRecord
  2
DASHED
 70
              64
  3
Dashed __ __ __ __ __ __ __ __ __ __ __ __ __ _
 72
              65
 73
               2
 40
4.0
 49
2.0
 74
               0
 49
-2.0
 74
               0
  0
LTYPE
  5
3B
100
AcDbSymbolTableRecord
100
AcDbLinetypeTableRecord
  2
CENTER
 70
              64
  3
Center ____ _ ____ _ ____ _ ____ _ ____ _ ____
 72
              65
 73
               4
 40
26.0
 49
20.0
 74
               0
 49
-2.0
 74
               0
 49
2.0
 74
               0
 49
-2.0
 74
               0
  0
LTYPE
  5
D9
100
AcDbSymbolTableRecord
100
AcDbLinetypeTableRecord
  2
PHANTOM
 70
              64
  3
Phantom ______  __  __  ______  __  __  ______
 72
              65
 73
               6
 40
30.0
 49
20.0
 74
               0
 49
-2.0
 74
               0
 49
2.0
 74
               0
 49
-2.0
 74
               0
 49
2.0
 74
               0
 49
-2.0
 74
               0
  0
ENDTAB
  0
TABLE
  2
LAYER
  5
2
100
AcDbSymbolTable
 70
               2
  0
LAYER
  5
14
100
AcDbSymbolTableRecord
100
AcDbLayerTableRecord
  2
0
 70
               0
 62
               7
  6
CONTINUOUS
  0
LAYER
  5
1D
100
AcDbSymbolTableRecord
100
AcDbLayerTableRecord
  2
DEFPOINTS
 70
               0
 62
               7
  6
CONTINUOUS
  0
ENDTAB
  0
TABLE
  2
STYLE
  5
3
100
AcDbSymbolTable
 70
               1
  0
STYLE
  5
17
100
AcDbSymbolTableRecord
100
AcDbTextStyleTableRecord
  2
MX_NOTE_STANDARD
 70
               0
 40
0.0
 41
1.0
 50
0.0
 71
               0
 42
3.2000000476837158
  3
txt.shx
  4
extfont.shx
  0
ENDTAB
  0
TABLE
  2
VIEW
  5
5
100
AcDbSymbolTable
 70
               0
  0
ENDTAB
  0
TABLE
  2
UCS
  5
6
100
AcDbSymbolTable
 70
               0
  0
ENDTAB
  0
TABLE
  2
APPID
  5
8
100
AcDbSymbolTable
 70
               1
  0
APPID
  5
16
100
AcDbSymbolTableRecord
100
AcDbRegAppTableRecord
  2
ACAD
 70
               0
  0
ENDTAB
  0
TABLE
  2
DIMSTYLE
  5
9
100
AcDbSymbolTable
 70
               1
  0
DIMSTYLE
105
18
100
AcDbSymbolTableRecord
100
AcDbDimStyleTableRecord
  2
MXDIMSTYLE
 70
               0
  3

  4

  5

  6

  7

 40
1.0
 41
2.5
 42
1.5
 43
3.75
 44
1.5
 45
0.0
 46
0.0
 47
0.0
 48
0.0
 71
               0
 72
               0
 73
               0
 74
               0
 75
               0
 76
               0
 77
               1
 78
               8
140
3.2000000476837158
141
2.5
142
0.0
143
0.03937007874016
144
1.0
145
0.0
146
1.0
147
1.0
170
               0
171
               4
172
               1
173
               0
174
               0
175
               0
176
               0
177
               0
178
               0
270
               2
271
               4
272
               4
273
               2
274
               4
275
               0
280
               0
281
               0
282
               0
283
               1
284
               0
285
               0
286
               0
287
               3
288
               1
340
17
  0
ENDTAB
  0
TABLE
  2
BLOCK_RECORD
  5
1
100
AcDbSymbolTable
 70
               9
  0
BLOCK_RECORD
  5
A
100
AcDbSymbolTableRecord
100
AcDbBlockTableRecord
  2
*MODEL_SPACE
  0
BLOCK_RECORD
  5
B
100
AcDbSymbolTableRecord
100
AcDbBlockTableRecord
  2
*PAPER_SPACE
  0
BLOCK_RECORD
  5
1E
100
AcDbSymbolTableRecord
100
AcDbBlockTableRecord
  2
CS-PBDAS167-1
  0
BLOCK_RECORD
  5
1F
100
AcDbSymbolTableRecord
100
AcDbBlockTableRecord
  2
CS-PBDAS167-2
  0
BLOCK_RECORD
  5
20
100
AcDbSymbolTableRecord
100
AcDbBlockTableRecord
  2
CS-PBDAS167-3
  0
BLOCK_RECORD
  5
21
100
AcDbSymbolTableRecord
100
AcDbBlockTableRecord
  2
CS-PBDAS167-4
  0
BLOCK_RECORD
  5
22
100
AcDbSymbolTableRecord
100
AcDbBlockTableRecord
  2
CS-PBDAS167-5
  0
BLOCK_RECORD
  5
23
100
AcDbSymbolTableRecord
100
AcDbBlockTableRecord
  2
CS-PBDAS167-6
  0
BLOCK_RECORD
  5
24
100
AcDbSymbolTableRecord
100
AcDbBlockTableRecord
  2
CS-PBDAS167-7
  0
BLOCK_RECORD
  5
25
100
AcDbSymbolTableRecord
100
AcDbBlockTableRecord
  2
CS-PBDAS167-8
  0
BLOCK_RECORD
  5
26
100
AcDbSymbolTableRecord
100
AcDbBlockTableRecord
  2
CS-PBDAS167-9
  0
ENDTAB
  0
ENDSEC
  0
SECTION
  2
BLOCKS
  0
BLOCK
  5
D
100
AcDbEntity
  8
0
100
AcDbBlockBegin
  2
*MODEL_SPACE
 70
               0
 10
0.0
 20
0.0
 30
0.0
  3
*MODEL_SPACE
  1

  0
ENDBLK
  5
E
100
AcDbEntity
  8
0
100
AcDbBlockEnd
  0
BLOCK
  5
F
100
AcDbEntity
 67
               1
  8
0
100
AcDbBlockBegin
  2
*PAPER_SPACE
 70
               0
 10
0.0
 20
0.0
 30
0.0
  3
*PAPER_SPACE
  1

  0
ENDBLK
  5
10
100
AcDbEntity
 67
               1
  8
0
100
AcDbBlockEnd
  0
BLOCK
  5
27
100
AcDbEntity
  8
0
100
AcDbBlockBegin
  2
CS-PBDAS167-1
 70
               0
 10
0.0
 20
0.0
 30
0.0
  3
CS-PBDAS167-1
  1

  0
CIRCLE
  5
28
100
AcDbEntity
  8
0
  6
CONTINUOUS
 62
               7
100
AcDbCircle
 10
101.5
 20
0.0000000000000355
 30
0.0
 40
2.5
  0
LINE
  5
29
100
AcDbEntity
  8
0
  6
CONTINUOUS
 62
               2
100
AcDbLine
 10
-20.033050537109375
 20
-2.0669999999999646
 30
0.0
 11
-13.0
 21
-2.0669999999999646
 31
0.0
  0
LINE
  5
2A
100
AcDbEntity
  8
0
  6
CONTINUOUS
 62
               2
100
AcDbLine
 10
-20.033050537109375
 20
2.0670000000000357
 30
0.0
 11
-13.0
 21
2.0670000000000357
 31
0.0
  0
LINE
  5
2B
100
AcDbEntity
  8
0
  6
CONTINUOUS
 62
               2
100
AcDbLine
 10
-27.932997541988705
 20
-2.0669999999999646
 30
0.0
 11
-24.033050537109375
 21
-2.0669999999999646
 31
0.0
  0
LINE
  5
2C
100
AcDbEntity
  8
0
  6
CONTINUOUS
 62
               2
100
AcDbLine
 10
-7.5414690429422118
 20
-5.4584999999999644
 30
0.0
 11
-1.5
 21
-5.4584999999999644
 31
0.0
  0
ARC
  5
2D
100
AcDbEntity
  8
0
  6
CONTINUOUS
 62
               4
100
AcDbCircle
 10
-21.5245361328125
 20
-3.3857841491698863
 30
0.0
 40
1.4914833307266235
100
AcDbArc
 50
0.0
 51
48.335773435319517
  0
ARC
  5
2E
100
AcDbEntity
  8
0
  6
CONTINUOUS
 62
               4
100
AcDbCircle
 10
-25.443046569824219
 20
0.0000000000000355
 30
0.0
 40
5.409996509552002
100
AcDbArc
 50
335.17289074440731
 51
0.0
  0
ARC
  5
2F
100
AcDbEntity
  8
0
  6
CONTINUOUS
 62
               4
100
AcDbCircle
 10
-21.5245361328125
 20
3.3857803344726918
 30
0.0
 40
1.4914833307266235
100
AcDbArc
 50
311.66422656468046
 51
0.0
  0
ARC
  5
30
100
AcDbEntity
  8
0
  6
CONTINUOUS
 62
               4
100
AcDbCircle
 10
-25.443046569824219
 20
0.0000000000000355
 30
0.0
 40
5.409996509552002
100
AcDbArc
 50
0.0
 51
24.82710925559271
  0
ARC
  5
31
100
AcDbEntity
  8
0
  6
CONTINUOUS
 62
               4
100
AcDbCircle
 10
-22.54156494140625
 20
3.3857803344726918
 30
0.0
 40
1.4914833307266235
100
AcDbArc
 50
131.6641905925018
 51
179.99996402782131
  0
ARC
  5
32
100
AcDbEntity
  8
0
  6
CONTINUOUS
 62
               4
100
AcDbCircle
 10
-22.54156494140625
 20
3.3857803344726918
 30
0.0
 40
1.4914833307266235
100
AcDbArc
 50
179.99997768819966
 51
228.33575112351917
  0
ARC
  5
33
100
AcDbEntity
  8
0
  6
CONTINUOUS
 62
               4
100
AcDbCircle
 10
-22.54156494140625
 20
-3.3857841491698863
 30
0.0
 40
1.4914833307266235
100
AcDbArc
 50
179.99997768819966
 51
228.33575112351917
  0
ARC
  5
34
100
AcDbEntity
  8
0
  6
CONTINUOUS
 62
               4
100
AcDbCircle
 10
-22.54156494140625
 20
-3.3857841491698863
 30
0.0
 40
1.4914833307266235
100
AcDbArc
 50
131.6641905925018
 51
179.99996402782131
  0
ARC
  5
35
100
AcDbEntity
  8
0
  6
CONTINUOUS
 62
               4
100
AcDbCircle
 10
-18.623054504394531
 20
0.0000000000000355
 30
0.0
 40
5.409996509552002
100
AcDbArc
 50
179.99997768819966
 51
204.82708694379235
  0
ARC
  5
36
100
AcDbEntity
  8
0
  6
CONTINUOUS
 62
               4
100
AcDbCircle
 10
-18.623054504394531
 20
0.0000000000000355
 30
0.0
 40
5.409996509552002
100
AcDbArc
 50
155.17285477222862
 51
179.99996402782131
  0
ARC
  5
37
100
AcDbEntity
  8
0
  6
CONTINUOUS
 62
               4
100
AcDbCircle
 10
-21.5245361328125
 20
-3.3857841491698863
 30
0.0
 40
1.4914833307266235
100
AcDbArc
 50
311.66422656468046
 51
0.0
  0
ARC
  5
38
100
AcDbEntity
  8
0
  6
CONTINUOUS
 62
               4
100
AcDbCircle
 10
-21.5245361328125
 20
3.3857803344726918
 30
0.0
 40
1.4914833307266235
100
AcDbArc
 50
0.0
 51
48.335773435319517
  0
LINE
  5
3A
100
AcDbEntity
  8
0
  6
DASHED
 62
               2
100
AcDbLine
 10
2.5
 20
8.5000000000000355
 30
0.0
 11
2.5
 21
3.5000000000000355
 31
0.0
  0
LINE
  5
3C
100
AcDbEntity
  8
0
  6
CENTER
 62
               2
100
AcDbLine
 10
17.0
 20
10.260474830865896
 30
0.0
 11
17.0
 21
1.1057253827877958
 31
0.0
  0
LINE
  5
3D
100
AcDbEntity
  8
0
  6
DASHED
 62
               2
100
AcDbLine
 10
19.5
 20
8.5000000000000355
 30
0.0
 11
19.5
 21
3.5000000000000355
 31
0.0
  0
LINE
  5
3E
100
AcDbEntity
  8
0
  6
DASHED
 62
               2
100
AcDbLine
 10
19.067
 20
8.5000000000000355
 30
0.0
 11
19.067
 21
3.5000000000000355
 31
0.0
  0
LINE
  5
3F
100
AcDbEntity
  8
0
  6
DASHED
 62
               2
100
AcDbLine
 10
14.933
 20
8.5000000000000355
 30
0.0
 11
14.933
 21
3.5000000000000355
 31
0.0
  0
LINE
  5
40
100
AcDbEntity
  8
0
  6
DASHED
 62
               2
100
AcDbLine
 10
14.5
 20
8.5000000000000355
 30
0.0
 11
14.5
 21
3.5000000000000355
 31
0.0
  0
LINE
  5
41
100
AcDbEntity
  8
0
  6
CONTINUOUS
 62
               7
100
AcDbLine
 10
19.75
 20
-4.2426414489745738
 30
0.0
 11
19.75
 21
-8.5000019073485973
 31
0.0
  0
LINE
  5
42
100
AcDbEntity
  8
0
  6
CONTINUOUS
 62
               7
100
AcDbLine
 10
1.75
 20
-4.2426414489745738
 30
0.0
 11
1.75
 21
-8.5000019073485973
 31
0.0
  0
LINE
  5
43
100
AcDbEntity
  8
0
  6
DASHED
 62
               2
100
AcDbLine
 10
7.0670000000000002
 20
8.5000000000000355
 30
0.0
 11
7.0670000000000002
 21
3.5000000000000355
 31
0.0
  0
LINE
  5
44
100
AcDbEntity
  8
0
  6
DASHED
 62
               2
100
AcDbLine
 10
2.9329999999999998
 20
8.5000000000000355
 30
0.0
 11
2.9329999999999998
 21
3.5000000000000355
 31
0.0
  0
LINE
  5
45
100
AcDbEntity
  8
0
  6
CENTER
 62
               2
100
AcDbLine
 10
5.0
 20
10.260474830865896
 30
0.0
 11
5.0
 21
1.1057253827877958
 31
0.0
  0
LINE
  5
46
100
AcDbEntity
  8
0
  6
DASHED
 62
               2
100
AcDbLine
 10
7.5
 20
8.5000000000000355
 30
0.0
 11
7.5
 21
3.5000000000000355
 31
0.0
  0
LINE
  5
47
100
AcDbEntity
  8
0
  6
CONTINUOUS
 62
               7
100
AcDbLine
 10
-1.5
 20
6.0000000000000355
 30
0.0
 11
-1.5
 21
-6.0000019073485973
 31
0.0
  0
LINE
  5
48
100
AcDbEntity
  8
0
  6
CONTINUOUS
 62
               7
100
AcDbLine
 10
-8.0
 20
4.9999865949437563
 30
0.0
 11
-8.0
 21
-4.9999933242797496
 31
0.0
  0
LINE
  5
49
100
AcDbEntity
  8
0
  6
CONTINUOUS
 62
               4
100
AcDbLine
 10
-23.533050537109375
 20
-2.2715644836425426
 30
0.0
 11
-20.533050537109375
 21
-2.2715644836425426
 31
0.0
  0
LINE
  5
4A
100
AcDbEntity
  8
0
  6
CONTINUOUS
 62
               4
100
AcDbLine
 10
-23.533050537109375
 20
2.271560668945348
 30
0.0
 11
-20.533050537109375
 21
2.271560668945348
 31
0.0
  0
LINE
  5
4B
100
AcDbEntity
  8
0
  6
CONTINUOUS
 62
               2
100
AcDbLine
 10
-27.93297630037069
 20
2.0670000000000357
 30
0.0
 11
-24.033050537109375
 21
2.0670000000000357
 31
0.0
  0
LINE
  5
4C
100
AcDbEntity
  8
0
  6
CONTINUOUS
 62
               7
100
AcDbLine
 10
-20.033050537109375
 20
-2.5000019073485973
 30
0.0
 11
-8.0
 21
-2.5000019073485973
 31
0.0
  0
LINE
  5
4D
100
AcDbEntity
  8
0
  6
CONTINUOUS
 62
               4
100
AcDbLine
 10
-23.533050537109375
 20
4.5000000000000355
 30
0.0
 11
-20.533050537109375
 21
4.5000000000000355
 31
0.0
  0
LINE
  5
4E
100
AcDbEntity
  8
0
  6
CONTINUOUS
 62
               4
100
AcDbLine
 10
-23.533050537109375
 20
-4.5000019073485973
 30
0.0
 11
-20.533058166503906
 21
-4.5000019073485973
 31
0.0
  0
LINE
  5
4F
100
AcDbEntity
  8
0
  6
CONTINUOUS
 62
               4
100
AcDbLine
 10
-20.033050537109375
 20
3.3857803344726918
 30
0.0
 11
-20.033050537109375
 21
-3.3857841491698863
 31
0.0
  0
LINE
  5
50
100
AcDbEntity
  8
0
  6
CONTINUOUS
 62
               4
100
AcDbLine
 10
-24.033050537109375
 20
3.3857803344726918
 30
0.0
 11
-24.033050537109375
 21
-3.3857841491698863
 31
0.0
  0
LINE
  5
51
100
AcDbEntity
  8
0
  6
CONTINUOUS
 62
               7
100
AcDbLine
 10
-27.5
 20
2.4999961853027699
 30
0.0
 11
-27.5
 21
-2.5000038146972301
 31
0.0
  0
LINE
  5
52
100
AcDbEntity
  8
0
  6
CONTINUOUS
 62
               7
100
AcDbLine
 10
-27.999992890195472
 20
-2.0000046517931978
 30
0.0
 11
-27.499992359400721
 21
-2.5000051825879481
 31
0.0
  0
LINE
  5
53
100
AcDbEntity
  8
0
  6
CONTINUOUS
 62
               7
100
AcDbLine
 10
-27.999990192797213
 20
1.9999861075735126
 30
0.0
 11
-27.49999505679898
 21
2.4999812435717459
 31
0.0
  0
LINE
  5
54
100
AcDbEntity
  8
0
  6
CONTINUOUS
 62
               7
100
AcDbLine
 10
-13.0
 20
2.5000000000000355
 30
0.0
 11
-13.0
 21
-2.5000019073485973
 31
0.0
  0
LINE
  5
55
100
AcDbEntity
  8
0
  6
CONTINUOUS
 62
               7
100
AcDbLine
 10
-28.0
 20
2.0000000000000355
 30
0.0
 11
-28.0
 21
-1.9999999999999645
 31
0.0
  0
LINE
  5
56
100
AcDbEntity
  8
0
  6
CONTINUOUS
 62
               7
100
AcDbLine
 10
-27.5
 20
-2.5000019073485973
 30
0.0
 11
-24.033050537109375
 21
-2.5000019073485973
 31
0.0
  0
LINE
  5
57
100
AcDbEntity
  8
0
  6
CONTINUOUS
 62
               7
100
AcDbLine
 10
-27.5
 20
2.5000000000000355
 30
0.0
 11
-24.033050537109375
 21
2.5000000000000355
 31
0.0
  0
LINE
  5
58
100
AcDbEntity
  8
0
  6
CONTINUOUS
 62
               7
100
AcDbLine
 10
-6.9999771118164062
 20
6.0000000000000355
 30
0.0
 11
-6.9999771118164062
 21
-5.9999999999999645
 31
0.0
  0
LINE
  5
59
100
AcDbEntity
  8
0
  6
CONTINUOUS
 62
               7
100
AcDbLine
 10
0.0
 20
-8.5000019073485973
 30
0.0
 11
33.0
 21
-8.5000019073485973
 31
0.0
  0
LINE
  5
5A
100
AcDbEntity
  8
0
  6
CONTINUOUS
 62
               7
100
AcDbLine
 10
82.500001907348633
 20
8.5000000000000355
 30
0.0
 11
82.500001907348633
 21
-8.5000019073485973
 31
0.0
  0
LINE
  5
5B
100
AcDbEntity
  8
0
  6
CONTINUOUS
 62
               7
100
AcDbLine
 10
0.0
 20
8.5000000000000355
 30
0.0
 11
0.0
 21
-8.5000019073485973
 31
0.0
  0
LINE
  5
5C
100
AcDbEntity
  8
0
  6
CONTINUOUS
 62
               2
100
AcDbLine
 10
-7.5414690429422118
 20
5.4585000000000354
 30
0.0
 11
-1.5
 21
5.4585000000000354
 31
0.0
  0
LINE
  5
5D
100
AcDbEntity
  8
0
  6
CONTINUOUS
 62
               7
100
AcDbLine
 10
-7.999993237591525
 20
-4.9999970469686659
 30
0.0
 11
-6.9999921760020243
 21
-5.9999981085581666
 31
0.0
  0
LINE
  5
5E
100
AcDbEntity
  8
0
  6
CONTINUOUS
 62
               7
100
AcDbLine
 10
-7.9999824479984909
 20
4.9999865949437563
 30
0.0
 11
-6.9999813864089901
 21
5.9999876565332571
 31
0.0
  0
LINE
  5
5F
100
AcDbEntity
  8
0
  6
CONTINUOUS
 62
               7
100
AcDbLine
 10
21.5
 20
8.5000000000000355
 30
0.0
 11
21.5
 21
-8.5000019073485973
 31
0.0
  0
LINE
  5
60
100
AcDbEntity
  8
0
  6
CONTINUOUS
 62
               7
100
AcDbLine
 10
-7.0
 20
6.0000000000000355
 30
0.0
 11
0.0
 21
6.0000000000000355
 31
0.0
  0
LINE
  5
61
100
AcDbEntity
  8
0
  6
CONTINUOUS
 62
               7
100
AcDbLine
 10
-7.0
 20
-6.0000019073485973
 30
0.0
 11
0.0
 21
-6.0000019073485973
 31
0.0
  0
LINE
  5
62
100
AcDbEntity
  8
0
  6
CONTINUOUS
 62
               7
100
AcDbLine
 10
0.0
 20
8.5000000000000355
 30
0.0
 11
30.5
 21
8.5000000000000355
 31
0.0
  0
LINE
  5
63
100
AcDbEntity
  8
0
  6
CONTINUOUS
 62
               7
100
AcDbLine
 10
-20.033050537109375
 20
2.5000019073486683
 30
0.0
 11
-8.0
 21
2.5000019073486683
 31
0.0
  0
LINE
  5
64
100
AcDbEntity
  8
0
  6
CONTINUOUS
 62
               7
100
AcDbLine
 10
19.75
 20
4.2426414489746449
 30
0.0
 11
19.75
 21
8.5000019073486683
 31
0.0
  0
LINE
  5
65
100
AcDbEntity
  8
0
  6
CONTINUOUS
 62
               7
100
AcDbLine
 10
1.75
 20
4.2426414489746449
 30
0.0
 11
1.75
 21
8.5000019073486683
 31
0.0
  0
LINE
  5
66
100
AcDbEntity
  8
0
  6
CENTER
 62
               2
100
AcDbLine
 10
-31.252465897166843
 20
0.0000000000000355
 30
0.0
 11
113.12535260055782
 21
0.0000000000000355
 31
0.0
  0
LINE
  5
67
100
AcDbEntity
  8
0
  6
CENTER
 62
             200
100
AcDbLine
 10
37.5
 20
22.200967079163533
 30
0.0
 11
37.5
 21
-9.7346590936531783
 31
0.0
  0
LINE
  5
68
100
AcDbEntity
  8
0
  6
CONTINUOUS
 62
               4
100
AcDbLine
 10
30.5
 20
11.100000000000058
 30
0.0
 11
30.5
 21
8.0318821884705756
 31
0.0
  0
LINE
  5
69
100
AcDbEntity
  8
0
  6
CONTINUOUS
 62
               4
100
AcDbLine
 10
44.5
 20
11.100000000000058
 30
0.0
 11
44.5
 21
8.0318821884705756
 31
0.0
  0
LINE
  5
6A
100
AcDbEntity
  8
0
  6
CONTINUOUS
 62
               4
100
AcDbLine
 10
42.0
 20
11.200000000000024
 30
0.0
 11
42.0
 21
-8.6499846468275265
 31
0.0
  0
LINE
  5
6B
100
AcDbEntity
  8
0
  6
CONTINUOUS
 62
               4
100
AcDbLine
 10
33.0
 20
11.200000000000024
 30
0.0
 11
33.0
 21
-8.6499846468275265
 31
0.0
  0
LINE
  5
6C
100
AcDbEntity
  8
0
  6
CONTINUOUS
 62
               4
100
AcDbLine
 10
35.0
 20
19.500000000000028
 30
0.0
 11
35.0
 21
19.000000000000028
 31
0.0
  0
LINE
  5
6D
100
AcDbEntity
  8
0
  6
CONTINUOUS
 62
               4
100
AcDbLine
 10
40.0
 20
19.500000000000028
 30
0.0
 11
40.0
 21
19.000000000000028
 31
0.0
  0
LINE
  5
6E
100
AcDbEntity
  8
0
  6
CONTINUOUS
 62
               4
100
AcDbLine
 10
33.0
 20
18.000000000000028
 30
0.0
 11
42.0
 21
18.000000000000028
 31
0.0
  0
LINE
  5
6F
100
AcDbEntity
  8
0
  6
CONTINUOUS
 62
               4
100
AcDbLine
 10
35.0
 20
19.000000000000028
 30
0.0
 11
40.0
 21
19.000000000000028
 31
0.0
  0
LINE
  5
70
100
AcDbEntity
  8
0
  6
CONTINUOUS
 62
               4
100
AcDbLine
 10
36.0
 20
20.500000000000028
 30
0.0
 11
39.0
 21
20.500000000000028
 31
0.0
  0
LINE
  5
71
100
AcDbEntity
  8
0
  6
CONTINUOUS
 62
               4
100
AcDbLine
 10
39.0
 20
19.000000000000028
 30
0.0
 11
39.0
 21
18.000000000000028
 31
0.0
  0
LINE
  5
72
100
AcDbEntity
  8
0
  6
CONTINUOUS
 62
               4
100
AcDbLine
 10
36.0
 20
19.000000000000028
 30
0.0
 11
36.0
 21
18.000000000000028
 31
0.0
  0
LINE
  5
73
100
AcDbEntity
  8
0
  6
CONTINUOUS
 62
             200
100
AcDbLine
 10
38.730000000000004
 20
19.000000000000028
 30
0.0
 11
38.730000000000004
 21
18.000000000000028
 31
0.0
  0
LINE
  5
74
100
AcDbEntity
  8
0
  6
CONTINUOUS
 62
             200
100
AcDbLine
 10
36.269999999999996
 20
19.000000000000028
 30
0.0
 11
36.269999999999996
 21
18.000000000000028
 31
0.0
  0
ARC
  5
75
100
AcDbEntity
  8
0
  6
CONTINUOUS
 62
               4
100
AcDbCircle
 10
36.000791486783555
 20
19.499208513216473
 30
0.0
 40
1.0007917997614517
100
AcDbArc
 50
90.04531297816014
 51
179.95468702183987
  0
ARC
  5
76
100
AcDbEntity
  8
0
  6
CONTINUOUS
 62
               4
100
AcDbCircle
 10
38.998334343634269
 20
19.498334343634298
 30
0.0
 40
1.0016670412635778
100
AcDbArc
 50
0.0952762943444108
 51
89.904723705655996
  0
LINE
  5
77
100
AcDbEntity
  8
0
  6
CONTINUOUS
 62
               4
100
AcDbLine
 10
52.999999990463252
 20
12.60000000000003
 30
0.0
 11
57.936999077164948
 21
12.60000000000003
 31
0.0
  0
LINE
  5
78
100
AcDbEntity
  8
0
  6
CONTINUOUS
 62
               4
100
AcDbLine
 10
52.999999999999993
 20
12.60000000000003
 30
0.0
 11
52.999999999999993
 21
10.000000000000036
 31
0.0
  0
LINE
  5
79
100
AcDbEntity
  8
0
  6
CONTINUOUS
 62
               4
100
AcDbLine
 10
52.999999990463252
 20
10.000000000000036
 30
0.0
 11
55.336999077164947
 21
10.000000000000036
 31
0.0
  0
LINE
  5
7A
100
AcDbEntity
  8
0
  6
CONTINUOUS
 62
             200
100
AcDbLine
 10
57.936999077164948
 20
12.60000000000003
 30
0.0
 11
55.336999077164947
 21
10.000000000000036
 31
0.0
  0
LINE
  5
7B
100
AcDbEntity
  8
0
  6
CONTINUOUS
 62
               4
100
AcDbLine
 10
49.999999999999993
 20
13.300000000000047
 30
0.0
 11
49.999999999999993
 21
9.3000000000000469
 31
0.0
  0
LINE
  5
7C
100
AcDbEntity
  8
0
  6
CONTINUOUS
 62
               4
100
AcDbLine
 10
49.999999999999993
 20
9.3000000000000469
 30
0.0
 11
52.999999990463252
 21
10.000000000000036
 31
0.0
  0
LINE
  5
7D
100
AcDbEntity
  8
0
  6
CONTINUOUS
 62
               4
100
AcDbLine
 10
49.999999999999993
 20
13.300000000000047
 30
0.0
 11
52.999999999999993
 21
12.60000000000003
 31
0.0
  0
LINE
  5
7E
100
AcDbEntity
  8
0
  6
CONTINUOUS
 62
               4
100
AcDbLine
 10
26.0
 20
13.300000000000047
 30
0.0
 11
26.0
 21
9.3000000000000469
 31
0.0
  0
LINE
  5
7F
100
AcDbEntity
  8
0
  6
CONTINUOUS
 62
               4
100
AcDbLine
 10
25.0
 20
10.300000000000047
 30
0.0
 11
26.0
 21
9.3000000000000469
 31
0.0
  0
LINE
  5
80
100
AcDbEntity
  8
0
  6
CONTINUOUS
 62
               4
100
AcDbLine
 10
26.0
 20
13.300000000000047
 30
0.0
 11
30.5
 21
13.300000000000047
 31
0.0
  0
LINE
  5
81
100
AcDbEntity
  8
0
  6
CONTINUOUS
 62
               4
100
AcDbLine
 10
26.0
 20
9.3000000000000469
 30
0.0
 11
30.5
 21
9.3000000000000469
 31
0.0
  0
LINE
  5
82
100
AcDbEntity
  8
0
  6
CONTINUOUS
 62
               4
100
AcDbLine
 10
25.0
 20
12.300000000000047
 30
0.0
 11
25.0
 21
10.300000000000047
 31
0.0
  0
LINE
  5
83
100
AcDbEntity
  8
0
  6
CONTINUOUS
 62
               4
100
AcDbLine
 10
25.0
 20
12.300000000000047
 30
0.0
 11
26.0
 21
13.300000000000047
 31
0.0
  0
LINE
  5
84
100
AcDbEntity
  8
0
  6
CONTINUOUS
 62
               4
100
AcDbLine
 10
30.5
 20
14.30000000000004
 30
0.0
 11
30.5
 21
11.500000000000036
 31
0.0
  0
LINE
  5
85
100
AcDbEntity
  8
0
  6
CONTINUOUS
 62
               4
100
AcDbLine
 10
44.5
 20
14.30000000000004
 30
0.0
 11
44.5
 21
11.500000000000036
 31
0.0
  0
LINE
  5
86
100
AcDbEntity
  8
0
  6
CONTINUOUS
 62
               4
100
AcDbLine
 10
30.499999990463252
 20
14.30000000000004
 30
0.0
 11
33.0
 21
14.30000000000004
 31
0.0
  0
LINE
  5
87
100
AcDbEntity
  8
0
  6
CONTINUOUS
 62
               4
100
AcDbLine
 10
30.499999990463252
 20
11.500000000000036
 30
0.0
 11
33.0
 21
11.500000000000036
 31
0.0
  0
LINE
  5
88
100
AcDbEntity
  8
0
  6
CONTINUOUS
 62
               4
100
AcDbLine
 10
30.499999990463252
 20
11.100000000000058
 30
0.0
 11
33.0
 21
11.100000000000058
 31
0.0
  0
LINE
  5
89
100
AcDbEntity
  8
0
  6
CONTINUOUS
 62
               4
100
AcDbLine
 10
42.0
 20
14.30000000000004
 30
0.0
 11
44.5
 21
14.30000000000004
 31
0.0
  0
LINE
  5
8A
100
AcDbEntity
  8
0
  6
CONTINUOUS
 62
               4
100
AcDbLine
 10
42.0
 20
11.500000000000036
 30
0.0
 11
44.5
 21
11.500000000000036
 31
0.0
  0
LINE
  5
8B
100
AcDbEntity
  8
0
  6
CONTINUOUS
 62
               4
100
AcDbLine
 10
42.0
 20
11.100000000000058
 30
0.0
 11
44.5
 21
11.100000000000058
 31
0.0
  0
LINE
  5
8C
100
AcDbEntity
  8
0
  6
CONTINUOUS
 62
               4
100
AcDbLine
 10
33.0
 20
11.500000000000036
 30
0.0
 11
42.0
 21
11.500000000000036
 31
0.0
  0
LINE
  5
8D
100
AcDbEntity
  8
0
  6
CONTINUOUS
 62
               4
100
AcDbLine
 10
44.5
 20
9.3000000000000469
 30
0.0
 11
49.999999999999993
 21
9.3000000000000469
 31
0.0
  0
LINE
  5
8E
100
AcDbEntity
  8
0
  6
CONTINUOUS
 62
               4
100
AcDbLine
 10
44.5
 20
13.300000000000047
 30
0.0
 11
49.999999999999993
 21
13.300000000000047
 31
0.0
  0
LINE
  5
8F
100
AcDbEntity
  8
0
  6
CONTINUOUS
 62
               4
100
AcDbLine
 10
42.0
 20
11.200000000000024
 30
0.0
 11
42.0
 21
18.000000000000028
 31
0.0
  0
LINE
  5
90
100
AcDbEntity
  8
0
  6
CONTINUOUS
 62
               4
100
AcDbLine
 10
33.0
 20
11.200000000000024
 30
0.0
 11
33.0
 21
18.000000000000028
 31
0.0
  0
LINE
  5
91
100
AcDbEntity
  8
0
  6
CONTINUOUS
 62
               4
100
AcDbLine
 10
30.500000021689146
 20
8.0318821884705756
 30
0.0
 11
33.000000021689146
 21
8.0318821884705756
 31
0.0
  0
LINE
  5
92
100
AcDbEntity
  8
0
  6
CONTINUOUS
 62
               4
100
AcDbLine
 10
44.499999978310854
 20
8.0318821884705756
 30
0.0
 11
41.999999978310854
 21
8.0318821884705756
 31
0.0
  0
LINE
  5
93
100
AcDbEntity
  8
0
  6
CONTINUOUS
 62
               4
100
AcDbLine
 10
32.999999990463252
 20
-8.6499846468275265
 30
0.0
 11
42.0
 21
-8.6499846468275265
 31
0.0
  0
LINE
  5
94
100
AcDbEntity
  8
0
  6
CONTINUOUS
 62
               7
100
AcDbLine
 10
44.5
 20
8.5000000000000355
 30
0.0
 11
65.000001907348633
 21
8.5000000000000355
 31
0.0
  0
LINE
  5
95
100
AcDbEntity
  8
0
  6
CONTINUOUS
 62
               7
100
AcDbLine
 10
42.0
 20
-8.5000019073485973
 30
0.0
 11
67.500001887783739
 21
-8.5000019073485973
 31
0.0
  0
LINE
  5
96
100
AcDbEntity
  8
0
  6
CONTINUOUS
 62
               7
100
AcDbLine
 10
76.500001887783739
 20
-8.5000019073485973
 30
0.0
 11
109.50000190734863
 21
-8.5000019073485973
 31
0.0
  0
LINE
  5
97
100
AcDbEntity
  8
0
  6
CENTER
 62
             200
100
AcDbLine
 10
72.000001907348633
 20
22.200967079163533
 30
0.0
 11
72.000001907348633
 21
-9.7346590936531783
 31
0.0
  0
LINE
  5
98
100
AcDbEntity
  8
0
  6
CONTINUOUS
 62
               4
100
AcDbLine
 10
65.000001907348633
 20
11.100000000000058
 30
0.0
 11
65.000001907348633
 21
8.0318821884705756
 31
0.0
  0
LINE
  5
99
100
AcDbEntity
  8
0
  6
CONTINUOUS
 62
               4
100
AcDbLine
 10
79.000001907348633
 20
11.100000000000058
 30
0.0
 11
79.000001907348633
 21
8.0318821884705756
 31
0.0
  0
LINE
  5
9A
100
AcDbEntity
  8
0
  6
CONTINUOUS
 62
               4
100
AcDbLine
 10
76.500001907348633
 20
11.200000000000024
 30
0.0
 11
76.500001907348633
 21
-8.6499846468275265
 31
0.0
  0
LINE
  5
9B
100
AcDbEntity
  8
0
  6
CONTINUOUS
 62
               4
100
AcDbLine
 10
67.500001907348633
 20
11.200000000000024
 30
0.0
 11
67.500001907348633
 21
-8.6499846468275265
 31
0.0
  0
LINE
  5
9C
100
AcDbEntity
  8
0
  6
CONTINUOUS
 62
               4
100
AcDbLine
 10
67.500001907348633
 20
11.200000000000024
 30
0.0
 11
67.500001907348633
 21
18.000000000000028
 31
0.0
  0
LINE
  5
9D
100
AcDbEntity
  8
0
  6
CONTINUOUS
 62
               4
100
AcDbLine
 10
76.500001907348633
 20
11.200000000000024
 30
0.0
 11
76.500001907348633
 21
18.000000000000028
 31
0.0
  0
LINE
  5
9E
100
AcDbEntity
  8
0
  6
CONTINUOUS
 62
               4
100
AcDbLine
 10
79.000001907348633
 20
13.300000000000047
 30
0.0
 11
84.500001907348633
 21
13.300000000000047
 31
0.0
  0
LINE
  5
9F
100
AcDbEntity
  8
0
  6
CONTINUOUS
 62
               4
100
AcDbLine
 10
79.000001907348633
 20
9.3000000000000469
 30
0.0
 11
84.500001907348633
 21
9.3000000000000469
 31
0.0
  0
LINE
  5
A0
100
AcDbEntity
  8
0
  6
CONTINUOUS
 62
               4
100
AcDbLine
 10
67.500001907348633
 20
11.500000000000036
 30
0.0
 11
76.500001907348633
 21
11.500000000000036
 31
0.0
  0
LINE
  5
A1
100
AcDbEntity
  8
0
  6
CONTINUOUS
 62
               4
100
AcDbLine
 10
76.500001907348633
 20
11.100000000000058
 30
0.0
 11
79.000001907348633
 21
11.100000000000058
 31
0.0
  0
LINE
  5
A2
100
AcDbEntity
  8
0
  6
CONTINUOUS
 62
               4
100
AcDbLine
 10
76.500001907348633
 20
11.500000000000036
 30
0.0
 11
79.000001907348633
 21
11.500000000000036
 31
0.0
  0
LINE
  5
A3
100
AcDbEntity
  8
0
  6
CONTINUOUS
 62
               4
100
AcDbLine
 10
76.500001907348633
 20
14.30000000000004
 30
0.0
 11
79.000001907348633
 21
14.30000000000004
 31
0.0
  0
LINE
  5
A4
100
AcDbEntity
  8
0
  6
CONTINUOUS
 62
               4
100
AcDbLine
 10
65.000001897811885
 20
11.100000000000058
 30
0.0
 11
67.500001907348633
 21
11.100000000000058
 31
0.0
  0
LINE
  5
A5
100
AcDbEntity
  8
0
  6
CONTINUOUS
 62
               4
100
AcDbLine
 10
65.000001897811885
 20
11.500000000000036
 30
0.0
 11
67.500001907348633
 21
11.500000000000036
 31
0.0
  0
LINE
  5
A6
100
AcDbEntity
  8
0
  6
CONTINUOUS
 62
               4
100
AcDbLine
 10
65.000001897811885
 20
14.30000000000004
 30
0.0
 11
67.500001907348633
 21
14.30000000000004
 31
0.0
  0
LINE
  5
A7
100
AcDbEntity
  8
0
  6
CONTINUOUS
 62
               4
100
AcDbLine
 10
79.000001907348633
 20
14.30000000000004
 30
0.0
 11
79.000001907348633
 21
11.500000000000036
 31
0.0
  0
LINE
  5
A8
100
AcDbEntity
  8
0
  6
CONTINUOUS
 62
               4
100
AcDbLine
 10
65.000001907348633
 20
14.30000000000004
 30
0.0
 11
65.000001907348633
 21
11.500000000000036
 31
0.0
  0
LINE
  5
A9
100
AcDbEntity
  8
0
  6
CONTINUOUS
 62
               4
100
AcDbLine
 10
59.500001907348633
 20
12.300000000000047
 30
0.0
 11
60.500001907348633
 21
13.300000000000047
 31
0.0
  0
LINE
  5
AA
100
AcDbEntity
  8
0
  6
CONTINUOUS
 62
               4
100
AcDbLine
 10
59.500001907348633
 20
12.300000000000047
 30
0.0
 11
59.500001907348633
 21
10.300000000000047
 31
0.0
  0
LINE
  5
AB
100
AcDbEntity
  8
0
  6
CONTINUOUS
 62
               4
100
AcDbLine
 10
60.500001907348633
 20
9.3000000000000469
 30
0.0
 11
65.000001907348633
 21
9.3000000000000469
 31
0.0
  0
LINE
  5
AC
100
AcDbEntity
  8
0
  6
CONTINUOUS
 62
               4
100
AcDbLine
 10
60.500001907348633
 20
13.300000000000047
 30
0.0
 11
65.000001907348633
 21
13.300000000000047
 31
0.0
  0
LINE
  5
AD
100
AcDbEntity
  8
0
  6
CONTINUOUS
 62
               4
100
AcDbLine
 10
59.500001907348633
 20
10.300000000000047
 30
0.0
 11
60.500001907348633
 21
9.3000000000000469
 31
0.0
  0
LINE
  5
AE
100
AcDbEntity
  8
0
  6
CONTINUOUS
 62
               4
100
AcDbLine
 10
60.500001907348633
 20
13.300000000000047
 30
0.0
 11
60.500001907348633
 21
9.3000000000000469
 31
0.0
  0
LINE
  5
AF
100
AcDbEntity
  8
0
  6
CONTINUOUS
 62
               4
100
AcDbLine
 10
84.500001907348633
 20
13.300000000000047
 30
0.0
 11
87.500001907348633
 21
12.60000000000003
 31
0.0
  0
LINE
  5
B0
100
AcDbEntity
  8
0
  6
CONTINUOUS
 62
               4
100
AcDbLine
 10
84.500001907348633
 20
9.3000000000000469
 30
0.0
 11
87.500001897811885
 21
10.000000000000036
 31
0.0
  0
LINE
  5
B1
100
AcDbEntity
  8
0
  6
CONTINUOUS
 62
               4
100
AcDbLine
 10
84.500001907348633
 20
13.300000000000047
 30
0.0
 11
84.500001907348633
 21
9.3000000000000469
 31
0.0
  0
LINE
  5
B2
100
AcDbEntity
  8
0
  6
CONTINUOUS
 62
             200
100
AcDbLine
 10
92.437000984513588
 20
12.60000000000003
 30
0.0
 11
89.83700098451358
 21
10.000000000000036
 31
0.0
  0
LINE
  5
B3
100
AcDbEntity
  8
0
  6
CONTINUOUS
 62
               4
100
AcDbLine
 10
87.500001897811885
 20
10.000000000000036
 30
0.0
 11
89.83700098451358
 21
10.000000000000036
 31
0.0
  0
LINE
  5
B4
100
AcDbEntity
  8
0
  6
CONTINUOUS
 62
               4
100
AcDbLine
 10
87.500001907348633
 20
12.60000000000003
 30
0.0
 11
87.500001907348633
 21
10.000000000000036
 31
0.0
  0
LINE
  5
B5
100
AcDbEntity
  8
0
  6
CONTINUOUS
 62
               4
100
AcDbLine
 10
87.500001897811885
 20
12.60000000000003
 30
0.0
 11
92.437000984513588
 21
12.60000000000003
 31
0.0
  0
ARC
  5
B6
100
AcDbEntity
  8
0
  6
CONTINUOUS
 62
               4
100
AcDbCircle
 10
73.498336250982902
 20
19.498334343634298
 30
0.0
 40
1.0016670412635778
100
AcDbArc
 50
0.0952762943444108
 51
89.904723705655996
  0
ARC
  5
B7
100
AcDbEntity
  8
0
  6
CONTINUOUS
 62
               4
100
AcDbCircle
 10
70.500793394132188
 20
19.499208513216473
 30
0.0
 40
1.0007917997614517
100
AcDbArc
 50
90.04531297816014
 51
179.95468702183987
  0
LINE
  5
B8
100
AcDbEntity
  8
0
  6
CONTINUOUS
 62
             200
100
AcDbLine
 10
70.770001907348629
 20
19.000000000000028
 30
0.0
 11
70.770001907348629
 21
18.000000000000028
 31
0.0
  0
LINE
  5
B9
100
AcDbEntity
  8
0
  6
CONTINUOUS
 62
             200
100
AcDbLine
 10
73.230001907348637
 20
19.000000000000028
 30
0.0
 11
73.230001907348637
 21
18.000000000000028
 31
0.0
  0
LINE
  5
BA
100
AcDbEntity
  8
0
  6
CONTINUOUS
 62
               4
100
AcDbLine
 10
70.500001907348633
 20
19.000000000000028
 30
0.0
 11
70.500001907348633
 21
18.000000000000028
 31
0.0
  0
LINE
  5
BB
100
AcDbEntity
  8
0
  6
CONTINUOUS
 62
               4
100
AcDbLine
 10
73.500001907348633
 20
19.000000000000028
 30
0.0
 11
73.500001907348633
 21
18.000000000000028
 31
0.0
  0
LINE
  5
BC
100
AcDbEntity
  8
0
  6
CONTINUOUS
 62
               4
100
AcDbLine
 10
70.500001907348633
 20
20.500000000000028
 30
0.0
 11
73.500001907348633
 21
20.500000000000028
 31
0.0
  0
LINE
  5
BD
100
AcDbEntity
  8
0
  6
CONTINUOUS
 62
               4
100
AcDbLine
 10
69.500001907348633
 20
19.000000000000028
 30
0.0
 11
74.500001907348633
 21
19.000000000000028
 31
0.0
  0
LINE
  5
BE
100
AcDbEntity
  8
0
  6
CONTINUOUS
 62
               4
100
AcDbLine
 10
67.500001907348633
 20
18.000000000000028
 30
0.0
 11
76.500001907348633
 21
18.000000000000028
 31
0.0
  0
LINE
  5
BF
100
AcDbEntity
  8
0
  6
CONTINUOUS
 62
               4
100
AcDbLine
 10
74.500001907348633
 20
19.500000000000028
 30
0.0
 11
74.500001907348633
 21
19.000000000000028
 31
0.0
  0
LINE
  5
C0
100
AcDbEntity
  8
0
  6
CONTINUOUS
 62
               4
100
AcDbLine
 10
69.500001907348633
 20
19.500000000000028
 30
0.0
 11
69.500001907348633
 21
19.000000000000028
 31
0.0
  0
LINE
  5
C1
100
AcDbEntity
  8
0
  6
CONTINUOUS
 62
               4
100
AcDbLine
 10
65.000001929037779
 20
8.0318821884705756
 30
0.0
 11
67.500001929037779
 21
8.0318821884705756
 31
0.0
  0
LINE
  5
C2
100
AcDbEntity
  8
0
  6
CONTINUOUS
 62
               4
100
AcDbLine
 10
79.000001885659486
 20
8.0318821884705756
 30
0.0
 11
76.500001885659486
 21
8.0318821884705756
 31
0.0
  0
LINE
  5
C3
100
AcDbEntity
  8
0
  6
CONTINUOUS
 62
               4
100
AcDbLine
 10
67.500001897811885
 20
-8.6499846468275265
 30
0.0
 11
76.500001907348633
 21
-8.6499846468275265
 31
0.0
  0
LINE
  5
C4
100
AcDbEntity
  8
0
  6
CONTINUOUS
 62
               7
100
AcDbLine
 10
79.000001907348633
 20
8.5000000000000355
 30
0.0
 11
109.50000190734863
 21
8.5000000000000355
 31
0.0
  0
LINE
  5
C5
100
AcDbEntity
  8
0
  6
CONTINUOUS
 62
               7
100
AcDbLine
 10
109.50000190734863
 20
8.5000000000000355
 30
0.0
 11
109.50000190734863
 21
-8.5000019073485973
 31
0.0
  0
LINE
  5
C6
100
AcDbEntity
  8
0
  6
CONTINUOUS
 62
               7
100
AcDbLine
 10
107.75000190734863
 20
4.2426414489746449
 30
0.0
 11
107.75000190734863
 21
8.5000019073486683
 31
0.0
  0
LINE
  5
C7
100
AcDbEntity
  8
0
  6
CONTINUOUS
 62
               7
100
AcDbLine
 10
107.75000190734863
 20
-4.2426414489745738
 30
0.0
 11
107.75000190734863
 21
-8.5000019073485973
 31
0.0
  0
LINE
  5
C8
100
AcDbEntity
  8
0
  6
CONTINUOUS
 62
               7
100
AcDbLine
 10
84.250001907348633
 20
4.2426414489746449
 30
0.0
 11
84.250001907348633
 21
8.5000019073486683
 31
0.0
  0
LINE
  5
C9
100
AcDbEntity
  8
0
  6
CONTINUOUS
 62
               7
100
AcDbLine
 10
84.250001907348633
 20
-4.2426414489745738
 30
0.0
 11
84.250001907348633
 21
-8.5000019073485973
 31
0.0
  0
LINE
  5
CA
100
AcDbEntity
  8
0
  6
CENTER
 62
               2
100
AcDbLine
 10
101.5
 20
3.4818986972377726
 30
0.0
 11
101.5
 21
-3.642910626421525
 31
0.0
  0
LINE
  5
CB
100
AcDbEntity
  8
0
  6
DASHED
 62
               2
100
AcDbLine
 10
91.5
 20
8.5000000000000355
 30
0.0
 11
91.5
 21
-8.5000019073485973
 31
0.0
  0
LINE
  5
CC
100
AcDbEntity
  8
0
  6
CENTER
 62
               2
100
AcDbLine
 10
87.0
 20
9.3112919519464583
 30
0.0
 11
87.0
 21
2.9654237004869159
 31
0.0
  0
LINE
  5
CD
100
AcDbEntity
  8
0
  6
DASHED
 62
               2
100
AcDbLine
 10
89.5
 20
8.5000000000000355
 30
0.0
 11
89.5
 21
3.5845327981902848
 31
0.0
  0
LINE
  5
CE
100
AcDbEntity
  8
0
  6
DASHED
 62
               2
100
AcDbLine
 10
84.5
 20
8.5000000000000355
 30
0.0
 11
84.5
 21
3.5845327981902848
 31
0.0
  0
LINE
  5
CF
100
AcDbEntity
  8
0
  6
DASHED
 62
               2
100
AcDbLine
 10
89.066999999999993
 20
8.5000000000000355
 30
0.0
 11
89.066999999999993
 21
3.5845327981902848
 31
0.0
  0
LINE
  5
D0
100
AcDbEntity
  8
0
  6
DASHED
 62
               2
100
AcDbLine
 10
84.933000000000007
 20
8.5000000000000355
 30
0.0
 11
84.933000000000007
 21
3.5845327981902848
 31
0.0
  0
LINE
  5
D1
100
AcDbEntity
  8
0
  6
CONTINUOUS
 62
               7
100
AcDbLine
 10
1.7500000195162784
 20
4.2426406871193194
 30
0.0
 11
19.750000019516278
 21
4.2426406871193194
 31
0.0
  0
LINE
  5
D2
100
AcDbEntity
  8
0
  6
CONTINUOUS
 62
               7
100
AcDbLine
 10
1.7500000195162784
 20
-4.2426406871192484
 30
0.0
 11
19.75
 21
-4.2426406871192484
 31
0.0
  0
ARC
  5
D3
100
AcDbEntity
  8
0
  6
CONTINUOUS
 62
               7
100
AcDbCircle
 10
6.0178570952612418
 20
0.0
 30
0.0
 40
6.0178570952612391
100
AcDbArc
 50
135.16976544205062
 51
224.83023455794893
  0
ARC
  5
D4
100
AcDbEntity
  8
0
  6
CONTINUOUS
 62
               7
100
AcDbCircle
 10
15.482141010126437
 20
0.0000000000000462
 30
0.0
 40
6.0178589898735622
100
AcDbArc
 50
315.16977314612518
 51
44.830226853874649
  0
LINE
  5
D5
100
AcDbEntity
  8
0
  6
CONTINUOUS
 62
               7
100
AcDbLine
 10
84.250001926864911
 20
4.2426406871193194
 30
0.0
 11
107.75000192686491
 21
4.2426406871193194
 31
0.0
  0
LINE
  5
D6
100
AcDbEntity
  8
0
  6
CONTINUOUS
 62
               7
100
AcDbLine
 10
84.250001926864911
 20
-4.2426406871192484
 30
0.0
 11
107.75000190734863
 21
-4.2426406871192484
 31
0.0
  0
ARC
  5
D7
100
AcDbEntity
  8
0
  6
CONTINUOUS
 62
               7
100
AcDbCircle
 10
103.4821429174751
 20
0.0000000000000355
 30
0.0
 40
6.0178589898735355
100
AcDbArc
 50
315.16977314612512
 51
44.830226853874905
  0
ARC
  5
D8
100
AcDbEntity
  8
0
  6
CONTINUOUS
 62
               7
100
AcDbCircle
 10
88.517859002609953
 20
0.0000000000000355
 30
0.0
 40
6.0178570952613191
100
AcDbArc
 50
135.16976544205136
 51
224.83023455794864
  0
LINE
  5
DA
100
AcDbEntity
  8
0
  6
PHANTOM
 62
               3
100
AcDbLine
 10
58.515194123819526
 20
22.200967079163533
 30
0.0
 11
58.515194123819526
 21
-12.937082896117495
 31
0.0
  0
ENDBLK
  5
DB
100
AcDbEntity
  8
0
100
AcDbBlockEnd
  0
BLOCK
  5
DC
100
AcDbEntity
  8
0
100
AcDbBlockBegin
  2
CS-PBDAS167-2
 70
               0
 10
0.0
 20
0.0
 30
0.0
  3
CS-PBDAS167-2
  1

  0
CIRCLE
  5
DD
100
AcDbEntity
  8
0
  6
CONTINUOUS
 62
               2
100
AcDbCircle
 10
0.0
 20
0.0
 30
0.0
 40
2.0670000000000002
  0
CIRCLE
  5
DE
100
AcDbEntity
  8
0
  6
CONTINUOUS
 62
               2
100
AcDbCircle
 10
0.0
 20
0.0
 30
0.0
 40
5.4584999999999999
  0
LINE
  5
DF
100
AcDbEntity
  8
0
  6
CENTER
 62
               2
100
AcDbLine
 10
-11.041843364247683
 20
0.0
 30
0.0
 11
11.235329665308299
 21
0.0
 31
0.0
  0
LINE
  5
E0
100
AcDbEntity
  8
0
  6
CENTER
 62
               2
100
AcDbLine
 10
0.0
 20
23.510736119109154
 30
0.0
 11
0.0
 21
-11.622038737779512
 31
0.0
  0
ARC
  5
E1
100
AcDbEntity
  8
0
  6
CONTINUOUS
 62
               7
100
AcDbCircle
 10
0.0
 20
0.0
 30
0.0
 40
9.5
100
AcDbArc
 50
116.52535201660972
 51
153.4746479833903
  0
LINE
  5
E2
100
AcDbEntity
  8
0
  6
CONTINUOUS
 62
               7
100
AcDbLine
 10
-4.242640687119291
 20
8.5
 30
0.0
 11
4.242640687119291
 21
8.5
 31
0.0
  0
ARC
  5
E3
100
AcDbEntity
  8
0
  6
CONTINUOUS
 62
               7
100
AcDbCircle
 10
0.0
 20
0.0
 30
0.0
 40
9.5
100
AcDbArc
 50
26.525352016609691
 51
63.474647983390305
  0
LINE
  5
E4
100
AcDbEntity
  8
0
  6
CONTINUOUS
 62
               7
100
AcDbLine
 10
-4.242640687119291
 20
-8.5
 30
0.0
 11
4.242640687119291
 21
-8.5
 31
0.0
  0
ARC
  5
E5
100
AcDbEntity
  8
0
  6
CONTINUOUS
 62
               7
100
AcDbCircle
 10
0.0
 20
0.0
 30
0.0
 40
9.5
100
AcDbArc
 50
206.5253520166097
 51
243.4746479833903
  0
ARC
  5
E6
100
AcDbEntity
  8
0
  6
CONTINUOUS
 62
               7
100
AcDbCircle
 10
0.0
 20
0.0
 30
0.0
 40
9.5
100
AcDbArc
 50
296.5253520166097
 51
333.4746479833903
  0
LINE
  5
E7
100
AcDbEntity
  8
0
  6
CONTINUOUS
 62
               4
100
AcDbLine
 10
4.0
 20
2.3094010767585047
 30
0.0
 11
4.0
 21
-2.3094010767585047
 31
0.0
  0
LINE
  5
E8
100
AcDbEntity
  8
0
  6
CONTINUOUS
 62
               4
100
AcDbLine
 10
0.0
 20
4.6188021535170094
 30
0.0
 11
4.0
 21
2.3094010767585047
 31
0.0
  0
LINE
  5
E9
100
AcDbEntity
  8
0
  6
CONTINUOUS
 62
               4
100
AcDbLine
 10
-4.0
 20
2.3094010767585047
 30
0.0
 11
0.0
 21
4.6188021535170094
 31
0.0
  0
LINE
  5
EA
100
AcDbEntity
  8
0
  6
CONTINUOUS
 62
               4
100
AcDbLine
 10
-4.0
 20
-2.3094010767585011
 30
0.0
 11
-4.0
 21
2.3094010767585047
 31
0.0
  0
LINE
  5
EB
100
AcDbEntity
  8
0
  6
CONTINUOUS
 62
               4
100
AcDbLine
 10
0.0
 20
-4.6188021535170058
 30
0.0
 11
-4.0
 21
-2.3094010767585011
 31
0.0
  0
LINE
  5
EC
100
AcDbEntity
  8
0
  6
CONTINUOUS
 62
               4
100
AcDbLine
 10
4.0
 20
-2.3094010767585047
 30
0.0
 11
0.0
 21
-4.6188021535170058
 31
0.0
  0
CIRCLE
  5
ED
100
AcDbEntity
  8
0
  6
CONTINUOUS
 62
               7
100
AcDbCircle
 10
0.0
 20
0.0
 30
0.0
 40
2.5
  0
CIRCLE
  5
EE
100
AcDbEntity
  8
0
  6
CONTINUOUS
 62
               4
100
AcDbCircle
 10
0.0
 20
0.0
 30
0.0
 40
4.0000000000000018
  0
CIRCLE
  5
EF
100
AcDbEntity
  8
0
  6
CONTINUOUS
 62
               7
100
AcDbCircle
 10
0.0
 20
0.0
 30
0.0
 40
6.0
  0
LINE
  5
F0
100
AcDbEntity
  8
0
  6
CONTINUOUS
 62
               4
100
AcDbLine
 10
1.0499999999999829
 20
10.300000000000011
 30
0.0
 11
-1.0500000000000114
 21
10.300000000000011
 31
0.0
  0
LINE
  5
F1
100
AcDbEntity
  8
0
  6
CONTINUOUS
 62
               4
100
AcDbLine
 10
1.0499999999999829
 20
12.300000000000011
 30
0.0
 11
-1.0500000000000114
 21
12.300000000000011
 31
0.0
  0
LINE
  5
F2
100
AcDbEntity
  8
0
  6
CONTINUOUS
 62
               4
100
AcDbLine
 10
1.0
 20
8.9999999999999716
 30
0.0
 11
-1.0
 21
8.9999999999999716
 31
0.0
  0
LINE
  5
F3
100
AcDbEntity
  8
0
  6
CONTINUOUS
 62
               4
100
AcDbLine
 10
-4.9250000000000114
 20
14.404504064074942
 30
0.0
 11
-7.3817314866615931
 21
6.8746484032105073
 31
0.0
  0
LINE
  5
F4
100
AcDbEntity
  8
0
  6
CONTINUOUS
 62
               4
100
AcDbLine
 10
-5.5231084386376068
 20
10.475709800948763
 30
0.0
 11
-6.7640536253404946
 21
6.6722261114818053
 31
0.0
  0
LINE
  5
F5
100
AcDbEntity
  8
0
  6
CONTINUOUS
 62
               4
100
AcDbLine
 10
-4.4250000000000114
 20
14.325000000000017
 30
0.0
 11
-7.0040602242843022
 21
6.4202080701636532
 31
0.0
  0
LINE
  5
F6
100
AcDbEntity
  8
0
  6
CONTINUOUS
 62
               4
100
AcDbLine
 10
3.5
 20
18.0
 30
0.0
 11
-3.5
 21
18.0
 31
0.0
  0
LINE
  5
F7
100
AcDbEntity
  8
0
  6
CONTINUOUS
 62
               4
100
AcDbLine
 10
2.1449999999999818
 20
16.400000000000034
 30
0.0
 11
-2.1450000000000102
 21
16.400000000000034
 31
0.0
  0
LINE
  5
F8
100
AcDbEntity
  8
0
  6
CONTINUOUS
 62
               4
100
AcDbLine
 10
3.0
 20
17.200000000000017
 30
0.0
 11
-3.0
 21
17.200000000000017
 31
0.0
  0
LINE
  5
F9
100
AcDbEntity
  8
0
  6
CONTINUOUS
 62
               4
100
AcDbLine
 10
3.25
 20
15.0
 30
0.0
 11
-3.25
 21
15.0
 31
0.0
  0
LINE
  5
FA
100
AcDbEntity
  8
0
  6
CONTINUOUS
 62
               4
100
AcDbLine
 10
3.25
 20
14.300000000000011
 30
0.0
 11
-3.25
 21
14.300000000000011
 31
0.0
  0
LINE
  5
FB
100
AcDbEntity
  8
0
  6
CONTINUOUS
 62
               4
100
AcDbLine
 10
2.5
 20
19.0
 30
0.0
 11
-2.5
 21
19.0
 31
0.0
  0
LINE
  5
FC
100
AcDbEntity
  8
0
  6
CONTINUOUS
 62
               4
100
AcDbLine
 10
1.5
 20
20.5
 30
0.0
 11
-1.5
 21
20.5
 31
0.0
  0
LINE
  5
FD
100
AcDbEntity
  8
0
  6
CONTINUOUS
 62
               4
100
AcDbLine
 10
1.5
 20
18.5
 30
0.0
 11
-1.5
 21
18.5
 31
0.0
  0
LINE
  5
FE
100
AcDbEntity
  8
0
  6
CONTINUOUS
 62
               4
100
AcDbLine
 10
-3.25
 20
15.0
 30
0.0
 11
-3.25
 21
8.5
 31
0.0
  0
LINE
  5
FF
100
AcDbEntity
  8
0
  6
CONTINUOUS
 62
               4
100
AcDbLine
 10
2.0499999999999829
 20
9.3000000000000114
 30
0.0
 11
-2.0500000000000114
 21
9.3000000000000114
 31
0.0
  0
LINE
  5
100
100
AcDbEntity
  8
0
  6
CONTINUOUS
 62
               4
100
AcDbLine
 10
2.0499999999999829
 20
13.300000000000011
 30
0.0
 11
-2.0500000000000114
 21
13.300000000000011
 31
0.0
  0
LINE
  5
101
100
AcDbEntity
  8
0
  6
CONTINUOUS
 62
               4
100
AcDbLine
 10
1.0
 20
13.600000000000023
 30
0.0
 11
-1.0
 21
13.600000000000023
 31
0.0
  0
LINE
  5
102
100
AcDbEntity
  8
0
  6
CONTINUOUS
 62
               4
100
AcDbLine
 10
-5.212038715273934
 20
13.524733479936074
 30
0.0
 11
-5.5500000000000114
 21
13.720000000000027
 31
0.0
  0
LINE
  5
103
100
AcDbEntity
  8
0
  6
CONTINUOUS
 62
             200
100
AcDbLine
 10
-1.230000000000004
 20
16.400000000000034
 30
0.0
 11
-1.230000000000004
 21
15.029999999999987
 31
0.0
  0
LINE
  5
104
100
AcDbEntity
  8
0
  6
CONTINUOUS
 62
               4
100
AcDbLine
 10
-1.5
 20
16.400000000000034
 30
0.0
 11
-1.5
 21
15.300000000000011
 31
0.0
  0
LINE
  5
105
100
AcDbEntity
  8
0
  6
CONTINUOUS
 62
               4
100
AcDbLine
 10
-1.0
 20
9.3000000000000114
 30
0.0
 11
-1.0
 21
9.0
 31
0.0
  0
LINE
  5
106
100
AcDbEntity
  8
0
  6
CONTINUOUS
 62
               4
100
AcDbLine
 10
-1.0
 20
13.600000000000023
 30
0.0
 11
-1.0
 21
13.300000000000011
 31
0.0
  0
LINE
  5
107
100
AcDbEntity
  8
0
  6
CONTINUOUS
 62
               4
100
AcDbLine
 10
-2.0500000000000114
 20
13.300000000000011
 30
0.0
 11
-2.0500000000000114
 21
9.3000000000000114
 31
0.0
  0
ARC
  5
108
100
AcDbEntity
  8
0
  6
CONTINUOUS
 62
               4
100
AcDbCircle
 10
-1.5014123218217037
 20
19.501412321821704
 30
0.0
 40
0.9985886769148223
100
AcDbArc
 50
89.91896552750427
 51
180.08103447249553
  0
ARC
  5
109
100
AcDbEntity
  8
0
  6
CONTINUOUS
 62
               4
100
AcDbCircle
 10
-4.5011481992923734
 20
14.617355698085873
 30
0.0
 40
0.4988573627628728
100
AcDbArc
 50
180.27056242892002
 51
209.44536829881622
  0
ARC
  5
10A
100
AcDbEntity
  8
0
  6
CONTINUOUS
 62
               4
100
AcDbCircle
 10
-5.2997963361607958
 20
14.153134289562786
 30
0.0
 40
0.5002071432852633
100
AcDbArc
 50
179.78629337237084
 51
239.98676050847715
  0
ARC
  5
10B
100
AcDbEntity
  8
0
  6
CONTINUOUS
 62
               4
100
AcDbCircle
 10
-3.0016625976539331
 20
16.701662597653922
 30
0.0
 40
0.4983401757915919
100
AcDbArc
 50
89.808845423377733
 51
180.19115457662187
  0
ARC
  5
10C
100
AcDbEntity
  8
0
  6
CONTINUOUS
 62
               4
100
AcDbCircle
 10
-3.5016625976548141
 20
17.201662597654803
 30
0.0
 40
0.7983391335856297
100
AcDbArc
 50
89.88067740450245
 51
180.11932259549781
  0
LINE
  5
10D
100
AcDbEntity
  8
0
  6
CONTINUOUS
 62
               4
100
AcDbLine
 10
-2.5
 20
19.5
 30
0.0
 11
-2.5
 21
19.0
 31
0.0
  0
LINE
  5
10E
100
AcDbEntity
  8
0
  6
CONTINUOUS
 62
               4
100
AcDbLine
 10
-3.5
 20
10.800000000000011
 30
0.0
 11
-4.3000000000000114
 21
10.800000000000011
 31
0.0
  0
LINE
  5
10F
100
AcDbEntity
  8
0
  6
CONTINUOUS
 62
               4
100
AcDbLine
 10
-1.5
 20
19.0
 30
0.0
 11
-1.5
 21
18.0
 31
0.0
  0
LINE
  5
110
100
AcDbEntity
  8
0
  6
CONTINUOUS
 62
               4
100
AcDbLine
 10
-4.4250000000000114
 20
16.825000000000017
 30
0.0
 11
-4.9250000000000114
 21
16.825000000000017
 31
0.0
  0
LINE
  5
111
100
AcDbEntity
  8
0
  6
CONTINUOUS
 62
               4
100
AcDbLine
 10
-4.9250000000000114
 20
16.825000000000017
 30
0.0
 11
-4.9250000000000114
 21
14.404504064074942
 31
0.0
  0
LINE
  5
112
100
AcDbEntity
  8
0
  6
CONTINUOUS
 62
               4
100
AcDbLine
 10
-4.4250000000000114
 20
16.825000000000017
 30
0.0
 11
-4.4250000000000114
 21
14.325000000000017
 31
0.0
  0
LINE
  5
113
100
AcDbEntity
  8
0
  6
CONTINUOUS
 62
               4
100
AcDbLine
 10
-4.3000000000000114
 20
13.924000000000014
 30
0.0
 11
-4.5141047693510643
 21
14.048180766223624
 31
0.0
  0
LINE
  5
114
100
AcDbEntity
  8
0
  6
CONTINUOUS
 62
               4
100
AcDbLine
 10
-5.8000000000000114
 20
16.300000000000011
 30
0.0
 11
-5.8000000000000114
 21
14.15500000000003
 31
0.0
  0
LINE
  5
115
100
AcDbEntity
  8
0
  6
CONTINUOUS
 62
               4
100
AcDbLine
 10
-4.3000000000000114
 20
10.800000000000011
 30
0.0
 11
-4.3000000000000114
 21
17.200000000000017
 31
0.0
  0
LINE
  5
116
100
AcDbEntity
  8
0
  6
CONTINUOUS
 62
             200
100
AcDbLine
 10
-1.230000000000004
 20
18.5
 30
0.0
 11
-1.230000000000004
 21
18.0
 31
0.0
  0
LINE
  5
117
100
AcDbEntity
  8
0
  6
CONTINUOUS
 62
               4
100
AcDbLine
 10
-2.285000000000025
 20
17.200000000000017
 30
0.0
 11
-2.1450000000000102
 21
16.400000000000034
 31
0.0
  0
LINE
  5
118
100
AcDbEntity
  8
0
  6
CONTINUOUS
 62
               4
100
AcDbLine
 10
-5.0
 20
16.300000000000011
 30
0.0
 11
-5.8000000000000114
 21
16.300000000000011
 31
0.0
  0
LINE
  5
119
100
AcDbEntity
  8
0
  6
CONTINUOUS
 62
               4
100
AcDbLine
 10
-5.0
 20
16.300000000000011
 30
0.0
 11
-5.0
 21
14.615000000000009
 31
0.0
  0
LINE
  5
11A
100
AcDbEntity
  8
0
  6
CONTINUOUS
 62
               4
100
AcDbLine
 10
-4.3000000000000114
 20
12.997777777777799
 30
0.0
 11
-4.7695183239662668
 21
13.269055031624973
 31
0.0
  0
LINE
  5
11B
100
AcDbEntity
  8
0
  6
CONTINUOUS
 62
               4
100
AcDbLine
 10
-3.5
 20
16.700000000000017
 30
0.0
 11
-3.5
 21
10.800000000000011
 31
0.0
  0
LINE
  5
11C
100
AcDbEntity
  8
0
  6
CONTINUOUS
 62
               4
100
AcDbLine
 10
-5.6656957880092165
 20
10.522280714854688
 30
0.0
 11
-5.5230938148162636
 21
10.475754622804345
 31
0.0
  0
LINE
  5
11D
100
AcDbEntity
  8
0
  6
CONTINUOUS
 62
               4
100
AcDbLine
 10
-1.5
 20
15.299999999999983
 30
0.0
 11
-1.2000000000000171
 21
15.0
 31
0.0
  0
LINE
  5
11E
100
AcDbEntity
  8
0
  6
CONTINUOUS
 62
               4
100
AcDbLine
 10
-1.0500000000000114
 20
12.300000000000011
 30
0.0
 11
-1.0500000000000114
 21
10.300000000000011
 31
0.0
  0
LINE
  5
11F
100
AcDbEntity
  8
0
  6
CONTINUOUS
 62
               4
100
AcDbLine
 10
-2.0500000000000114
 20
13.300000000000011
 30
0.0
 11
-1.0500000000000114
 21
12.300000000000011
 31
0.0
  0
LINE
  5
120
100
AcDbEntity
  8
0
  6
CONTINUOUS
 62
               4
100
AcDbLine
 10
-1.0500000000000114
 20
10.300000000000011
 30
0.0
 11
-2.0500000000000114
 21
9.3000000000000114
 31
0.0
  0
LINE
  5
121
100
AcDbEntity
  8
0
  6
CONTINUOUS
 62
               4
100
AcDbLine
 10
3.5
 20
11.5
 30
0.0
 11
5.6450137297198779
 21
7.6450193469538803
 31
0.0
  0
LINE
  5
122
100
AcDbEntity
  8
0
  6
CONTINUOUS
 62
               4
100
AcDbLine
 10
3.3499999999999943
 20
11.5
 30
0.0
 11
5.3787370421660796
 21
7.8346466760344669
 31
0.0
  0
LINE
  5
123
100
AcDbEntity
  8
0
  6
CONTINUOUS
 62
               4
100
AcDbLine
 10
3.25
 20
11.100000000000023
 30
0.0
 11
3.25
 21
8.5
 31
0.0
  0
LINE
  5
124
100
AcDbEntity
  8
0
  6
CONTINUOUS
 62
             200
100
AcDbLine
 10
1.230000000000004
 20
16.400000000000034
 30
0.0
 11
1.230000000000004
 21
15.030000000000015
 31
0.0
  0
LINE
  5
125
100
AcDbEntity
  8
0
  6
CONTINUOUS
 62
               4
100
AcDbLine
 10
1.5
 20
16.400000000000034
 30
0.0
 11
1.5
 21
15.300000000000011
 31
0.0
  0
LINE
  5
126
100
AcDbEntity
  8
0
  6
CONTINUOUS
 62
               4
100
AcDbLine
 10
2.0499999999999829
 20
13.300000000000011
 30
0.0
 11
2.0499999999999829
 21
9.3000000000000114
 31
0.0
  0
LINE
  5
127
100
AcDbEntity
  8
0
  6
CONTINUOUS
 62
               4
100
AcDbLine
 10
1.0
 20
9.3000000000000114
 30
0.0
 11
1.0
 21
9.0
 31
0.0
  0
LINE
  5
128
100
AcDbEntity
  8
0
  6
CONTINUOUS
 62
               4
100
AcDbLine
 10
1.0
 20
13.600000000000023
 30
0.0
 11
1.0
 21
13.300000000000011
 31
0.0
  0
LINE
  5
129
100
AcDbEntity
  8
0
  6
CONTINUOUS
 62
               4
100
AcDbLine
 10
3.25
 20
15.0
 30
0.0
 11
3.25
 21
11.5
 31
0.0
  0
LINE
  5
12A
100
AcDbEntity
  8
0
  6
CONTINUOUS
 62
               4
100
AcDbLine
 10
3.25
 20
11.5
 30
0.0
 11
2.0499999999999829
 21
11.5
 31
0.0
  0
LINE
  5
12B
100
AcDbEntity
  8
0
  6
CONTINUOUS
 62
               4
100
AcDbLine
 10
3.25
 20
11.100000000000023
 30
0.0
 11
2.0499999999999829
 21
11.100000000000023
 31
0.0
  0
ARC
  5
12C
100
AcDbEntity
  8
0
  6
CONTINUOUS
 62
               4
100
AcDbCircle
 10
1.499747232608371
 20
19.499747232608399
 30
0.0
 40
1.0002527993292285
100
AcDbArc
 50
0.0144788446506029
 51
89.985521155349616
  0
ARC
  5
12D
100
AcDbEntity
  8
0
  6
CONTINUOUS
 62
               4
100
AcDbCircle
 10
2.9999957098748382
 20
16.699995709874855
 30
0.0
 40
0.5000042901435589
100
AcDbArc
 50
0.0004916079117645
 51
89.999508392088231
  0
ARC
  5
12E
100
AcDbEntity
  8
0
  6
CONTINUOUS
 62
               4
100
AcDbCircle
 10
3.4999967464729878
 20
17.199996746473033
 30
0.0
 40
0.8000032535336057
100
AcDbArc
 50
0.000233015758496
 51
89.999766984241262
  0
LINE
  5
12F
100
AcDbEntity
  8
0
  6
CONTINUOUS
 62
               4
100
AcDbLine
 10
2.5
 20
19.5
 30
0.0
 11
2.5
 21
19.0
 31
0.0
  0
LINE
  5
130
100
AcDbEntity
  8
0
  6
CONTINUOUS
 62
               4
100
AcDbLine
 10
4.2999999999999829
 20
11.5
 30
0.0
 11
3.5
 21
11.5
 31
0.0
  0
LINE
  5
131
100
AcDbEntity
  8
0
  6
CONTINUOUS
 62
               4
100
AcDbLine
 10
1.5
 20
19.0
 30
0.0
 11
1.5
 21
18.0
 31
0.0
  0
LINE
  5
132
100
AcDbEntity
  8
0
  6
CONTINUOUS
 62
               4
100
AcDbLine
 10
3.5
 20
16.700000000000017
 30
0.0
 11
3.3499999999999943
 21
16.700000000000017
 31
0.0
  0
LINE
  5
133
100
AcDbEntity
  8
0
  6
CONTINUOUS
 62
               4
100
AcDbLine
 10
3.3499999999999943
 20
16.700000000000017
 30
0.0
 11
3.3499999999999943
 21
11.5
 31
0.0
  0
LINE
  5
134
100
AcDbEntity
  8
0
  6
CONTINUOUS
 62
               4
100
AcDbLine
 10
4.2999999999999829
 20
17.200000000000017
 30
0.0
 11
4.2999999999999829
 21
11.5
 31
0.0
  0
LINE
  5
135
100
AcDbEntity
  8
0
  6
CONTINUOUS
 62
             200
100
AcDbLine
 10
1.230000000000004
 20
18.5
 30
0.0
 11
1.230000000000004
 21
18.0
 31
0.0
  0
LINE
  5
136
100
AcDbEntity
  8
0
  6
CONTINUOUS
 62
               4
100
AcDbLine
 10
2.2849999999999966
 20
17.200000000000017
 30
0.0
 11
2.1449999999999818
 21
16.400000000000034
 31
0.0
  0
LINE
  5
137
100
AcDbEntity
  8
0
  6
CONTINUOUS
 62
               4
100
AcDbLine
 10
3.5
 20
16.700000000000017
 30
0.0
 11
3.5
 21
11.5
 31
0.0
  0
LINE
  5
138
100
AcDbEntity
  8
0
  6
CONTINUOUS
 62
               4
100
AcDbLine
 10
1.5
 20
15.299999999999983
 30
0.0
 11
1.1999999999999886
 21
15.0
 31
0.0
  0
LINE
  5
139
100
AcDbEntity
  8
0
  6
CONTINUOUS
 62
               4
100
AcDbLine
 10
1.0499999999999829
 20
12.300000000000011
 30
0.0
 11
1.0499999999999829
 21
10.300000000000011
 31
0.0
  0
LINE
  5
13A
100
AcDbEntity
  8
0
  6
CONTINUOUS
 62
               4
100
AcDbLine
 10
2.0499999999999829
 20
13.300000000000011
 30
0.0
 11
1.0499999999999829
 21
12.300000000000011
 31
0.0
  0
LINE
  5
13B
100
AcDbEntity
  8
0
  6
CONTINUOUS
 62
               4
100
AcDbLine
 10
1.0499999999999829
 20
10.300000000000011
 30
0.0
 11
2.0499999999999829
 21
9.3000000000000114
 31
0.0
  0
LINE
  5
13C
100
AcDbEntity
  8
0
  6
CONTINUOUS
 62
               4
100
AcDbLine
 10
-6.9063915760184216
 20
6.7195614297093584
 30
0.0
 11
-7.3817314866615931
 21
6.8746484032105073
 31
0.0
  0
LINE
  5
13D
100
AcDbEntity
  8
0
  6
CONTINUOUS
 62
               7
100
AcDbLine
 10
-8.5
 20
-4.242640687119291
 30
0.0
 11
-8.5
 21
4.242640687119291
 31
0.0
  0
LINE
  5
13E
100
AcDbEntity
  8
0
  6
CONTINUOUS
 62
               7
100
AcDbLine
 10
8.5
 20
-4.242640687119291
 30
0.0
 11
8.5
 21
4.242640687119291
 31
0.0
  0
CIRCLE
  5
13F
100
AcDbEntity
  8
0
  6
CONTINUOUS
 62
               7
100
AcDbCircle
 10
0.0
 20
0.0
 30
0.0
 40
8.5
  0
ENDBLK
  5
140
100
AcDbEntity
  8
0
100
AcDbBlockEnd
  0
BLOCK
  5
141
100
AcDbEntity
  8
0
100
AcDbBlockBegin
  2
CS-PBDAS167-3
 70
               0
 10
0.0
 20
0.0
 30
0.0
  3
CS-PBDAS167-3
  1

  0
LINE
  5
142
100
AcDbEntity
  8
0
  6
DASHED
 62
               2
100
AcDbLine
 10
3.2499999999999947
 20
-2.5
 30
0.0
 11
8.5000000000000142
 21
-2.5
 31
0.0
  0
LINE
  5
143
100
AcDbEntity
  8
0
  6
DASHED
 62
               2
100
AcDbLine
 10
3.2499999999999947
 20
2.5
 30
0.0
 11
8.5000000000000142
 21
2.5
 31
0.0
  0
LINE
  5
144
100
AcDbEntity
  8
0
  6
DASHED
 62
               2
100
AcDbLine
 10
-8.5
 20
-2.5
 30
0.0
 11
-3.2499999999999947
 21
-2.5
 31
0.0
  0
LINE
  5
145
100
AcDbEntity
  8
0
  6
CENTER
 62
               2
100
AcDbLine
 10
0.0
 20
23.382582819593296
 30
0.0
 11
0.0
 21
-11.120007279501188
 31
0.0
  0
ARC
  5
146
100
AcDbEntity
  8
0
  6
CONTINUOUS
 62
               7
100
AcDbCircle
 10
0.0
 20
0.0
 30
0.0
 40
8.5
100
AcDbArc
 50
292.47950560940393
 51
67.52049439059607
  0
LINE
  5
147
100
AcDbEntity
  8
0
  6
CONTINUOUS
 62
               7
100
AcDbLine
 10
-4.2426406871192768
 20
8.5
 30
0.0
 11
4.2426406871193052
 21
8.5
 31
0.0
  0
ARC
  5
148
100
AcDbEntity
  8
0
  6
CONTINUOUS
 62
               7
100
AcDbCircle
 10
0.0000000000000142
 20
0.0
 30
0.0
 40
9.5
100
AcDbArc
 50
26.525352016609691
 51
63.474647983390305
  0
ARC
  5
149
100
AcDbEntity
  8
0
  6
CONTINUOUS
 62
               7
100
AcDbCircle
 10
0.0000000000000142
 20
0.0
 30
0.0
 40
9.5
100
AcDbArc
 50
296.5253520166097
 51
333.4746479833903
  0
ARC
  5
14A
100
AcDbEntity
  8
0
  6
CONTINUOUS
 62
               7
100
AcDbCircle
 10
0.0000000000000142
 20
0.0
 30
0.0
 40
9.5
100
AcDbArc
 50
206.5253520166097
 51
243.4746479833903
  0
LINE
  5
14B
100
AcDbEntity
  8
0
  6
CONTINUOUS
 62
               7
100
AcDbLine
 10
-4.2426406871192768
 20
-8.5
 30
0.0
 11
4.2426406871193052
 21
-8.5
 31
0.0
  0
LINE
  5
14C
100
AcDbEntity
  8
0
  6
CONTINUOUS
 62
               7
100
AcDbLine
 10
8.5000000000000142
 20
-4.2426406871192839
 30
0.0
 11
8.5000000000000142
 21
4.2426406871192839
 31
0.0
  0
LINE
  5
14D
100
AcDbEntity
  8
0
  6
CENTER
 62
               2
100
AcDbLine
 10
-11.298682511364106
 20
0.0
 30
0.0
 11
11.49331699722282
 21
0.0
 31
0.0
  0
LINE
  5
14E
100
AcDbEntity
  8
0
  6
CONTINUOUS
 62
               4
100
AcDbLine
 10
-0.9999998145767393
 20
8.9999999999999716
 30
0.0
 11
1.0000001854232607
 21
8.9999999999999716
 31
0.0
  0
LINE
  5
14F
100
AcDbEntity
  8
0
  6
CONTINUOUS
 62
               4
100
AcDbLine
 10
-1.2999998145767506
 20
9.9999999999999716
 30
0.0
 11
1.3000001854232721
 21
9.9999999999999716
 31
0.0
  0
LINE
  5
150
100
AcDbEntity
  8
0
  6
CONTINUOUS
 62
               4
100
AcDbLine
 10
-3.4999998145767393
 20
11.5
 30
0.0
 11
-5.6488780236984297
 21
7.6380741730737896
 31
0.0
  0
LINE
  5
151
100
AcDbEntity
  8
0
  6
CONTINUOUS
 62
               4
100
AcDbLine
 10
-3.3499998145767336
 20
11.5
 30
0.0
 11
-5.382300614746697
 21
7.8282079745301303
 31
0.0
  0
CIRCLE
  5
152
100
AcDbEntity
  8
0
  6
CONTINUOUS
 62
               4
100
AcDbCircle
 10
0.0000001854232607
 20
11.300000000000011
 30
0.0
 40
1.3000000000000114
  0
LINE
  5
153
100
AcDbEntity
  8
0
  6
CONTINUOUS
 62
               4
100
AcDbLine
 10
-3.4999998145767393
 20
18.0
 30
0.0
 11
3.5000001854232607
 21
18.0
 31
0.0
  0
LINE
  5
154
100
AcDbEntity
  8
0
  6
CONTINUOUS
 62
               4
100
AcDbLine
 10
-2.1449998145767211
 20
16.400000000000034
 30
0.0
 11
2.145000185423271
 21
16.400000000000034
 31
0.0
  0
LINE
  5
155
100
AcDbEntity
  8
0
  6
CONTINUOUS
 62
               4
100
AcDbLine
 10
-2.9999998145767393
 20
17.200000000000017
 30
0.0
 11
3.0000001854232607
 21
17.200000000000017
 31
0.0
  0
LINE
  5
156
100
AcDbEntity
  8
0
  6
CONTINUOUS
 62
               4
100
AcDbLine
 10
-3.2499998145767393
 20
15.0
 30
0.0
 11
3.2500001854232607
 21
15.0
 31
0.0
  0
LINE
  5
157
100
AcDbEntity
  8
0
  6
CONTINUOUS
 62
               4
100
AcDbLine
 10
-3.2499998145767393
 20
14.300000000000011
 30
0.0
 11
3.2500001854232607
 21
14.300000000000011
 31
0.0
  0
LINE
  5
158
100
AcDbEntity
  8
0
  6
CONTINUOUS
 62
               4
100
AcDbLine
 10
-2.4999998145767393
 20
19.0
 30
0.0
 11
2.5000001854232607
 21
19.0
 31
0.0
  0
LINE
  5
159
100
AcDbEntity
  8
0
  6
CONTINUOUS
 62
               4
100
AcDbLine
 10
-1.4999998145767393
 20
20.5
 30
0.0
 11
1.5000001854232607
 21
20.5
 31
0.0
  0
LINE
  5
15A
100
AcDbEntity
  8
0
  6
CONTINUOUS
 62
               4
100
AcDbLine
 10
-1.4999998145767393
 20
18.5
 30
0.0
 11
1.5000001854232607
 21
18.5
 31
0.0
  0
LINE
  5
15B
100
AcDbEntity
  8
0
  6
CONTINUOUS
 62
               4
100
AcDbLine
 10
-3.2499998145767393
 20
11.100000000000023
 30
0.0
 11
-3.2499998145767393
 21
8.5
 31
0.0
  0
LINE
  5
15C
100
AcDbEntity
  8
0
  6
CONTINUOUS
 62
               4
100
AcDbLine
 10
-2.0499998145767222
 20
9.3000000000000114
 30
0.0
 11
2.0500001854232721
 21
9.3000000000000114
 31
0.0
  0
LINE
  5
15D
100
AcDbEntity
  8
0
  6
CONTINUOUS
 62
               4
100
AcDbLine
 10
-2.0499998145767222
 20
13.300000000000011
 30
0.0
 11
2.0500001854232721
 21
13.300000000000011
 31
0.0
  0
LINE
  5
15E
100
AcDbEntity
  8
0
  6
CONTINUOUS
 62
               4
100
AcDbLine
 10
-0.9999998145767393
 20
13.600000000000023
 30
0.0
 11
1.0000001854232607
 21
13.600000000000023
 31
0.0
  0
LINE
  5
15F
100
AcDbEntity
  8
0
  6
CONTINUOUS
 62
               4
100
AcDbLine
 10
-1.2999998145767222
 20
12.600000000000023
 30
0.0
 11
1.3000001854232721
 21
12.600000000000023
 31
0.0
  0
LINE
  5
160
100
AcDbEntity
  8
0
  6
CONTINUOUS
 62
             200
100
AcDbLine
 10
-1.2299998145767432
 20
16.400000000000034
 30
0.0
 11
-1.2299998145767432
 21
15.030000000000015
 31
0.0
  0
LINE
  5
161
100
AcDbEntity
  8
0
  6
CONTINUOUS
 62
               4
100
AcDbLine
 10
-1.4999998145767393
 20
16.400000000000034
 30
0.0
 11
-1.4999998145767393
 21
15.300000000000011
 31
0.0
  0
LINE
  5
162
100
AcDbEntity
  8
0
  6
CONTINUOUS
 62
               4
100
AcDbLine
 10
-2.0499998145767222
 20
13.300000000000011
 30
0.0
 11
-1.2999998145767222
 21
12.600000000000023
 31
0.0
  0
LINE
  5
163
100
AcDbEntity
  8
0
  6
CONTINUOUS
 62
               4
100
AcDbLine
 10
-1.2999998145767222
 20
12.600000000000023
 30
0.0
 11
-1.2999998145767222
 21
10.0
 31
0.0
  0
LINE
  5
164
100
AcDbEntity
  8
0
  6
CONTINUOUS
 62
               4
100
AcDbLine
 10
-2.0499998145767222
 20
13.300000000000011
 30
0.0
 11
-2.0499998145767222
 21
9.3000000000000114
 31
0.0
  0
LINE
  5
165
100
AcDbEntity
  8
0
  6
CONTINUOUS
 62
               4
100
AcDbLine
 10
-0.9999998145767393
 20
9.3000000000000114
 30
0.0
 11
-0.9999998145767393
 21
9.0
 31
0.0
  0
LINE
  5
166
100
AcDbEntity
  8
0
  6
CONTINUOUS
 62
               4
100
AcDbLine
 10
-0.9999998145767393
 20
13.600000000000023
 30
0.0
 11
-0.9999998145767393
 21
13.300000000000011
 31
0.0
  0
LINE
  5
167
100
AcDbEntity
  8
0
  6
CONTINUOUS
 62
               4
100
AcDbLine
 10
-3.2499998145767393
 20
15.0
 30
0.0
 11
-3.2499998145767393
 21
11.5
 31
0.0
  0
LINE
  5
168
100
AcDbEntity
  8
0
  6
CONTINUOUS
 62
               4
100
AcDbLine
 10
-3.2499998145767393
 20
11.5
 30
0.0
 11
-2.0499998145767222
 21
11.5
 31
0.0
  0
LINE
  5
169
100
AcDbEntity
  8
0
  6
CONTINUOUS
 62
               4
100
AcDbLine
 10
-3.2499998145767393
 20
11.100000000000023
 30
0.0
 11
-2.0499998145767222
 21
11.100000000000023
 31
0.0
  0
ARC
  5
16A
100
AcDbEntity
  8
0
  6
CONTINUOUS
 62
               4
100
AcDbCircle
 10
-1.4997470471851102
 20
19.499747232608399
 30
0.0
 40
1.0002527993292285
100
AcDbArc
 50
90.014478844650384
 51
179.9855211553494
  0
ARC
  5
16B
100
AcDbEntity
  8
0
  6
CONTINUOUS
 62
               4
100
AcDbCircle
 10
-2.9999955244515775
 20
16.699995709874855
 30
0.0
 40
0.5000042901435589
100
AcDbArc
 50
90.000491607911769
 51
179.99950839208825
  0
ARC
  5
16C
100
AcDbEntity
  8
0
  6
CONTINUOUS
 62
               4
100
AcDbCircle
 10
-3.499996561049727
 20
17.199996746473033
 30
0.0
 40
0.8000032535336057
100
AcDbArc
 50
90.000233015758738
 51
179.99976698424152
  0
LINE
  5
16D
100
AcDbEntity
  8
0
  6
CONTINUOUS
 62
               4
100
AcDbLine
 10
-2.4999998145767393
 20
19.5
 30
0.0
 11
-2.4999998145767393
 21
19.0
 31
0.0
  0
LINE
  5
16E
100
AcDbEntity
  8
0
  6
CONTINUOUS
 62
               4
100
AcDbLine
 10
-4.2999998145767222
 20
11.5
 30
0.0
 11
-3.4999998145767393
 21
11.5
 31
0.0
  0
LINE
  5
16F
100
AcDbEntity
  8
0
  6
CONTINUOUS
 62
               4
100
AcDbLine
 10
-1.4999998145767393
 20
19.0
 30
0.0
 11
-1.4999998145767393
 21
18.0
 31
0.0
  0
LINE
  5
170
100
AcDbEntity
  8
0
  6
CONTINUOUS
 62
               4
100
AcDbLine
 10
-3.4999998145767393
 20
16.700000000000017
 30
0.0
 11
-3.3499998145767336
 21
16.700000000000017
 31
0.0
  0
LINE
  5
171
100
AcDbEntity
  8
0
  6
CONTINUOUS
 62
               4
100
AcDbLine
 10
-3.3499998145767336
 20
16.700000000000017
 30
0.0
 11
-3.3499998145767336
 21
11.5
 31
0.0
  0
LINE
  5
172
100
AcDbEntity
  8
0
  6
CONTINUOUS
 62
               4
100
AcDbLine
 10
-4.2999998145767222
 20
17.200000000000017
 30
0.0
 11
-4.2999998145767222
 21
11.5
 31
0.0
  0
LINE
  5
173
100
AcDbEntity
  8
0
  6
CONTINUOUS
 62
             200
100
AcDbLine
 10
-1.2299998145767432
 20
18.5
 30
0.0
 11
-1.2299998145767432
 21
18.0
 31
0.0
  0
LINE
  5
174
100
AcDbEntity
  8
0
  6
CONTINUOUS
 62
               4
100
AcDbLine
 10
-2.2849998145767358
 20
17.200000000000017
 30
0.0
 11
-2.1449998145767211
 21
16.400000000000034
 31
0.0
  0
LINE
  5
175
100
AcDbEntity
  8
0
  6
CONTINUOUS
 62
               4
100
AcDbLine
 10
-3.4999998145767393
 20
16.700000000000017
 30
0.0
 11
-3.4999998145767393
 21
11.5
 31
0.0
  0
LINE
  5
176
100
AcDbEntity
  8
0
  6
CONTINUOUS
 62
               4
100
AcDbLine
 10
-1.2999998145767506
 20
9.9999999999999716
 30
0.0
 11
-2.0499998145767506
 21
9.2999999999999829
 31
0.0
  0
LINE
  5
177
100
AcDbEntity
  8
0
  6
CONTINUOUS
 62
               4
100
AcDbLine
 10
-1.4999998145767393
 20
15.299999999999983
 30
0.0
 11
-1.1999998145767279
 21
15.0
 31
0.0
  0
LINE
  5
178
100
AcDbEntity
  8
0
  6
CONTINUOUS
 62
               4
100
AcDbLine
 10
4.9250001854232721
 20
14.404504064074942
 30
0.0
 11
7.3817316720848538
 21
6.8746484032105073
 31
0.0
  0
LINE
  5
179
100
AcDbEntity
  8
0
  6
CONTINUOUS
 62
               4
100
AcDbLine
 10
5.5231086240608676
 20
10.475709800948763
 30
0.0
 11
6.764822150425033
 21
6.6698711586595891
 31
0.0
  0
LINE
  5
17A
100
AcDbEntity
  8
0
  6
CONTINUOUS
 62
               4
100
AcDbLine
 10
4.4250001854232721
 20
14.325000000000017
 30
0.0
 11
7.0050839685199691
 21
6.4170708733802115
 31
0.0
  0
LINE
  5
17B
100
AcDbEntity
  8
0
  6
CONTINUOUS
 62
               4
100
AcDbLine
 10
3.2500001854232607
 20
15.0
 30
0.0
 11
3.2500001854232607
 21
8.5
 31
0.0
  0
LINE
  5
17C
100
AcDbEntity
  8
0
  6
CONTINUOUS
 62
               4
100
AcDbLine
 10
5.2120389006971806
 20
13.524733479936074
 30
0.0
 11
5.5500001854232579
 21
13.720000000000027
 31
0.0
  0
LINE
  5
17D
100
AcDbEntity
  8
0
  6
CONTINUOUS
 62
             200
100
AcDbLine
 10
1.2300001854232647
 20
16.400000000000034
 30
0.0
 11
1.2300001854232647
 21
15.029999999999987
 31
0.0
  0
LINE
  5
17E
100
AcDbEntity
  8
0
  6
CONTINUOUS
 62
               4
100
AcDbLine
 10
1.5000001854232607
 20
16.400000000000034
 30
0.0
 11
1.5000001854232607
 21
15.300000000000011
 31
0.0
  0
LINE
  5
17F
100
AcDbEntity
  8
0
  6
CONTINUOUS
 62
               4
100
AcDbLine
 10
1.3000001854232721
 20
10.0
 30
0.0
 11
2.0500001854232721
 21
9.3000000000000114
 31
0.0
  0
LINE
  5
180
100
AcDbEntity
  8
0
  6
CONTINUOUS
 62
               4
100
AcDbLine
 10
1.3000001854232721
 20
12.600000000000023
 30
0.0
 11
2.0500001854232721
 21
13.300000000000011
 31
0.0
  0
LINE
  5
181
100
AcDbEntity
  8
0
  6
CONTINUOUS
 62
               4
100
AcDbLine
 10
1.3000001854232721
 20
12.600000000000023
 30
0.0
 11
1.3000001854232721
 21
10.0
 31
0.0
  0
LINE
  5
182
100
AcDbEntity
  8
0
  6
CONTINUOUS
 62
               4
100
AcDbLine
 10
1.0000001854232607
 20
9.3000000000000114
 30
0.0
 11
1.0000001854232607
 21
9.0
 31
0.0
  0
LINE
  5
183
100
AcDbEntity
  8
0
  6
CONTINUOUS
 62
               4
100
AcDbLine
 10
1.0000001854232607
 20
13.600000000000023
 30
0.0
 11
1.0000001854232607
 21
13.300000000000011
 31
0.0
  0
LINE
  5
184
100
AcDbEntity
  8
0
  6
CONTINUOUS
 62
               4
100
AcDbLine
 10
2.0500001854232721
 20
13.300000000000011
 30
0.0
 11
2.0500001854232721
 21
9.3000000000000114
 31
0.0
  0
ARC
  5
185
100
AcDbEntity
  8
0
  6
CONTINUOUS
 62
               4
100
AcDbCircle
 10
1.5014125072449644
 20
19.501412321821704
 30
0.0
 40
0.9985886769148223
100
AcDbArc
 50
359.91896552750444
 51
90.08103447249573
  0
ARC
  5
186
100
AcDbEntity
  8
0
  6
CONTINUOUS
 62
               4
100
AcDbCircle
 10
4.5011483847156342
 20
14.617355698085873
 30
0.0
 40
0.4988573627628728
100
AcDbArc
 50
330.55463170118378
 51
359.72943757107998
  0
ARC
  5
187
100
AcDbEntity
  8
0
  6
CONTINUOUS
 62
               4
100
AcDbCircle
 10
5.2997965215840424
 20
14.153134289562786
 30
0.0
 40
0.5002071432852633
100
AcDbArc
 50
300.01323949152282
 51
0.2137066276291702
  0
ARC
  5
188
100
AcDbEntity
  8
0
  6
CONTINUOUS
 62
               4
100
AcDbCircle
 10
3.0016627830771938
 20
16.701662597653922
 30
0.0
 40
0.4983401757915919
100
AcDbArc
 50
359.80884542337816
 51
90.191154576622267
  0
ARC
  5
189
100
AcDbEntity
  8
0
  6
CONTINUOUS
 62
               4
100
AcDbCircle
 10
3.5016627830780749
 20
17.201662597654803
 30
0.0
 40
0.7983391335856297
100
AcDbArc
 50
359.88067740450219
 51
90.11932259549755
  0
LINE
  5
18A
100
AcDbEntity
  8
0
  6
CONTINUOUS
 62
               4
100
AcDbLine
 10
2.5000001854232607
 20
19.5
 30
0.0
 11
2.5000001854232607
 21
19.0
 31
0.0
  0
LINE
  5
18B
100
AcDbEntity
  8
0
  6
CONTINUOUS
 62
               4
100
AcDbLine
 10
3.5000001854232607
 20
10.800000000000011
 30
0.0
 11
4.3000001854232721
 21
10.800000000000011
 31
0.0
  0
LINE
  5
18C
100
AcDbEntity
  8
0
  6
CONTINUOUS
 62
               4
100
AcDbLine
 10
1.5000001854232607
 20
19.0
 30
0.0
 11
1.5000001854232607
 21
18.0
 31
0.0
  0
LINE
  5
18D
100
AcDbEntity
  8
0
  6
CONTINUOUS
 62
               4
100
AcDbLine
 10
4.4250001854232721
 20
16.825000000000017
 30
0.0
 11
4.9250001854232721
 21
16.825000000000017
 31
0.0
  0
LINE
  5
18E
100
AcDbEntity
  8
0
  6
CONTINUOUS
 62
               4
100
AcDbLine
 10
4.9250001854232721
 20
16.825000000000017
 30
0.0
 11
4.9250001854232721
 21
14.404504064074942
 31
0.0
  0
LINE
  5
18F
100
AcDbEntity
  8
0
  6
CONTINUOUS
 62
               4
100
AcDbLine
 10
4.4250001854232721
 20
16.825000000000017
 30
0.0
 11
4.4250001854232721
 21
14.325000000000017
 31
0.0
  0
LINE
  5
190
100
AcDbEntity
  8
0
  6
CONTINUOUS
 62
               4
100
AcDbLine
 10
4.3000001854232721
 20
13.924000000000014
 30
0.0
 11
4.5141049547743251
 21
14.048180766223624
 31
0.0
  0
LINE
  5
191
100
AcDbEntity
  8
0
  6
CONTINUOUS
 62
               4
100
AcDbLine
 10
5.8000001854232579
 20
16.300000000000011
 30
0.0
 11
5.8000001854232579
 21
14.15500000000003
 31
0.0
  0
LINE
  5
192
100
AcDbEntity
  8
0
  6
CONTINUOUS
 62
               4
100
AcDbLine
 10
4.3000001854232721
 20
10.800000000000011
 30
0.0
 11
4.3000001854232721
 21
17.200000000000017
 31
0.0
  0
LINE
  5
193
100
AcDbEntity
  8
0
  6
CONTINUOUS
 62
             200
100
AcDbLine
 10
1.2300001854232647
 20
18.5
 30
0.0
 11
1.2300001854232647
 21
18.0
 31
0.0
  0
LINE
  5
194
100
AcDbEntity
  8
0
  6
CONTINUOUS
 62
               4
100
AcDbLine
 10
2.2850001854232858
 20
17.200000000000017
 30
0.0
 11
2.145000185423271
 21
16.400000000000034
 31
0.0
  0
LINE
  5
195
100
AcDbEntity
  8
0
  6
CONTINUOUS
 62
               4
100
AcDbLine
 10
5.0000001854232607
 20
16.300000000000011
 30
0.0
 11
5.8000001854232579
 21
16.300000000000011
 31
0.0
  0
LINE
  5
196
100
AcDbEntity
  8
0
  6
CONTINUOUS
 62
               4
100
AcDbLine
 10
5.0000001854232607
 20
16.300000000000011
 30
0.0
 11
5.0000001854232607
 21
14.615000000000009
 31
0.0
  0
LINE
  5
197
100
AcDbEntity
  8
0
  6
CONTINUOUS
 62
               4
100
AcDbLine
 10
4.3000001854232721
 20
12.997777777777799
 30
0.0
 11
4.7695185093895276
 21
13.269055031624973
 31
0.0
  0
LINE
  5
198
100
AcDbEntity
  8
0
  6
CONTINUOUS
 62
               4
100
AcDbLine
 10
3.5000001854232607
 20
16.700000000000017
 30
0.0
 11
3.5000001854232607
 21
10.800000000000011
 31
0.0
  0
LINE
  5
199
100
AcDbEntity
  8
0
  6
CONTINUOUS
 62
               4
100
AcDbLine
 10
5.6656959734324772
 20
10.522280714854688
 30
0.0
 11
5.5230940002395101
 21
10.475754622804345
 31
0.0
  0
LINE
  5
19A
100
AcDbEntity
  8
0
  6
CONTINUOUS
 62
               4
100
AcDbLine
 10
1.5000001854232607
 20
15.299999999999983
 30
0.0
 11
1.2000001854232778
 21
15.0
 31
0.0
  0
ARC
  5
19B
100
AcDbEntity
  8
0
  6
CONTINUOUS
 62
               4
100
AcDbCircle
 10
0.0000001854232607
 20
0.0
 30
0.0
 40
8.6500000000000004
100
AcDbArc
 50
169.3142616756808
 51
190.6857383243192
  0
LINE
  5
19C
100
AcDbEntity
  8
0
  6
CONTINUOUS
 62
               4
100
AcDbLine
 10
6.9392112807772008
 20
6.6189699548994128
 30
0.0
 11
7.3817316720848538
 21
6.8746484032105073
 31
0.0
  0
ARC
  5
19D
100
AcDbEntity
  8
0
  6
CONTINUOUS
 62
               7
100
AcDbCircle
 10
0.0000000000000142
 20
0.0
 30
0.0
 40
9.5
100
AcDbArc
 50
116.52535201660972
 51
153.4746479833903
  0
LINE
  5
19E
100
AcDbEntity
  8
0
  6
CONTINUOUS
 62
               7
100
AcDbLine
 10
-8.4999999999999858
 20
-4.2426406871192839
 30
0.0
 11
-8.4999999999999858
 21
4.2426406871192839
 31
0.0
  0
ARC
  5
19F
100
AcDbEntity
  8
0
  6
CONTINUOUS
 62
               4
100
AcDbCircle
 10
0.0000001854232607
 20
0.0
 30
0.0
 40
8.6500000000000004
100
AcDbArc
 50
349.31424842802249
 51
10.685751571977484
  0
ARC
  5
1A0
100
AcDbEntity
  8
0
  6
CONTINUOUS
 62
               4
100
AcDbCircle
 10
0.0000001854232607
 20
0.0
 30
0.0
 40
8.6500000000000004
100
AcDbArc
 50
259.31425505184961
 51
280.68574494815039
  0
LINE
  5
1A1
100
AcDbEntity
  8
0
  6
CONTINUOUS
 62
               7
100
AcDbLine
 10
3.2499999999999942
 20
8.5
 30
0.0
 11
3.2499999999999942
 21
-8.5
 31
0.0
  0
LINE
  5
1A2
100
AcDbEntity
  8
0
  6
CONTINUOUS
 62
               7
100
AcDbLine
 10
-3.2499999999999942
 20
8.5
 30
0.0
 11
-3.2499999999999942
 21
-8.5
 31
0.0
  0
ARC
  5
1A3
100
AcDbEntity
  8
0
  6
CONTINUOUS
 62
               7
100
AcDbCircle
 10
0.0
 20
0.0
 30
0.0
 40
8.5
100
AcDbArc
 50
112.47950560940396
 51
247.52049439059601
  0
LINE
  5
1A4
100
AcDbEntity
  8
0
  6
DASHED
 62
               2
100
AcDbLine
 10
-8.5
 20
2.5
 30
0.0
 11
-3.2499999999999947
 21
2.5
 31
0.0
  0
ENDBLK
  5
1A5
100
AcDbEntity
  8
0
100
AcDbBlockEnd
  0
BLOCK
  5
1A6
100
AcDbEntity
  8
0
100
AcDbBlockBegin
  2
CS-PBDAS167-4
 70
               0
 10
0.0
 20
0.0
 30
0.0
  3
CS-PBDAS167-4
  1

  0
LINE
  5
1A7
100
AcDbEntity
  8
0
  6
CONTINUOUS
 62
               4
100
AcDbLine
 10
15.499999990463266
 20
1.2999999999999687
 30
0.0
 11
15.499999990463266
 21
-1.3000000000000256
 31
0.0
  0
LINE
  5
1A8
100
AcDbEntity
  8
0
  6
CENTER
 62
             200
100
AcDbLine
 10
-14.634076711158585
 20
-0.0000000000000142
 30
0.0
 11
21.671576029108593
 21
-0.0000000000000142
 31
0.0
  0
LINE
  5
1A9
100
AcDbEntity
  8
0
  6
CENTER
 62
             200
100
AcDbLine
 10
0.0
 20
7.2999999999999972
 30
0.0
 11
0.0
 21
-7.4200000000000017
 31
0.0
  0
LINE
  5
1AA
100
AcDbEntity
  8
0
  6
CONTINUOUS
 62
               4
100
AcDbLine
 10
2.0
 20
5.8644789379659841
 30
0.0
 11
2.0
 21
4.847194948261162
 31
0.0
  0
LINE
  5
1AB
100
AcDbEntity
  8
0
  6
CONTINUOUS
 62
               4
100
AcDbLine
 10
4.5
 20
-5.6499999999999915
 30
0.0
 11
4.5
 21
5.8644789379659841
 31
0.0
  0
LINE
  5
1AC
100
AcDbEntity
  8
0
  6
CONTINUOUS
 62
               4
100
AcDbLine
 10
-4.5
 20
-5.6499999999999915
 30
0.0
 11
-4.5
 21
5.8644789379659841
 31
0.0
  0
LINE
  5
1AD
100
AcDbEntity
  8
0
  6
CONTINUOUS
 62
               4
100
AcDbLine
 10
-4.4999999783108535
 20
4.847194948261162
 30
0.0
 11
4.5000000216891465
 21
4.847194948261162
 31
0.0
  0
LINE
  5
1AE
100
AcDbEntity
  8
0
  6
CONTINUOUS
 62
             200
100
AcDbLine
 10
20.436999077164955
 20
1.2999999999999687
 30
0.0
 11
17.836999077164961
 21
-1.3000000000000256
 31
0.0
  0
LINE
  5
1AF
100
AcDbEntity
  8
0
  6
CONTINUOUS
 62
               4
100
AcDbLine
 10
12.5
 20
-2.0000000000000142
 30
0.0
 11
15.499999990463266
 21
-1.3000000000000256
 31
0.0
  0
LINE
  5
1B0
100
AcDbEntity
  8
0
  6
CONTINUOUS
 62
               4
100
AcDbLine
 10
15.499999990463266
 20
-1.3000000000000256
 30
0.0
 11
17.836999077164961
 21
-1.3000000000000256
 31
0.0
  0
LINE
  5
1B1
100
AcDbEntity
  8
0
  6
CONTINUOUS
 62
               4
100
AcDbLine
 10
15.499999990463266
 20
1.2999999999999687
 30
0.0
 11
20.436999077164955
 21
1.2999999999999687
 31
0.0
  0
LINE
  5
1B2
100
AcDbEntity
  8
0
  6
CONTINUOUS
 62
               4
100
AcDbLine
 10
12.5
 20
1.9999999999999858
 30
0.0
 11
15.5
 21
1.2999999999999687
 31
0.0
  0
LINE
  5
1B3
100
AcDbEntity
  8
0
  6
CONTINUOUS
 62
               4
100
AcDbLine
 10
-4.5000000095367341
 20
4.3000366885747923
 30
0.0
 11
4.5
 21
4.3000366885747923
 31
0.0
  0
LINE
  5
1B4
100
AcDbEntity
  8
0
  6
CONTINUOUS
 62
               4
100
AcDbLine
 10
-4.5000000095367341
 20
-4.3000000000000256
 30
0.0
 11
4.5
 21
-4.3000000000000256
 31
0.0
  0
LINE
  5
1B5
100
AcDbEntity
  8
0
  6
CONTINUOUS
 62
               4
100
AcDbLine
 10
-6.9999999999999929
 20
-3.2500000000000142
 30
0.0
 11
-6.9999999999999929
 21
3.2499999999999858
 31
0.0
  0
LINE
  5
1B6
100
AcDbEntity
  8
0
  6
CONTINUOUS
 62
               4
100
AcDbLine
 10
-4.5
 20
-5.6499999999999915
 30
0.0
 11
4.5
 21
-5.6499999999999915
 31
0.0
  0
LINE
  5
1B7
100
AcDbEntity
  8
0
  6
CONTINUOUS
 62
               4
100
AcDbLine
 10
-1.0625665859564126
 20
-1.062566585956418
 30
0.0
 11
1.0574334140435919
 21
1.0574334140435582
 31
0.0
  0
LINE
  5
1B8
100
AcDbEntity
  8
0
  6
CONTINUOUS
 62
               4
100
AcDbLine
 10
1.0074334140435948
 20
-1.0025665859564157
 30
0.0
 11
-1.0625665859564126
 21
1.0574334140435582
 31
0.0
  0
LINE
  5
1B9
100
AcDbEntity
  8
0
  6
CONTINUOUS
 62
               4
100
AcDbLine
 10
12.5
 20
1.9999999999999858
 30
0.0
 11
12.5
 21
-2.0000000000000142
 31
0.0
  0
LINE
  5
1BA
100
AcDbEntity
  8
0
  6
CONTINUOUS
 62
               4
100
AcDbLine
 10
-12.499999999999993
 20
0.9999999999999858
 30
0.0
 11
-12.499999999999993
 21
-1.0000000000000142
 31
0.0
  0
LINE
  5
1BB
100
AcDbEntity
  8
0
  6
CONTINUOUS
 62
               4
100
AcDbLine
 10
-11.499999999999993
 20
-2.0000000000000142
 30
0.0
 11
-6.9999999999999929
 21
-2.0000000000000142
 31
0.0
  0
LINE
  5
1BC
100
AcDbEntity
  8
0
  6
CONTINUOUS
 62
               4
100
AcDbLine
 10
-11.499999999999993
 20
1.9999999999999858
 30
0.0
 11
-6.9999999999999929
 21
1.9999999999999858
 31
0.0
  0
LINE
  5
1BD
100
AcDbEntity
  8
0
  6
CONTINUOUS
 62
               4
100
AcDbLine
 10
-11.499999999999993
 20
1.9999999999999858
 30
0.0
 11
-11.499999999999993
 21
-2.0000000000000142
 31
0.0
  0
LINE
  5
1BE
100
AcDbEntity
  8
0
  6
CONTINUOUS
 62
               4
100
AcDbLine
 10
-12.499999999999993
 20
0.9999999999999858
 30
0.0
 11
-11.499999999999993
 21
1.9999999999999858
 31
0.0
  0
LINE
  5
1BF
100
AcDbEntity
  8
0
  6
CONTINUOUS
 62
               4
100
AcDbLine
 10
-12.499999999999993
 20
-1.0000000000000142
 30
0.0
 11
-11.499999999999993
 21
-2.0000000000000142
 31
0.0
  0
LINE
  5
1C0
100
AcDbEntity
  8
0
  6
CONTINUOUS
 62
               4
100
AcDbLine
 10
-6.9999999999999929
 20
-3.2500000000000142
 30
0.0
 11
-4.5
 21
-3.2500000000000142
 31
0.0
  0
LINE
  5
1C1
100
AcDbEntity
  8
0
  6
CONTINUOUS
 62
               4
100
AcDbLine
 10
-6.9999999999999929
 20
3.2499999999999858
 30
0.0
 11
-4.5
 21
3.2499999999999858
 31
0.0
  0
LINE
  5
1C2
100
AcDbEntity
  8
0
  6
CONTINUOUS
 62
               4
100
AcDbLine
 10
7.0
 20
-3.2500000000000142
 30
0.0
 11
7.0
 21
3.2499999999999858
 31
0.0
  0
LINE
  5
1C3
100
AcDbEntity
  8
0
  6
CONTINUOUS
 62
               4
100
AcDbLine
 10
4.5
 20
3.2499999999999858
 30
0.0
 11
7.0
 21
3.2499999999999858
 31
0.0
  0
LINE
  5
1C4
100
AcDbEntity
  8
0
  6
CONTINUOUS
 62
               4
100
AcDbLine
 10
4.5
 20
-3.2500000000000142
 30
0.0
 11
7.0
 21
-3.2500000000000142
 31
0.0
  0
LINE
  5
1C5
100
AcDbEntity
  8
0
  6
CONTINUOUS
 62
               4
100
AcDbLine
 10
7.0
 20
1.9999999999999858
 30
0.0
 11
12.5
 21
1.9999999999999858
 31
0.0
  0
LINE
  5
1C6
100
AcDbEntity
  8
0
  6
CONTINUOUS
 62
               4
100
AcDbLine
 10
7.0
 20
-2.0000000000000142
 30
0.0
 11
12.5
 21
-2.0000000000000142
 31
0.0
  0
CIRCLE
  5
1C7
100
AcDbEntity
  8
0
  6
CONTINUOUS
 62
               4
100
AcDbCircle
 10
-0.0008752441406159
 20
-0.0024584960937517
 30
0.0
 40
2.5
  0
LINE
  5
1C8
100
AcDbEntity
  8
0
  6
CONTINUOUS
 62
               4
100
AcDbLine
 10
-2.0000000095367341
 20
5.0999999999999801
 30
0.0
 11
1.9999999904632659
 21
5.0999999999999801
 31
0.0
  0
LINE
  5
1C9
100
AcDbEntity
  8
0
  6
CONTINUOUS
 62
               4
100
AcDbLine
 10
-4.4999999783108535
 20
5.8644789379659841
 30
0.0
 11
4.5000000216891465
 21
5.8644789379659841
 31
0.0
  0
LINE
  5
1CA
100
AcDbEntity
  8
0
  6
CONTINUOUS
 62
               4
100
AcDbLine
 10
-2.0
 20
4.847194948261162
 30
0.0
 11
-2.0
 21
5.8644789379659841
 31
0.0
  0
ENDBLK
  5
1CB
100
AcDbEntity
  8
0
100
AcDbBlockEnd
  0
BLOCK
  5
1CC
100
AcDbEntity
  8
0
100
AcDbBlockBegin
  2
CS-PBDAS167-5
 70
               0
 10
0.0
 20
0.0
 30
0.0
  3
CS-PBDAS167-5
  1

  0
LINE
  5
1CD
100
AcDbEntity
  8
0
  6
CONTINUOUS
 62
               4
100
AcDbLine
 10
-3.1999999999999886
 20
7.0
 30
0.0
 11
3.1999999999999886
 21
7.0
 31
0.0
  0
ARC
  5
1CE
100
AcDbEntity
  8
0
  6
CONTINUOUS
 62
               4
100
AcDbCircle
 10
-7.0
 20
-28.0
 30
0.0
 40
3.0
100
AcDbArc
 50
90.0
 51
180.0
  0
ARC
  5
1CF
100
AcDbEntity
  8
0
  6
CONTINUOUS
 62
               4
100
AcDbCircle
 10
7.0
 20
-28.0
 30
0.0
 40
3.0
100
AcDbArc
 50
0.0
 51
90.0
  0
ARC
  5
1D0
100
AcDbEntity
  8
0
  6
CONTINUOUS
 62
               4
100
AcDbCircle
 10
-11.0
 20
-32.0
 30
0.0
 40
3.0
100
AcDbArc
 50
270.0
 51
0.0
  0
ARC
  5
1D1
100
AcDbEntity
  8
0
  6
CONTINUOUS
 62
               4
100
AcDbCircle
 10
11.0
 20
-32.0
 30
0.0
 40
3.0
100
AcDbArc
 50
180.0
 51
270.0
  0
ARC
  5
1D2
100
AcDbEntity
  8
0
  6
CONTINUOUS
 62
               4
100
AcDbCircle
 10
7.0
 20
-28.0
 30
0.0
 40
1.0
100
AcDbArc
 50
0.0
 51
90.0
  0
ARC
  5
1D3
100
AcDbEntity
  8
0
  6
CONTINUOUS
 62
               4
100
AcDbCircle
 10
11.0
 20
-32.0
 30
0.0
 40
1.0
100
AcDbArc
 50
180.0
 51
270.0
  0
ARC
  5
1D4
100
AcDbEntity
  8
0
  6
CONTINUOUS
 62
               4
100
AcDbCircle
 10
-7.0
 20
-28.0
 30
0.0
 40
1.0
100
AcDbArc
 50
90.0
 51
180.0
  0
ARC
  5
1D5
100
AcDbEntity
  8
0
  6
CONTINUOUS
 62
               4
100
AcDbCircle
 10
-11.0
 20
-32.0
 30
0.0
 40
1.0
100
AcDbArc
 50
270.0
 51
0.0
  0
LINE
  5
1D6
100
AcDbEntity
  8
0
  6
CONTINUOUS
 62
               4
100
AcDbLine
 10
11.0
 20
-33.0
 30
0.0
 11
24.0
 21
-33.0
 31
0.0
  0
LINE
  5
1D7
100
AcDbEntity
  8
0
  6
CONTINUOUS
 62
               4
100
AcDbLine
 10
11.0
 20
-35.0
 30
0.0
 11
24.0
 21
-35.0
 31
0.0
  0
LINE
  5
1D8
100
AcDbEntity
  8
0
  6
CONTINUOUS
 62
               4
100
AcDbLine
 10
24.0
 20
-33.0
 30
0.0
 11
24.0
 21
-35.0
 31
0.0
  0
LINE
  5
1D9
100
AcDbEntity
  8
0
  6
CONTINUOUS
 62
               4
100
AcDbLine
 10
-24.0
 20
-33.0
 30
0.0
 11
-24.0
 21
-35.0
 31
0.0
  0
LINE
  5
1DA
100
AcDbEntity
  8
0
  6
CONTINUOUS
 62
               4
100
AcDbLine
 10
10.0
 20
-28.0
 30
0.0
 11
10.0
 21
-32.0
 31
0.0
  0
LINE
  5
1DB
100
AcDbEntity
  8
0
  6
CONTINUOUS
 62
               4
100
AcDbLine
 10
8.0
 20
-28.0
 30
0.0
 11
8.0
 21
-32.0
 31
0.0
  0
LINE
  5
1DC
100
AcDbEntity
  8
0
  6
CONTINUOUS
 62
               4
100
AcDbLine
 10
-8.0
 20
-28.0
 30
0.0
 11
-8.0
 21
-32.0
 31
0.0
  0
LINE
  5
1DD
100
AcDbEntity
  8
0
  6
CONTINUOUS
 62
               4
100
AcDbLine
 10
-10.0
 20
-28.0
 30
0.0
 11
-10.0
 21
-32.0
 31
0.0
  0
LINE
  5
1DE
100
AcDbEntity
  8
0
  6
CONTINUOUS
 62
               4
100
AcDbLine
 10
-24.0
 20
-33.0
 30
0.0
 11
-11.0
 21
-33.0
 31
0.0
  0
LINE
  5
1DF
100
AcDbEntity
  8
0
  6
CONTINUOUS
 62
               4
100
AcDbLine
 10
-24.0
 20
-35.0
 30
0.0
 11
-11.0
 21
-35.0
 31
0.0
  0
LINE
  5
1E0
100
AcDbEntity
  8
0
  6
CONTINUOUS
 62
               4
100
AcDbLine
 10
-7.0
 20
-27.0
 30
0.0
 11
7.0
 21
-27.0
 31
0.0
  0
LINE
  5
1E1
100
AcDbEntity
  8
0
  6
CONTINUOUS
 62
               4
100
AcDbLine
 10
-3.1999999999999886
 20
5.3899999999999864
 30
0.0
 11
3.1999999999999886
 21
5.3899999999999864
 31
0.0
  0
LINE
  5
1E2
100
AcDbEntity
  8
0
  6
CONTINUOUS
 62
               4
100
AcDbLine
 10
-4.0999999999999659
 20
-28.0
 30
0.0
 11
4.0999999999999659
 21
-28.0
 31
0.0
  0
LINE
  5
1E3
100
AcDbEntity
  8
0
  6
CONTINUOUS
 62
               4
100
AcDbLine
 10
4.0999999999999659
 20
-27.0
 30
0.0
 11
4.0999999999999659
 21
-33.0
 31
0.0
  0
LINE
  5
1E4
100
AcDbEntity
  8
0
  6
CONTINUOUS
 62
               4
100
AcDbLine
 10
-4.0999999999999659
 20
-27.0
 30
0.0
 11
-4.0999999999999659
 21
-33.0
 31
0.0
  0
LINE
  5
1E5
100
AcDbEntity
  8
0
  6
CONTINUOUS
 62
               4
100
AcDbLine
 10
-4.0999999999999659
 20
-33.0
 30
0.0
 11
4.0999999999999659
 21
-33.0
 31
0.0
  0
LINE
  5
1E6
100
AcDbEntity
  8
0
  6
CONTINUOUS
 62
               4
100
AcDbLine
 10
-6.0
 20
-14.0
 30
0.0
 11
-6.0
 21
-25.0
 31
0.0
  0
LINE
  5
1E7
100
AcDbEntity
  8
0
  6
CONTINUOUS
 62
               4
100
AcDbLine
 10
-3.1999999999999886
 20
-14.0
 30
0.0
 11
-6.0
 21
-14.0
 31
0.0
  0
LINE
  5
1E8
100
AcDbEntity
  8
0
  6
CONTINUOUS
 62
               4
100
AcDbLine
 10
-7.0
 20
-25.0
 30
0.0
 11
7.0
 21
-25.0
 31
0.0
  0
LINE
  5
1E9
100
AcDbEntity
  8
0
  6
CONTINUOUS
 62
               4
100
AcDbLine
 10
6.0
 20
-14.0
 30
0.0
 11
6.0
 21
-25.0
 31
0.0
  0
LINE
  5
1EA
100
AcDbEntity
  8
0
  6
CENTER
 62
             200
100
AcDbLine
 10
-4.5500000000000114
 20
0.0
 30
0.0
 11
4.5500000000000114
 21
0.0
 31
0.0
  0
LINE
  5
1EB
100
AcDbEntity
  8
0
  6
CONTINUOUS
 62
               4
100
AcDbLine
 10
3.1999999999999886
 20
-14.0
 30
0.0
 11
6.0
 21
-14.0
 31
0.0
  0
LINE
  5
1EC
100
AcDbEntity
  8
0
  6
CONTINUOUS
 62
               4
100
AcDbLine
 10
3.1999999999999886
 20
7.0
 30
0.0
 11
3.1999999999999886
 21
-14.0
 31
0.0
  0
LINE
  5
1ED
100
AcDbEntity
  8
0
  6
CONTINUOUS
 62
               4
100
AcDbLine
 10
-3.1999999999999886
 20
7.0
 30
0.0
 11
-3.1999999999999886
 21
-14.0
 31
0.0
  0
LINE
  5
1EE
100
AcDbEntity
  8
0
  6
CENTER
 62
             200
100
AcDbLine
 10
-17.599999999999966
 20
-30.0
 30
0.0
 11
-17.599999999999966
 21
-38.0
 31
0.0
  0
LINE
  5
1EF
100
AcDbEntity
  8
0
  6
CENTER
 62
             200
100
AcDbLine
 10
17.599999999999966
 20
-30.0
 30
0.0
 11
17.599999999999966
 21
-38.0
 31
0.0
  0
LINE
  5
1F0
100
AcDbEntity
  8
0
  6
CENTER
 62
             200
100
AcDbLine
 10
0.0
 20
8.924159962690922
 30
0.0
 11
0.0
 21
-38.0
 31
0.0
  0
ENDBLK
  5
1F1
100
AcDbEntity
  8
0
100
AcDbBlockEnd
  0
BLOCK
  5
1F2
100
AcDbEntity
  8
0
100
AcDbBlockBegin
  2
CS-PBDAS167-6
 70
               0
 10
0.0
 20
0.0
 30
0.0
  3
CS-PBDAS167-6
  1

  0
LINE
  5
1F3
100
AcDbEntity
  8
0
  6
CONTINUOUS
 62
               4
100
AcDbLine
 10
14.0
 20
-25.0
 30
0.0
 11
14.0
 21
-35.0
 31
0.0
  0
LINE
  5
1F4
100
AcDbEntity
  8
0
  6
CENTER
 62
             200
100
AcDbLine
 10
-9.0
 20
0.0
 30
0.0
 11
9.0
 21
0.0
 31
0.0
  0
LINE
  5
1F5
100
AcDbEntity
  8
0
  6
CONTINUOUS
 62
               4
100
AcDbLine
 10
10.600000000000023
 20
-33.0
 30
0.0
 11
10.600000000000023
 21
-35.0
 31
0.0
  0
ARC
  5
1F6
100
AcDbEntity
  8
0
  6
CONTINUOUS
 62
               4
100
AcDbCircle
 10
0.0
 20
-5.0000019073486328
 30
0.0
 40
11.998005652386912
100
AcDbArc
 50
59.994501226470106
 51
120.00549877352991
  0
CIRCLE
  5
1F7
100
AcDbEntity
  8
0
  6
CONTINUOUS
 62
               4
100
AcDbCircle
 10
0.0
 20
0.0
 30
0.0
 40
2.5499992370605469
  0
LINE
  5
1F8
100
AcDbEntity
  8
0
  6
CONTINUOUS
 62
               4
100
AcDbLine
 10
-10.600000000000023
 20
-33.0
 30
0.0
 11
-10.600000000000023
 21
-35.0
 31
0.0
  0
LINE
  5
1F9
100
AcDbEntity
  8
0
  6
CONTINUOUS
 62
               4
100
AcDbLine
 10
-5.3999999999999773
 20
-33.0
 30
0.0
 11
-5.3999999999999773
 21
-35.0
 31
0.0
  0
LINE
  5
1FA
100
AcDbEntity
  8
0
  6
CONTINUOUS
 62
               4
100
AcDbLine
 10
5.3999999999999773
 20
-33.0
 30
0.0
 11
5.3999999999999773
 21
-35.0
 31
0.0
  0
LINE
  5
1FB
100
AcDbEntity
  8
0
  6
CONTINUOUS
 62
               4
100
AcDbLine
 10
-14.0
 20
-25.0
 30
0.0
 11
-14.0
 21
-35.0
 31
0.0
  0
LINE
  5
1FC
100
AcDbEntity
  8
0
  6
CONTINUOUS
 62
               4
100
AcDbLine
 10
-6.0
 20
5.3899999999999864
 30
0.0
 11
-6.0
 21
-25.0
 31
0.0
  0
LINE
  5
1FD
100
AcDbEntity
  8
0
  6
CONTINUOUS
 62
               4
100
AcDbLine
 10
6.0
 20
5.3899999999999864
 30
0.0
 11
6.0
 21
-25.0
 31
0.0
  0
LINE
  5
1FE
100
AcDbEntity
  8
0
  6
CONTINUOUS
 62
               4
100
AcDbLine
 10
-6.0
 20
-14.0
 30
0.0
 11
6.0
 21
-14.0
 31
0.0
  0
LINE
  5
1FF
100
AcDbEntity
  8
0
  6
CONTINUOUS
 62
               4
100
AcDbLine
 10
-14.0
 20
-33.0
 30
0.0
 11
14.0
 21
-33.0
 31
0.0
  0
LINE
  5
200
100
AcDbEntity
  8
0
  6
CONTINUOUS
 62
               4
100
AcDbLine
 10
-14.0
 20
-35.0
 30
0.0
 11
14.0
 21
-35.0
 31
0.0
  0
LINE
  5
201
100
AcDbEntity
  8
0
  6
CONTINUOUS
 62
               4
100
AcDbLine
 10
-14.0
 20
-25.0
 30
0.0
 11
14.0
 21
-25.0
 31
0.0
  0
LINE
  5
202
100
AcDbEntity
  8
0
  6
CENTER
 62
             200
100
AcDbLine
 10
0.0
 20
8.924159962690922
 30
0.0
 11
0.0
 21
-38.0
 31
0.0
  0
LINE
  5
203
100
AcDbEntity
  8
0
  6
CENTER
 62
             200
100
AcDbLine
 10
-8.0
 20
-30.0
 30
0.0
 11
-8.0
 21
-38.0
 31
0.0
  0
LINE
  5
204
100
AcDbEntity
  8
0
  6
CENTER
 62
             200
100
AcDbLine
 10
8.0
 20
-30.0
 30
0.0
 11
8.0
 21
-38.0
 31
0.0
  0
ENDBLK
  5
205
100
AcDbEntity
  8
0
100
AcDbBlockEnd
  0
BLOCK
  5
206
100
AcDbEntity
  8
0
100
AcDbBlockBegin
  2
CS-PBDAS167-7
 70
               0
 10
0.0
 20
0.0
 30
0.0
  3
CS-PBDAS167-7
  1

  0
ARC
  5
207
100
AcDbEntity
  8
0
  6
CONTINUOUS
 62
               4
100
AcDbCircle
 10
17.599999999999966
 20
-8.0
 30
0.0
 40
2.6000000000161188
100
AcDbArc
 50
90.0
 51
270.0
  0
ARC
  5
208
100
AcDbEntity
  8
0
  6
CONTINUOUS
 62
               4
100
AcDbCircle
 10
-17.599999999999966
 20
8.0
 30
0.0
 40
2.6000000000161188
100
AcDbArc
 50
270.0
 51
90.0
  0
ARC
  5
209
100
AcDbEntity
  8
0
  6
CONTINUOUS
 62
               4
100
AcDbCircle
 10
17.599999999999966
 20
8.0
 30
0.0
 40
2.6000000000161188
100
AcDbArc
 50
90.0
 51
270.0
  0
ARC
  5
20A
100
AcDbEntity
  8
0
  6
CONTINUOUS
 62
               4
100
AcDbCircle
 10
-17.599999999999966
 20
-8.0
 30
0.0
 40
2.6000000000161188
100
AcDbArc
 50
270.0
 51
90.0
  0
LINE
  5
20B
100
AcDbEntity
  8
0
  6
CONTINUOUS
 62
               4
100
AcDbLine
 10
24.0
 20
5.4000000000000057
 30
0.0
 11
24.0
 21
-5.4000000000000057
 31
0.0
  0
LINE
  5
20C
100
AcDbEntity
  8
0
  6
CONTINUOUS
 62
               4
100
AcDbLine
 10
24.0
 20
-10.599999999999994
 30
0.0
 11
24.0
 21
-14.0
 31
0.0
  0
LINE
  5
20D
100
AcDbEntity
  8
0
  6
CONTINUOUS
 62
               4
100
AcDbLine
 10
-24.0
 20
-10.599999999999994
 30
0.0
 11
-24.0
 21
-14.0
 31
0.0
  0
LINE
  5
20E
100
AcDbEntity
  8
0
  6
CONTINUOUS
 62
               4
100
AcDbLine
 10
-24.0
 20
5.4000000000000057
 30
0.0
 11
-24.0
 21
-5.4000000000000057
 31
0.0
  0
LINE
  5
20F
100
AcDbEntity
  8
0
  6
CONTINUOUS
 62
               4
100
AcDbLine
 10
-24.0
 20
14.0
 30
0.0
 11
-24.0
 21
10.599999999999994
 31
0.0
  0
LINE
  5
210
100
AcDbEntity
  8
0
  6
CENTER
 62
             200
100
AcDbLine
 10
-17.599999999999966
 20
2.4000000000000057
 30
0.0
 11
-17.599999999999966
 21
13.599999999999994
 31
0.0
  0
LINE
  5
211
100
AcDbEntity
  8
0
  6
CONTINUOUS
 62
               4
100
AcDbLine
 10
-24.0
 20
10.599999999999994
 30
0.0
 11
-17.599999999999966
 21
10.599999999999994
 31
0.0
  0
LINE
  5
212
100
AcDbEntity
  8
0
  6
CENTER
 62
             200
100
AcDbLine
 10
-24.251216820177973
 20
8.0
 30
0.0
 11
-12.0
 21
8.0
 31
0.0
  0
LINE
  5
213
100
AcDbEntity
  8
0
  6
CONTINUOUS
 62
               4
100
AcDbLine
 10
-24.0
 20
5.4000000000000057
 30
0.0
 11
-17.599999999999966
 21
5.4000000000000057
 31
0.0
  0
LINE
  5
214
100
AcDbEntity
  8
0
  6
CENTER
 62
             200
100
AcDbLine
 10
-17.599999999999966
 20
-2.4000000000000057
 30
0.0
 11
-17.599999999999966
 21
-13.599999999999994
 31
0.0
  0
LINE
  5
215
100
AcDbEntity
  8
0
  6
CONTINUOUS
 62
               4
100
AcDbLine
 10
-24.0
 20
-10.599999999999994
 30
0.0
 11
-17.599999999999966
 21
-10.599999999999994
 31
0.0
  0
LINE
  5
216
100
AcDbEntity
  8
0
  6
CENTER
 62
             200
100
AcDbLine
 10
-24.251216820177973
 20
-8.0
 30
0.0
 11
-12.0
 21
-8.0
 31
0.0
  0
LINE
  5
217
100
AcDbEntity
  8
0
  6
CONTINUOUS
 62
               4
100
AcDbLine
 10
-24.0
 20
-5.4000000000000057
 30
0.0
 11
-17.599999999999966
 21
-5.4000000000000057
 31
0.0
  0
LINE
  5
218
100
AcDbEntity
  8
0
  6
CENTER
 62
             200
100
AcDbLine
 10
17.599999999999966
 20
2.4000000000000057
 30
0.0
 11
17.599999999999966
 21
13.599999999999994
 31
0.0
  0
LINE
  5
219
100
AcDbEntity
  8
0
  6
CONTINUOUS
 62
               4
100
AcDbLine
 10
24.0
 20
10.599999999999994
 30
0.0
 11
17.599999999999966
 21
10.599999999999994
 31
0.0
  0
LINE
  5
21A
100
AcDbEntity
  8
0
  6
CENTER
 62
             200
100
AcDbLine
 10
24.526848548443539
 20
8.0
 30
0.0
 11
12.0
 21
8.0
 31
0.0
  0
LINE
  5
21B
100
AcDbEntity
  8
0
  6
CONTINUOUS
 62
               4
100
AcDbLine
 10
24.0
 20
5.4000000000000057
 30
0.0
 11
17.599999999999966
 21
5.4000000000000057
 31
0.0
  0
LINE
  5
21C
100
AcDbEntity
  8
0
  6
CONTINUOUS
 62
               4
100
AcDbLine
 10
24.0
 20
14.0
 30
0.0
 11
24.0
 21
10.599999999999994
 31
0.0
  0
LINE
  5
21D
100
AcDbEntity
  8
0
  6
CONTINUOUS
 62
               4
100
AcDbLine
 10
24.0
 20
-10.599999999999994
 30
0.0
 11
17.599999999999966
 21
-10.599999999999994
 31
0.0
  0
LINE
  5
21E
100
AcDbEntity
  8
0
  6
CONTINUOUS
 62
               4
100
AcDbLine
 10
24.0
 20
-5.4000000000000057
 30
0.0
 11
17.599999999999966
 21
-5.4000000000000057
 31
0.0
  0
LINE
  5
21F
100
AcDbEntity
  8
0
  6
CENTER
 62
             200
100
AcDbLine
 10
17.599999999999966
 20
-2.4000000000000057
 30
0.0
 11
17.599999999999966
 21
-13.599999999999994
 31
0.0
  0
LINE
  5
220
100
AcDbEntity
  8
0
  6
CENTER
 62
             200
100
AcDbLine
 10
24.526848548443539
 20
-8.0
 30
0.0
 11
12.0
 21
-8.0
 31
0.0
  0
LINE
  5
221
100
AcDbEntity
  8
0
  6
CONTINUOUS
 62
               4
100
AcDbLine
 10
-3.1999999999999886
 20
6.0
 30
0.0
 11
-3.1999999999999886
 21
-6.0
 31
0.0
  0
LINE
  5
222
100
AcDbEntity
  8
0
  6
CONTINUOUS
 62
               4
100
AcDbLine
 10
3.1999999999999886
 20
6.0
 30
0.0
 11
3.1999999999999886
 21
-6.0
 31
0.0
  0
LINE
  5
223
100
AcDbEntity
  8
0
  6
CONTINUOUS
 62
               4
100
AcDbLine
 10
24.0
 20
14.0
 30
0.0
 11
-24.0
 21
14.0
 31
0.0
  0
LINE
  5
224
100
AcDbEntity
  8
0
  6
CONTINUOUS
 62
               4
100
AcDbLine
 10
6.0
 20
6.0
 30
0.0
 11
-6.0
 21
6.0
 31
0.0
  0
LINE
  5
225
100
AcDbEntity
  8
0
  6
CONTINUOUS
 62
               4
100
AcDbLine
 10
24.0
 20
-14.0
 30
0.0
 11
-24.0
 21
-14.0
 31
0.0
  0
LINE
  5
226
100
AcDbEntity
  8
0
  6
CONTINUOUS
 62
               4
100
AcDbLine
 10
6.0
 20
-6.0
 30
0.0
 11
-6.0
 21
-6.0
 31
0.0
  0
LINE
  5
227
100
AcDbEntity
  8
0
  6
CONTINUOUS
 62
               4
100
AcDbLine
 10
10.0
 20
14.0
 30
0.0
 11
10.0
 21
-14.0
 31
0.0
  0
LINE
  5
228
100
AcDbEntity
  8
0
  6
CONTINUOUS
 62
               4
100
AcDbLine
 10
6.0
 20
6.0
 30
0.0
 11
6.0
 21
-6.0
 31
0.0
  0
LINE
  5
229
100
AcDbEntity
  8
0
  6
CONTINUOUS
 62
               4
100
AcDbLine
 10
-6.0
 20
6.0
 30
0.0
 11
-6.0
 21
-6.0
 31
0.0
  0
LINE
  5
22A
100
AcDbEntity
  8
0
  6
CONTINUOUS
 62
               4
100
AcDbLine
 10
-10.0
 20
14.0
 30
0.0
 11
-10.0
 21
-14.0
 31
0.0
  0
LINE
  5
22B
100
AcDbEntity
  8
0
  6
CENTER
 62
             200
100
AcDbLine
 10
27.0
 20
0.0
 30
0.0
 11
-27.0
 21
0.0
 31
0.0
  0
LINE
  5
22C
100
AcDbEntity
  8
0
  6
CENTER
 62
             200
100
AcDbLine
 10
0.0
 20
15.91728682266384
 30
0.0
 11
0.0
 21
-15.748524844197149
 31
0.0
  0
ENDBLK
  5
22D
100
AcDbEntity
  8
0
100
AcDbBlockEnd
  0
BLOCK
  5
22E
100
AcDbEntity
  8
0
100
AcDbBlockBegin
  2
CS-PBDAS167-8
 70
               0
 10
0.0
 20
0.0
 30
0.0
  3
CS-PBDAS167-8
  1

  0
ARC
  5
22F
100
AcDbEntity
  8
0
  6
CONTINUOUS
 62
               4
100
AcDbCircle
 10
1.0
 20
0.0
 30
0.0
 40
4.0
100
AcDbArc
 50
270.0
 51
90.0
  0
LINE
  5
230
100
AcDbEntity
  8
0
  6
CONTINUOUS
 62
               4
100
AcDbLine
 10
-5.0
 20
2.5
 30
0.0
 11
-5.0
 21
4.0
 31
0.0
  0
LINE
  5
231
100
AcDbEntity
  8
0
  6
CONTINUOUS
 62
               4
100
AcDbLine
 10
-12.999999977791788
 20
-2.5
 30
0.0
 11
-5.0
 21
-2.5
 31
0.0
  0
LINE
  5
232
100
AcDbEntity
  8
0
  6
CONTINUOUS
 62
               4
100
AcDbLine
 10
-12.999999977791788
 20
2.5
 30
0.0
 11
-5.0
 21
2.5
 31
0.0
  0
LINE
  5
233
100
AcDbEntity
  8
0
  6
CONTINUOUS
 62
               4
100
AcDbLine
 10
-5.0
 20
-4.0
 30
0.0
 11
-5.0
 21
-2.5
 31
0.0
  0
LINE
  5
234
100
AcDbEntity
  8
0
  6
CENTER
 62
             200
100
AcDbLine
 10
0.0
 20
4.0
 30
0.0
 11
0.0
 21
-4.0
 31
0.0
  0
CIRCLE
  5
235
100
AcDbEntity
  8
0
  6
CONTINUOUS
 62
               4
100
AcDbCircle
 10
0.0
 20
0.0
 30
0.0
 40
2.5
  0
CIRCLE
  5
236
100
AcDbEntity
  8
0
  6
CONTINUOUS
 62
               4
100
AcDbCircle
 10
0.0
 20
0.0
 30
0.0
 40
2.0
  0
LINE
  5
237
100
AcDbEntity
  8
0
  6
CONTINUOUS
 62
               4
100
AcDbLine
 10
-5.0
 20
-4.0
 30
0.0
 11
1.0
 21
-4.0
 31
0.0
  0
LINE
  5
238
100
AcDbEntity
  8
0
  6
CONTINUOUS
 62
               4
100
AcDbLine
 10
-5.0
 20
4.0
 30
0.0
 11
1.0
 21
4.0
 31
0.0
  0
LINE
  5
239
100
AcDbEntity
  8
0
  6
CONTINUOUS
 62
               4
100
AcDbLine
 10
-18.999999977791788
 20
6.654300935885729
 30
0.0
 11
-13.0
 21
6.654300935885729
 31
0.0
  0
LINE
  5
23A
100
AcDbEntity
  8
0
  6
CONTINUOUS
 62
               4
100
AcDbLine
 10
-19.0
 20
9.3299999999999983
 30
0.0
 11
-13.0
 21
9.3299999999999983
 31
0.0
  0
LINE
  5
23B
100
AcDbEntity
  8
0
  6
CONTINUOUS
 62
               4
100
AcDbLine
 10
-13.0
 20
-9.897798158371927
 30
0.0
 11
-13.0
 21
9.6200000269765837
 31
0.0
  0
LINE
  5
23C
100
AcDbEntity
  8
0
  6
CONTINUOUS
 62
               4
100
AcDbLine
 10
-19.0
 20
-9.897798158371927
 30
0.0
 11
-19.0
 21
9.6200000269765837
 31
0.0
  0
LINE
  5
23D
100
AcDbEntity
  8
0
  6
CONTINUOUS
 62
               4
100
AcDbLine
 10
-18.999999977791788
 20
-9.8977981356989631
 30
0.0
 11
-13.0
 21
-9.8977981356989631
 31
0.0
  0
LINE
  5
23E
100
AcDbEntity
  8
0
  6
CONTINUOUS
 62
               4
100
AcDbLine
 10
-18.999999977791788
 20
9.6199999999999903
 30
0.0
 11
-13.0
 21
9.6199999999999903
 31
0.0
  0
LINE
  5
23F
100
AcDbEntity
  8
0
  6
CENTER
 62
             200
100
AcDbLine
 10
-20.758416421770733
 20
0.0
 30
0.0
 11
6.6784582112874773
 21
0.0
 31
0.0
  0
ENDBLK
  5
240
100
AcDbEntity
  8
0
100
AcDbBlockEnd
  0
BLOCK
  5
241
100
AcDbEntity
  8
0
100
AcDbBlockBegin
  2
CS-PBDAS167-9
 70
               0
 10
0.0
 20
0.0
 30
0.0
  3
CS-PBDAS167-9
  1

  0
LINE
  5
242
100
AcDbEntity
  8
0
  6
CENTER
 62
             200
100
AcDbLine
 10
-12.746389960901084
 20
0.0
 30
0.0
 11
11.77000000000001
 21
0.0
 31
0.0
  0
LINE
  5
243
100
AcDbEntity
  8
0
  6
CONTINUOUS
 62
               4
100
AcDbLine
 10
8.5
 20
4.2399999999999949
 30
0.0
 11
8.5
 21
-4.2400000000000091
 31
0.0
  0
LINE
  5
244
100
AcDbEntity
  8
0
  6
CONTINUOUS
 62
               4
100
AcDbLine
 10
-9.0
 20
2.5
 30
0.0
 11
8.5
 21
2.5
 31
0.0
  0
LINE
  5
245
100
AcDbEntity
  8
0
  6
CONTINUOUS
 62
               4
100
AcDbLine
 10
-9.0
 20
-2.5
 30
0.0
 11
8.5
 21
-2.5
 31
0.0
  0
LINE
  5
246
100
AcDbEntity
  8
0
  6
CONTINUOUS
 62
               4
100
AcDbLine
 10
8.9000000000000057
 20
-4.0
 30
0.0
 11
8.9000000000000057
 21
4.0
 31
0.0
  0
LINE
  5
247
100
AcDbEntity
  8
0
  6
CONTINUOUS
 62
               4
100
AcDbLine
 10
8.9000000000000057
 20
-2.0
 30
0.0
 11
9.9000000000000057
 21
-2.0
 31
0.0
  0
LINE
  5
248
100
AcDbEntity
  8
0
  6
CONTINUOUS
 62
               4
100
AcDbLine
 10
8.9000000000000057
 20
2.0
 30
0.0
 11
9.9000000000000057
 21
2.0
 31
0.0
  0
LINE
  5
249
100
AcDbEntity
  8
0
  6
CONTINUOUS
 62
               4
100
AcDbLine
 10
9.9000000000000057
 20
-2.0
 30
0.0
 11
9.9000000000000057
 21
2.0
 31
0.0
  0
LINE
  5
24A
100
AcDbEntity
  8
0
  6
CONTINUOUS
 62
               4
100
AcDbLine
 10
7.9200000000000017
 20
7.3599999999999994
 30
0.0
 11
9.9000000000000057
 21
9.3299999999999983
 31
0.0
  0
LINE
  5
24B
100
AcDbEntity
  8
0
  6
CONTINUOUS
 62
               4
100
AcDbLine
 10
8.5
 20
4.0
 30
0.0
 11
8.9000000000000057
 21
4.0
 31
0.0
  0
LINE
  5
24C
100
AcDbEntity
  8
0
  6
CONTINUOUS
 62
               4
100
AcDbLine
 10
7.6400000000000006
 20
7.6399999999999864
 30
0.0
 11
9.6099999999999994
 21
9.6099999999999994
 31
0.0
  0
LINE
  5
24D
100
AcDbEntity
  8
0
  6
CONTINUOUS
 62
               4
100
AcDbLine
 10
9.6099999999999994
 20
9.6199999999999903
 30
0.0
 11
9.9000000000000057
 21
9.3299999999999983
 31
0.0
  0
LINE
  5
24E
100
AcDbEntity
  8
0
  6
CONTINUOUS
 62
               4
100
AcDbLine
 10
-7.6400000000000006
 20
7.6399999999999864
 30
0.0
 11
-9.6099999999999994
 21
9.6199999999999903
 31
0.0
  0
LINE
  5
24F
100
AcDbEntity
  8
0
  6
CONTINUOUS
 62
               4
100
AcDbLine
 10
-7.9200000000000017
 20
7.3599999999999994
 30
0.0
 11
-9.9000000000000057
 21
9.3299999999999983
 31
0.0
  0
LINE
  5
250
100
AcDbEntity
  8
0
  6
CONTINUOUS
 62
               4
100
AcDbLine
 10
-9.6099999999999994
 20
9.6199999999999903
 30
0.0
 11
-9.9000000000000057
 21
9.3299999999999983
 31
0.0
  0
LINE
  5
251
100
AcDbEntity
  8
0
  6
CONTINUOUS
 62
               4
100
AcDbLine
 10
-9.5
 20
-2.0
 30
0.0
 11
-9.5
 21
2.0
 31
0.0
  0
LINE
  5
252
100
AcDbEntity
  8
0
  6
CONTINUOUS
 62
               4
100
AcDbLine
 10
-9.0
 20
2.5
 30
0.0
 11
-9.5
 21
2.0
 31
0.0
  0
LINE
  5
253
100
AcDbEntity
  8
0
  6
CONTINUOUS
 62
               4
100
AcDbLine
 10
-9.5
 20
-2.0
 30
0.0
 11
-9.0
 21
-2.5
 31
0.0
  0
LINE
  5
254
100
AcDbEntity
  8
0
  6
CONTINUOUS
 62
               4
100
AcDbLine
 10
-9.0
 20
2.5
 30
0.0
 11
-9.0
 21
-2.5
 31
0.0
  0
LINE
  5
255
100
AcDbEntity
  8
0
  6
CONTINUOUS
 62
               4
100
AcDbLine
 10
8.5
 20
-4.0
 30
0.0
 11
8.9000000000000057
 21
-4.0
 31
0.0
  0
ARC
  5
256
100
AcDbEntity
  8
0
  6
CONTINUOUS
 62
               4
100
AcDbCircle
 10
-0.0033282662069496
 20
-0.0033282662069425
 30
0.0
 40
9.5032850308545864
100
AcDbArc
 50
24.913992053871457
 51
38.00877862877401
  0
ARC
  5
257
100
AcDbEntity
  8
0
  6
CONTINUOUS
 62
               4
100
AcDbCircle
 10
0.0083162731609434
 20
0.0016680373394351
 30
0.0
 40
9.5055196401798838
100
AcDbArc
 50
141.89987358535083
 51
166.13306218733138
  0
ARC
  5
258
100
AcDbEntity
  8
0
  6
CONTINUOUS
 62
               4
100
AcDbCircle
 10
0.0033282279979119
 20
-0.0033282279979048
 30
0.0
 40
9.4943572138832302
100
AcDbArc
 50
193.92363615752888
 51
335.10527345667606
  0
ARC
  5
259
100
AcDbEntity
  8
0
  6
CONTINUOUS
 62
               4
100
AcDbCircle
 10
-0.0049187520646967
 20
0.0040718585842328
 30
0.0
 40
9.8982411950220222
100
AcDbArc
 50
11.633154677572893
 51
37.574901821841571
  0
ARC
  5
25A
100
AcDbEntity
  8
0
  6
CONTINUOUS
 62
               4
100
AcDbCircle
 10
8.6340394971874019
 20
6.6543006365341029
 30
0.0
 40
1.0039242975144169
100
AcDbArc
 50
135.33657525299583
 51
217.72696622917039
  0
ARC
  5
25B
100
AcDbEntity
  8
0
  6
CONTINUOUS
 62
               4
100
AcDbCircle
 10
8.6338603293257421
 20
6.6512699785222367
 30
0.0
 40
1.4019077749905247
100
AcDbArc
 50
135.14826276698173
 51
217.38894323469776
  0
ARC
  5
25C
100
AcDbEntity
  8
0
  6
CONTINUOUS
 62
               4
100
AcDbCircle
 10
-8.6338553919636922
 20
6.6512703005241036
 30
0.0
 40
1.401904047629865
100
AcDbArc
 50
322.6109237777568
 51
44.85187022056401
  0
ARC
  5
25D
100
AcDbEntity
  8
0
  6
CONTINUOUS
 62
               4
100
AcDbCircle
 10
-8.6340345578854993
 20
6.654300935885729
 30
0.0
 40
1.0039205740229193
100
AcDbArc
 50
322.27284776605114
 51
44.663610751782919
  0
ARC
  5
25E
100
AcDbEntity
  8
0
  6
CONTINUOUS
 62
               4
100
AcDbCircle
 10
0.0017604049110673
 20
-0.0066107971742753
 30
0.0
 40
9.8911873385246913
100
AcDbArc
 50
142.36496539999425
 51
348.37344871573117
  0
LINE
  5
25F
100
AcDbEntity
  8
0
  6
CENTER
 62
             200
100
AcDbLine
 10
0.0
 20
9.6640556744097665
 30
0.0
 11
0.0
 21
-12.217906913496762
 31
0.0
  0
ARC
  5
260
100
AcDbEntity
  8
0
  6
CONTINUOUS
 62
               4
100
AcDbCircle
 10
0.0033282279979119
 20
-0.0033282279979048
 30
0.0
 40
9.4943572138832302
100
AcDbArc
 50
26.502092745350666
 51
26.538030215353423
  0
ARC
  5
261
100
AcDbEntity
  8
0
  6
CONTINUOUS
 62
               4
100
AcDbCircle
 10
0.0033282279979119
 20
-0.0033282279979048
 30
0.0
 40
9.4943572138832302
100
AcDbArc
 50
339.561630734853
 51
347.86001425574824
  0
ARC
  5
262
100
AcDbEntity
  8
0
  6
CONTINUOUS
 62
               4
100
AcDbCircle
 10
0.0033282279979119
 20
-0.0033282279979048
 30
0.0
 40
9.4943572138832302
100
AcDbArc
 50
12.1810776391538
 51
20.438369265147031
  0
ENDBLK
  5
263
100
AcDbEntity
  8
0
100
AcDbBlockEnd
  0
ENDSEC
  0
SECTION
  2
ENTITIES
  0
INSERT
  5
264
100
AcDbEntity
  8
0
  6
ByBlock
100
AcDbBlockReference
  2
CS-PBDAS167-9
 10
94.851543480969355
 20
-49.233695484663272
 30
0.0
  0
INSERT
  5
265
100
AcDbEntity
  8
0
  6
ByBlock
100
AcDbBlockReference
  2
CS-PBDAS167-8
 10
50.351543480969326
 20
-49.233695484663272
 30
0.0
  0
INSERT
  5
266
100
AcDbEntity
  8
0
  6
ByBlock
100
AcDbBlockReference
  2
CS-PBDAS167-7
 10
-50.057249930062525
 20
-28.600017741104267
 30
0.0
  0
INSERT
  5
267
100
AcDbEntity
  8
0
  6
ByBlock
100
AcDbBlockReference
  2
CS-PBDAS167-6
 10
-103.05724993006253
 20
-55.600012019058369
 30
0.0
  0
INSERT
  5
268
100
AcDbEntity
  8
0
  6
ByBlock
100
AcDbBlockReference
  2
CS-PBDAS167-5
 10
-50.057249930062525
 20
-55.600012019058369
 30
0.0
  0
INSERT
  5
269
100
AcDbEntity
  8
0
  6
ByBlock
100
AcDbBlockReference
  2
CS-PBDAS167-4
 10
-7.5426683837957604
 20
69.112014871227927
 30
0.0
  0
INSERT
  5
26A
100
AcDbEntity
  8
0
  6
ByBlock
100
AcDbBlockReference
  2
CS-PBDAS167-3
 10
100.15815405734568
 20
27.911047792064423
 30
0.0
  0
INSERT
  5
26B
100
AcDbEntity
  8
0
  6
ByBlock
100
AcDbBlockReference
  2
CS-PBDAS167-2
 10
-105.00181718275435
 20
27.911047792064423
 30
0.0
  0
INSERT
  5
26C
100
AcDbEntity
  8
0
  6
ByBlock
100
AcDbBlockReference
  2
CS-PBDAS167-1
 10
-45.037522752727796
 20
27.911047792064423
 30
0.0
  0
MTEXT
  5
26D
100
AcDbEntity
  8
0
  6
CONTINUOUS
 62
               7
100
AcDbMText
 10
66.495839397112533
 20
-8.8000030517578125
 30
0.0
 40
3.2000000476837158
 41
0.0
 71
               4
 72
               1
  1
\A1;-7
  0
MTEXT
  5
26E
100
AcDbEntity
  8
0
  6
CONTINUOUS
 62
               7
100
AcDbMText
 10
-73.479160626729325
 20
-8.8000030517578125
 30
0.0
 40
3.2000000476837158
 41
0.0
 71
               4
 72
               1
  1
\A1;-7C
  0
LINE
  5
26F
100
AcDbEntity
  8
0
  6
CONTINUOUS
 62
               7
100
AcDbLine
 10
-0.024993896484375
 20
-6.8000030517578125
 30
0.0
 11
-0.024993896484375
 21
-94.800003051757812
 31
0.0
  0
LINE
  5
270
100
AcDbEntity
  8
0
  6
CONTINUOUS
 62
               7
100
AcDbLine
 10
-138.39999389648437
 20
-6.8000030517578125
 30
0.0
 11
138.35000610351562
 21
-6.8000030517578125
 31
0.0
  0
LINE
  5
271
100
AcDbEntity
  8
0
  6
CONTINUOUS
 62
               7
100
AcDbLine
 10
-138.39999389648437
 20
-10.800003051757813
 30
0.0
 11
138.35000610351562
 21
-10.800003051757813
 31
0.0
  0
MTEXT
  5
272
100
AcDbEntity
  8
0
  6
CONTINUOUS
 62
               7
100
AcDbMText
 10
0.3333393971125165
 20
1.1999969482421875
 30
0.0
 40
3.2000000476837158
 41
0.0
 71
               4
 72
               1
  1
\A1;25
  0
MTEXT
  5
273
100
AcDbEntity
  8
0
  6
CONTINUOUS
 62
               7
100
AcDbMText
 10
-9.2181757473748682
 20
1.1999969482421875
 30
0.0
 40
3.2000000476837158
 41
0.0
 71
               4
 72
               1
  1
\W1.091;\A1;20
  0
MTEXT
  5
274
100
AcDbEntity
  8
0
  6
CONTINUOUS
 62
               7
100
AcDbMText
 10
-18.759993942260753
 20
1.1999969482421875
 30
0.0
 40
3.2000000476837158
 41
0.0
 71
               4
 72
               1
  1
\W1.200;\A1;15
  0
MTEXT
  5
275
100
AcDbEntity
  8
0
  6
CONTINUOUS
 62
               7
100
AcDbMText
 10
-28.288882822460607
 20
1.1999969482421875
 30
0.0
 40
3.2000000476837158
 41
0.0
 71
               4
 72
               1
  1
\W1.333;\A1;10
  0
MTEXT
  5
276
100
AcDbEntity
  8
0
  6
CONTINUOUS
 62
               7
100
AcDbMText
 10
-36.46666057904563
 20
1.1999969482421875
 30
0.0
 40
3.2000000476837158
 41
0.0
 71
               4
 72
               1
  1
\A1;5
  0
MTEXT
  5
277
100
AcDbEntity
  8
0
  6
CONTINUOUS
 62
               7
100
AcDbMText
 10
-45.959993895530708
 20
1.1999969482421875
 30
0.0
 40
3.2000000476837158
 41
0.0
 71
               4
 72
               1
  1
\W1.200;\A1;0
  0
MTEXT
  5
278
100
AcDbEntity
  8
0
  6
CONTINUOUS
 62
               7
100
AcDbMText
 10
-57.266660602887491
 20
1.1999969482421875
 30
0.0
 40
3.2000000476837158
 41
0.0
 71
               4
 72
               1
  1
\A1;-5
  0
MTEXT
  5
279
100
AcDbEntity
  8
0
  6
CONTINUOUS
 62
               7
100
AcDbMText
 10
-68.359993958473211
 20
1.1999969482421875
 30
0.0
 40
3.2000000476837158
 41
0.0
 71
               4
 72
               1
  1
\W1.200;\A1;-10
  0
MTEXT
  5
27A
100
AcDbEntity
  8
0
  6
CONTINUOUS
 62
               7
100
AcDbMText
 10
-77.999993963539623
 20
1.1999969482421875
 30
0.0
 40
3.2000000476837158
 41
0.0
 71
               4
 72
               1
  1
\W1.125;\A1;-15
  0
MTEXT
  5
27B
100
AcDbEntity
  8
0
  6
CONTINUOUS
 62
               7
100
AcDbMText
 10
-87.635288073282354
 20
1.1999969482421875
 30
0.0
 40
3.2000000476837158
 41
0.0
 71
               4
 72
               1
  1
\W1.059;\A1;-20
  0
MTEXT
  5
27C
100
AcDbEntity
  8
0
  6
CONTINUOUS
 62
               7
100
AcDbMText
 10
-97.266660626729333
 20
1.1999969482421875
 30
0.0
 40
3.2000000476837158
 41
0.0
 71
               4
 72
               1
  1
\A1;-25
  0
MTEXT
  5
27D
100
AcDbEntity
  8
0
  6
CONTINUOUS
 62
               7
100
AcDbMText
 10
-106.83528807328234
 20
1.1999969482421875
 30
0.0
 40
3.2000000476837158
 41
0.0
 71
               4
 72
               1
  1
\W1.059;\A1;-30
  0
MTEXT
  5
27E
100
AcDbEntity
  8
0
  6
CONTINUOUS
 62
               7
100
AcDbMText
 10
-131.06666072209677
 20
1.1999969482421875
 30
0.0
 40
3.2000000476837158
 41
0.0
 71
               4
 72
               1
  1
\A1;STRETCH
  0
MTEXT
  5
27F
100
AcDbEntity
  8
0
  6
CONTINUOUS
 62
               7
100
AcDbMText
 10
-129.46666069825491
 20
7.1999969482421875
 30
0.0
 40
3.2000000476837158
 41
0.0
 71
               4
 72
               1
  1
\A1;STROKE
  0
MTEXT
  5
280
100
AcDbEntity
  8
0
  6
CONTINUOUS
 62
               7
100
AcDbMText
 10
0.3818242526251304
 20
7.1999969482421875
 30
0.0
 40
3.2000000476837158
 41
0.0
 71
               4
 72
               1
  1
\W1.091;\A1;60
  0
LINE
  5
281
100
AcDbEntity
  8
0
  6
CONTINUOUS
 62
               7
100
AcDbLine
 10
65.400006103515622
 20
-1.8000030517578125
 30
0.0
 11
65.400006103515622
 21
10.199996948242187
 31
0.0
  0
MTEXT
  5
282
100
AcDbEntity
  8
0
  6
CONTINUOUS
 62
               7
100
AcDbMText
 10
-9.2666606028874821
 20
7.1999969482421875
 30
0.0
 40
3.2000000476837158
 41
0.0
 71
               4
 72
               1
  1
\A1;55
  0
LINE
  5
283
100
AcDbEntity
  8
0
  6
CONTINUOUS
 62
               7
100
AcDbLine
 10
-1.799993896484386
 20
-1.8000030517578125
 30
0.0
 11
-1.799993896484386
 21
10.199996948242187
 31
0.0
  0
MTEXT
  5
284
100
AcDbEntity
  8
0
  6
CONTINUOUS
 62
               7
100
AcDbMText
 10
-18.81817574737487
 20
7.1999969482421875
 30
0.0
 40
3.2000000476837158
 41
0.0
 71
               4
 72
               1
  1
\W1.091;\A1;50
  0
LINE
  5
285
100
AcDbEntity
  8
0
  6
CONTINUOUS
 62
               7
100
AcDbLine
 10
-11.399993896484386
 20
-1.8000030517578125
 30
0.0
 11
-11.399993896484386
 21
10.199996948242187
 31
0.0
  0
MTEXT
  5
286
100
AcDbEntity
  8
0
  6
CONTINUOUS
 62
               7
100
AcDbMText
 10
-28.46666060288748
 20
7.1999969482421875
 30
0.0
 40
3.2000000476837158
 41
0.0
 71
               4
 72
               1
  1
\A1;45
  0
LINE
  5
287
100
AcDbEntity
  8
0
  6
CONTINUOUS
 62
               7
100
AcDbLine
 10
-20.999993896484384
 20
-1.8000030517578125
 30
0.0
 11
-20.999993896484384
 21
10.199996948242187
 31
0.0
  0
MTEXT
  5
288
100
AcDbEntity
  8
0
  6
CONTINUOUS
 62
               7
100
AcDbMText
 10
-38.018175747374869
 20
7.1999969482421875
 30
0.0
 40
3.2000000476837158
 41
0.0
 71
               4
 72
               1
  1
\W1.091;\A1;40
  0
LINE
  5
289
100
AcDbEntity
  8
0
  6
CONTINUOUS
 62
               7
100
AcDbLine
 10
-30.599993896484385
 20
-1.8000030517578125
 30
0.0
 11
-30.599993896484385
 21
10.199996948242187
 31
0.0
  0
MTEXT
  5
28A
100
AcDbEntity
  8
0
  6
CONTINUOUS
 62
               7
100
AcDbMText
 10
-47.666660602887482
 20
7.1999969482421875
 30
0.0
 40
3.2000000476837158
 41
0.0
 71
               4
 72
               1
  1
\A1;35
  0
LINE
  5
28B
100
AcDbEntity
  8
0
  6
CONTINUOUS
 62
               7
100
AcDbLine
 10
-40.199993896484386
 20
-1.8000030517578125
 30
0.0
 11
-40.199993896484386
 21
10.199996948242187
 31
0.0
  0
MTEXT
  5
28C
100
AcDbEntity
  8
0
  6
CONTINUOUS
 62
               7
100
AcDbMText
 10
-57.218175747374872
 20
7.1999969482421875
 30
0.0
 40
3.2000000476837158
 41
0.0
 71
               4
 72
               1
  1
\W1.091;\A1;30
  0
LINE
  5
28D
100
AcDbEntity
  8
0
  6
CONTINUOUS
 62
               7
100
AcDbLine
 10
-49.799993896484388
 20
-1.8000030517578125
 30
0.0
 11
-49.799993896484388
 21
10.199996948242187
 31
0.0
  0
MTEXT
  5
28E
100
AcDbEntity
  8
0
  6
CONTINUOUS
 62
               7
100
AcDbMText
 10
-66.866660602887478
 20
7.1999969482421875
 30
0.0
 40
3.2000000476837158
 41
0.0
 71
               4
 72
               1
  1
\A1;25
  0
LINE
  5
28F
100
AcDbEntity
  8
0
  6
CONTINUOUS
 62
               7
100
AcDbLine
 10
-59.399993896484389
 20
-1.8000030517578125
 30
0.0
 11
-59.399993896484389
 21
10.199996948242187
 31
0.0
  0
MTEXT
  5
290
100
AcDbEntity
  8
0
  6
CONTINUOUS
 62
               7
100
AcDbMText
 10
-76.418175747374875
 20
7.1999969482421875
 30
0.0
 40
3.2000000476837158
 41
0.0
 71
               4
 72
               1
  1
\W1.091;\A1;20
  0
LINE
  5
291
100
AcDbEntity
  8
0
  6
CONTINUOUS
 62
               7
100
AcDbLine
 10
-68.999993896484398
 20
-1.8000030517578125
 30
0.0
 11
-68.999993896484398
 21
10.199996948242187
 31
0.0
  0
MTEXT
  5
292
100
AcDbEntity
  8
0
  6
CONTINUOUS
 62
               7
100
AcDbMText
 10
-85.959993942260752
 20
7.1999969482421875
 30
0.0
 40
3.2000000476837158
 41
0.0
 71
               4
 72
               1
  1
\W1.200;\A1;15
  0
LINE
  5
293
100
AcDbEntity
  8
0
  6
CONTINUOUS
 62
               7
100
AcDbLine
 10
-78.599993896484392
 20
-1.8000030517578125
 30
0.0
 11
-78.599993896484392
 21
10.199996948242187
 31
0.0
  0
MTEXT
  5
294
100
AcDbEntity
  8
0
  6
CONTINUOUS
 62
               7
100
AcDbMText
 10
-95.48888282246061
 20
7.1999969482421875
 30
0.0
 40
3.2000000476837158
 41
0.0
 71
               4
 72
               1
  1
\W1.333;\A1;10
  0
LINE
  5
295
100
AcDbEntity
  8
0
  6
CONTINUOUS
 62
               7
100
AcDbLine
 10
-88.199993896484386
 20
-1.8000030517578125
 30
0.0
 11
-88.199993896484386
 21
10.199996948242187
 31
0.0
  0
MTEXT
  5
296
100
AcDbEntity
  8
0
  6
CONTINUOUS
 62
               7
100
AcDbMText
 10
-103.66666057904561
 20
7.1999969482421875
 30
0.0
 40
3.2000000476837158
 41
0.0
 71
               4
 72
               1
  1
\A1;5
  0
LINE
  5
297
100
AcDbEntity
  8
0
  6
CONTINUOUS
 62
               7
100
AcDbLine
 10
-133.39999389648437
 20
10.199996948242187
 30
0.0
 11
65.400006103515636
 21
10.199996948242187
 31
0.0
  0
LINE
  5
298
100
AcDbEntity
  8
0
  6
CONTINUOUS
 62
               7
100
AcDbLine
 10
-97.799993896484381
 20
-1.8000030517578125
 30
0.0
 11
-97.799993896484381
 21
10.199996948242187
 31
0.0
  0
LINE
  5
299
100
AcDbEntity
  8
0
  6
CONTINUOUS
 62
               7
100
AcDbLine
 10
-107.39999389648437
 20
-1.8000030517578125
 30
0.0
 11
-107.39999389648437
 21
10.199996948242187
 31
0.0
  0
LINE
  5
29A
100
AcDbEntity
  8
0
  6
CONTINUOUS
 62
               7
100
AcDbLine
 10
-133.39999389648437
 20
4.1999969482421875
 30
0.0
 11
65.400006103515636
 21
4.1999969482421875
 31
0.0
  0
LINE
  5
29B
100
AcDbEntity
  8
0
  6
CONTINUOUS
 62
               7
100
AcDbLine
 10
-133.39999389648437
 20
-1.8000030517578125
 30
0.0
 11
-133.39999389648437
 21
10.199996948242187
 31
0.0
  0
LINE
  5
29C
100
AcDbEntity
  8
0
  6
CONTINUOUS
 62
               7
100
AcDbLine
 10
-133.39999389648437
 20
-1.8000030517578125
 30
0.0
 11
65.400006103515636
 21
-1.8000030517578125
 31
0.0
  0
MTEXT
  5
29D
100
AcDbEntity
  8
0
  6
CONTINUOUS
 62
               7
100
AcDbMText
 10
9.9333393971125155
 20
7.1999969482421875
 30
0.0
 40
3.2000000476837158
 41
0.0
 71
               4
 72
               1
  1
\A1;75
  0
MTEXT
  5
29E
100
AcDbEntity
  8
0
  6
CONTINUOUS
 62
               7
100
AcDbMText
 10
9.9818242526251293
 20
1.1999969482421875
 30
0.0
 40
3.2000000476837158
 41
0.0
 71
               4
 72
               1
  1
\W1.091;\A1;30
  0
LINE
  5
29F
100
AcDbEntity
  8
0
  6
CONTINUOUS
 62
               7
100
AcDbLine
 10
7.8000061035156136
 20
-1.8000030517578125
 30
0.0
 11
7.8000061035156136
 21
10.199996948242187
 31
0.0
  0
MTEXT
  5
2A0
100
AcDbEntity
  8
0
  6
CONTINUOUS
 62
               7
100
AcDbMText
 10
18.085720333761085
 20
7.1999969482421875
 30
0.0
 40
3.2000000476837158
 41
0.0
 71
               4
 72
               1
  1
\W1.286;\A1;100
  0
MTEXT
  5
2A1
100
AcDbEntity
  8
0
  6
CONTINUOUS
 62
               7
100
AcDbMText
 10
19.533339397112517
 20
1.1999969482421875
 30
0.0
 40
3.2000000476837158
 41
0.0
 71
               4
 72
               1
  1
\A1;65
  0
LINE
  5
2A2
100
AcDbEntity
  8
0
  6
CONTINUOUS
 62
               7
100
AcDbLine
 10
17.400006103515615
 20
-1.8000030517578125
 30
0.0
 11
17.400006103515615
 21
10.199996948242187
 31
0.0
  0
MTEXT
  5
2A3
100
AcDbEntity
  8
0
  6
CONTINUOUS
 62
               7
100
AcDbMText
 10
27.600006036460389
 20
7.1999969482421875
 30
0.0
 40
3.2000000476837158
 41
0.0
 71
               4
 72
               1
  1
\W1.125;\A1;125
  0
MTEXT
  5
2A4
100
AcDbEntity
  8
0
  6
CONTINUOUS
 62
               7
100
AcDbMText
 10
29.18182425262513
 20
1.1999969482421875
 30
0.0
 40
3.2000000476837158
 41
0.0
 71
               4
 72
               1
  1
\W1.091;\A1;90
  0
LINE
  5
2A5
100
AcDbEntity
  8
0
  6
CONTINUOUS
 62
               7
100
AcDbLine
 10
27.000006103515616
 20
-1.8000030517578125
 30
0.0
 11
27.000006103515616
 21
10.199996948242187
 31
0.0
  0
MTEXT
  5
2A6
100
AcDbEntity
  8
0
  6
CONTINUOUS
 62
               7
100
AcDbMText
 10
37.240006041526783
 20
7.1999969482421875
 30
0.0
 40
3.2000000476837158
 41
0.0
 71
               4
 72
               1
  1
\W1.200;\A1;150
  0
MTEXT
  5
2A7
100
AcDbEntity
  8
0
  6
CONTINUOUS
 62
               7
100
AcDbMText
 10
37.285720316244621
 20
1.1999969482421875
 30
0.0
 40
3.2000000476837158
 41
0.0
 71
               4
 72
               1
  1
\W1.286;\A1;115
  0
LINE
  5
2A8
100
AcDbEntity
  8
0
  6
CONTINUOUS
 62
               7
100
AcDbLine
 10
36.600006103515618
 20
-1.8000030517578125
 30
0.0
 11
36.600006103515618
 21
10.199996948242187
 31
0.0
  0
MTEXT
  5
2A9
100
AcDbEntity
  8
0
  6
CONTINUOUS
 62
               7
100
AcDbMText
 10
46.800006036460388
 20
7.1999969482421875
 30
0.0
 40
3.2000000476837158
 41
0.0
 71
               4
 72
               1
  1
\W1.125;\A1;175
  0
MTEXT
  5
2AA
100
AcDbEntity
  8
0
  6
CONTINUOUS
 62
               7
100
AcDbMText
 10
46.840006041526784
 20
1.1999969482421875
 30
0.0
 40
3.2000000476837158
 41
0.0
 71
               4
 72
               1
  1
\W1.200;\A1;140
  0
LINE
  5
2AB
100
AcDbEntity
  8
0
  6
CONTINUOUS
 62
               7
100
AcDbLine
 10
46.200006103515619
 20
-1.8000030517578125
 30
0.0
 11
46.200006103515619
 21
10.199996948242187
 31
0.0
  0
MTEXT
  5
2AC
100
AcDbEntity
  8
0
  6
CONTINUOUS
 62
               7
100
AcDbMText
 10
56.400006049871443
 20
7.1999969482421875
 30
0.0
 40
3.2000000476837158
 41
0.0
 71
               4
 72
               1
  1
\W1.125;\A1;200
  0
MTEXT
  5
2AD
100
AcDbEntity
  8
0
  6
CONTINUOUS
 62
               7
100
AcDbMText
 10
56.400006036460397
 20
1.1999969482421875
 30
0.0
 40
3.2000000476837158
 41
0.0
 71
               4
 72
               1
  1
\W1.125;\A1;165
  0
LINE
  5
2AE
100
AcDbEntity
  8
0
  6
CONTINUOUS
 62
               7
100
AcDbLine
 10
55.800006103515621
 20
-1.8000030517578125
 30
0.0
 11
55.800006103515621
 21
10.199996948242187
 31
0.0
  0
MTEXT
  5
2AF
100
AcDbEntity
  8
0
  6
CONTINUOUS
 62
               7
100
AcDbMText
 10
55.466312447403638
 20
12.761576756212534
 30
0.0
 40
3.2000000476837158
 41
0.0
 71
               4
 72
               1
  1
\W1.200;\A1;(mm)
  0
MTEXT
  5
2B0
100
AcDbEntity
  8
0
  6
CONTINUOUS
 62
               7
100
AcDbMText
 10
-55.89768136040604
 20
13.998225126796854
 30
0.0
 40
3.2000000476837158
 41
0.0
 71
               4
 72
               1
  1
\W1.065;\A1;STRETCH LIST
  0
MTEXT
  5
2B1
100
AcDbEntity
  8
0
  6
CONTINUOUS
 62
               3
100
AcDbMText
 10
-2.231994057153158
 20
55.100596585348796
 30
0.0
 40
3.2000000476837158
 41
0.0
 71
               4
 72
               1
  1
\W1.065;\A1;STRETCH LINE
  0
LINE
  5
2B2
100
AcDbEntity
  8
0
  6
CONTINUOUS
 62
               7
100
AcDbLine
 10
-138.39999389648437
 20
94.5
 30
0.0
 11
138.35000610351562
 21
94.5
 31
0.0
  0
LINE
  5
2B3
100
AcDbEntity
  8
0
  6
CONTINUOUS
 62
               7
100
AcDbLine
 10
138.35000610351562
 20
94.5
 30
0.0
 11
138.35000610351562
 21
-94.800003051757812
 31
0.0
  0
LINE
  5
2B4
100
AcDbEntity
  8
0
  6
CONTINUOUS
 62
               7
100
AcDbLine
 10
-138.39999389648437
 20
-94.800003051757812
 30
0.0
 11
138.35000610351562
 21
-94.800003051757812
 31
0.0
  0
LINE
  5
2B5
100
AcDbEntity
  8
0
  6
CONTINUOUS
 62
               7
100
AcDbLine
 10
-138.39999389648437
 20
94.5
 30
0.0
 11
-138.39999389648437
 21
-94.800003051757812
 31
0.0
  0
LINE
  5
2B6
100
AcDbEntity
  8
0
  6
CONTINUOUS
 62
               7
100
AcDbLine
 10
73.350006103515625
 20
-84.800003051757813
 30
0.0
 11
138.35000610351562
 21
-84.800003051757813
 31
0.0
  0
LINE
  5
2B7
100
AcDbEntity
  8
0
  6
CONTINUOUS
 62
               7
100
AcDbLine
 10
-138.39999389648437
 20
84.5
 30
0.0
 11
-73.399993896484375
 21
84.5
 31
0.0
  0
LINE
  5
2B8
100
AcDbEntity
  8
0
  6
CONTINUOUS
 62
               7
100
AcDbLine
 10
73.350006103515625
 20
84.5
 30
0.0
 11
138.35000610351562
 21
84.5
 31
0.0
  0
LINE
  5
2B9
100
AcDbEntity
  8
0
  6
CONTINUOUS
 62
               7
100
AcDbLine
 10
73.350006103515625
 20
-84.800003051757813
 30
0.0
 11
73.350006103515625
 21
-94.800003051757812
 31
0.0
  0
LINE
  5
2BA
100
AcDbEntity
  8
0
  6
CONTINUOUS
 62
               7
100
AcDbLine
 10
73.350006103515625
 20
94.5
 30
0.0
 11
73.350006103515625
 21
84.5
 31
0.0
  0
LINE
  5
2BB
100
AcDbEntity
  8
0
  6
CONTINUOUS
 62
               7
100
AcDbLine
 10
-73.399993896484375
 20
94.5
 30
0.0
 11
-73.399993896484375
 21
84.5
 31
0.0
  0
MTEXT
  5
2BC
100
AcDbEntity
  8
0
  6
CONTINUOUS
 62
               7
100
AcDbMText
 10
77.440523342735503
 20
-89.800003051757812
 30
0.0
 40
4.5
 41
0.0
 71
               4
 72
               1
  1
\W1.121;\A1;KOGANEI CORP.
  0
MTEXT
  5
2BD
100
AcDbEntity
  8
0
  6
CONTINUOUS
 62
               7
100
AcDbMText
 10
93.73085788106853
 20
89.5
 30
0.0
 40
3.1999998092651367
 41
0.0
 71
               4
 72
               1
  1
\W1.277;\A1;Ver. 1.2
  0
MTEXT
  5
2BE
100
AcDbEntity
  8
0
  6
CONTINUOUS
 62
               7
100
AcDbMText
 10
-129.33924483662557
 20
91.099999904632568
 30
0.0
 40
3.1999998092651367
 41
0.0
 71
               1
 72
               1
  1
\W1.051;\A1;CS-PEN CYLINDER
  0
MTEXT
  5
2BF
100
AcDbEntity
  8
0
  6
CONTINUOUS
 62
               7
100
AcDbMText
 10
-129.4285653420857
 20
74.5
 30
0.0
 40
3.2000000476837158
 41
0.0
 71
               4
 72
               1
  1
\W1.071;\A1;MODEL:CS-PBDAS16*ST(35)-7
  0
ENDSEC
  0
SECTION
  2
OBJECTS
  0
DICTIONARY
  5
19
100
AcDbDictionary
  3
ACAD_GROUP
350
1A
  3
ACAD_MLINESTYLE
350
1B
  0
DICTIONARY
  5
1A
102
{ACAD_REACTORS
330
19
102
}
100
AcDbDictionary
  0
DICTIONARY
  5
1B
102
{ACAD_REACTORS
330
19
102
}
100
AcDbDictionary
  3
STANDARD
350
1C
  0
MLINESTYLE
  5
1C
102
{ACAD_REACTORS
330
1B
102
}
100
AcDbMlineStyle
  2
Standard
 70
               0
  3

 62
               0
 51
90.0
 52
90.0
 71
               2
 49
0.5
 62
             256
  6
ByLayer
 49
-0.5
 62
             256
  6
ByLayer
  0
ENDSEC
  0
EOF
