  0
SECTION
  2
HEADER
  9
$ACADVER
  1
AC1012
  9
$DWGCODEPAGE
  3
dos932
  9
$INSBASE
 10
0.0
 20
0.0
 30
0.0
  9
$EXTMIN
 10
-138.39999389648437
 20
-94.800003051757812
 30
0.0
  9
$EXTMAX
 10
138.35000610351562
 20
94.5
 30
0.0
  9
$LIMMIN
 10
-138.39999389648437
 20
-94.800003051757812
  9
$LIMMAX
 10
138.35000610351562
 20
94.5
  9
$ORTHOMODE
 70
               0
  9
$REGENMODE
 70
               1
  9
$FILLMODE
 70
               1
  9
$QTEXTMODE
 70
               0
  9
$MIRRTEXT
 70
               1
  9
$DRAGMODE
 70
               2
  9
$LTSCALE
 40
1.0
  9
$OSMODE
 70
               0
  9
$ATTMODE
 70
               1
  9
$TEXTSIZE
 40
3.2000000476837158
  9
$TRACEWID
 40
0.05
  9
$TEXTSTYLE
  7
MX_NOTE_STANDARD
  9
$CLAYER
  8
0
  9
$CELTYPE
  6
CONTINUOUS
  9
$CECOLOR
 62
             256
  9
$CELTSCALE
 40
1.0
  9
$DELOBJ
 70
               1
  9
$DISPSILH
 70
               0
  9
$DIMSCALE
 40
1.0
  9
$DIMASZ
 40
2.5
  9
$DIMEXO
 40
1.5
  9
$DIMDLI
 40
3.75
  9
$DIMRND
 40
0.0
  9
$DIMDLE
 40
0.0
  9
$DIMEXE
 40
1.5
  9
$DIMTP
 40
0.0
  9
$DIMTM
 40
0.0
  9
$DIMTXT
 40
3.2000000476837158
  9
$DIMCEN
 40
2.5
  9
$DIMTSZ
 40
0.0
  9
$DIMTOL
 70
               0
  9
$DIMLIM
 70
               0
  9
$DIMTIH
 70
               0
  9
$DIMTOH
 70
               0
  9
$DIMSE1
 70
               0
  9
$DIMSE2
 70
               0
  9
$DIMTAD
 70
               1
  9
$DIMZIN
 70
               8
  9
$DIMBLK
  1

  9
$DIMASO
 70
               1
  9
$DIMSHO
 70
               1
  9
$DIMPOST
  1

  9
$DIMAPOST
  1

  9
$DIMALT
 70
               0
  9
$DIMALTD
 70
               4
  9
$DIMALTF
 40
0.03937007874016
  9
$DIMLFAC
 40
1.0
  9
$DIMTOFL
 70
               1
  9
$DIMTVP
 40
0.0
  9
$DIMTIX
 70
               0
  9
$DIMSOXD
 70
               0
  9
$DIMSAH
 70
               0
  9
$DIMBLK1
  1

  9
$DIMBLK2
  1

  9
$DIMSTYLE
  2
MXDIMSTYLE
  9
$DIMCLRD
 70
               0
  9
$DIMCLRE
 70
               0
  9
$DIMCLRT
 70
               0
  9
$DIMTFAC
 40
1.0
  9
$DIMGAP
 40
1.0
  9
$DIMJUST
 70
               0
  9
$DIMSD1
 70
               0
  9
$DIMSD2
 70
               0
  9
$DIMTOLJ
 70
               1
  9
$DIMTZIN
 70
               0
  9
$DIMALTZ
 70
               0
  9
$DIMALTTZ
 70
               0
  9
$DIMFIT
 70
               3
  9
$DIMUPT
 70
               1
  9
$DIMUNIT
 70
               2
  9
$DIMDEC
 70
               4
  9
$DIMTDEC
 70
               4
  9
$DIMALTU
 70
               2
  9
$DIMALTTD
 70
               4
  9
$DIMTXSTY
  7
MX_NOTE_STANDARD
  9
$DIMAUNIT
 70
               0
  9
$LUNITS
 70
               2
  9
$LUPREC
 70
               4
  9
$SKETCHINC
 40
0.1
  9
$FILLETRAD
 40
0.0
  9
$AUNITS
 70
               0
  9
$AUPREC
 70
               0
  9
$MENU
  1
acad
  9
$ELEVATION
 40
0.0
  9
$PELEVATION
 40
0.0
  9
$THICKNESS
 40
0.0
  9
$LIMCHECK
 70
               0
  9
$BLIPMODE
 70
               1
  9
$CHAMFERA
 40
0.0
  9
$CHAMFERB
 40
0.0
  9
$CHAMFERC
 40
0.0
  9
$CHAMFERD
 40
0.0
  9
$SKPOLY
 70
               0
  9
$TDCREATE
 40
2453388.406203704
  9
$TDUPDATE
 40
2453388.406203704
  9
$TDINDWG
 40
0.0000000000
  9
$TDUSRTIMER
 40
0.0000000000
  9
$USRTIMER
 70
               1
  9
$ANGBASE
 50
0.0
  9
$ANGDIR
 70
               0
  9
$PDMODE
 70
               0
  9
$PDSIZE
 40
0.0
  9
$PLINEWID
 40
0.0
  9
$COORDS
 70
               1
  9
$SPLFRAME
 70
               0
  9
$SPLINETYPE
 70
               6
  9
$SPLINESEGS
 70
               8
  9
$ATTDIA
 70
               0
  9
$ATTREQ
 70
               1
  9
$HANDLING
 70
               1
  9
$HANDSEED
  5
2E4
  9
$SURFTAB1
 70
               6
  9
$SURFTAB2
 70
               6
  9
$SURFTYPE
 70
               6
  9
$SURFU
 70
               6
  9
$SURFV
 70
               6
  9
$UCSNAME
  2

  9
$UCSORG
 10
0.0
 20
0.0
 30
0.0
  9
$UCSXDIR
 10
1.0
 20
0.0
 30
0.0
  9
$UCSYDIR
 10
0.0
 20
1.0
 30
0.0
  9
$PUCSNAME
  2

  9
$PUCSORG
 10
0.0
 20
0.0
 30
0.0
  9
$PUCSXDIR
 10
1.0
 20
0.0
 30
0.0
  9
$PUCSYDIR
 10
0.0
 20
1.0
 30
0.0
  9
$USERI1
 70
               0
  9
$USERI2
 70
               0
  9
$USERI3
 70
               0
  9
$USERI4
 70
               0
  9
$USERI5
 70
               0
  9
$USERR1
 40
0.0
  9
$USERR2
 40
0.0
  9
$USERR3
 40
0.0
  9
$USERR4
 40
0.0
  9
$USERR5
 40
0.0
  9
$WORLDVIEW
 70
               1
  9
$SHADEDGE
 70
               3
  9
$SHADEDIF
 70
              70
  9
$TILEMODE
 70
               1
  9
$MAXACTVP
 70
              16
  9
$PINSBASE
 10
0.0
 20
0.0
 30
0.0
  9
$PLIMCHECK
 70
               0
  9
$PEXTMIN
 10
1.0000000000000000E+20
 20
1.0000000000000000E+20
 30
1.0000000000000000E+20
  9
$PEXTMAX
 10
-1.0000000000000000E+20
 20
-1.0000000000000000E+20
 30
-1.0000000000000000E+20
  9
$PLIMMIN
 10
0.0
 20
0.0
  9
$PLIMMAX
 10
12.0
 20
9.0
  9
$UNITMODE
 70
               0
  9
$VISRETAIN
 70
               0
  9
$PLINEGEN
 70
               1
  9
$PSLTSCALE
 70
               0
  9
$TREEDEPTH
 70
            3020
  9
$PICKSTYLE
 70
               1
  9
$CMLSTYLE
  2
Standard
  9
$CMLJUST
 70
               0
  9
$CMLSCALE
 40
1.0
  9
$SAVEIMAGES
 70
               0
  0
ENDSEC
  0
SECTION
  2
CLASSES
  0
CLASS
  1
LWPOLYLINE
  2
AcDbPolyline
  3
"AutoCAD"
 90
        0
280
               0
281
               1
  0
CLASS
  1
IMAGE
  2
AcDbRasterImage
  3
ISM
 90
      127
280
               0
281
               1
  0
CLASS
  1
OLE2FRAME
  2
AcDbOle2Frame
  3
""
 90
        0
280
               0
281
               1
  0
CLASS
  1
HATCH
  2
AcDbHatch
  3
"ACAD_SEDONA"
 90
        0
280
               0
281
               1
  0
CLASS
  1
DICTIONARYVAR
  2
AcDbDictionaryVar
  3
"AutoCAD"
 90
        0
280
               0
281
               0
  0
CLASS
  1
RASTERVARIABLES
  2
AcDbRasterVariables
  3
ISM
 90
        0
280
               0
281
               0
  0
CLASS
  1
IMAGEDEF
  2
AcDbRasterImageDef
  3
ISM
 90
        0
280
               0
281
               0
  0
CLASS
  1
IMAGEDEF_REACTOR
  2
AcDbRasterImageDefReactor
  3
ISM
 90
        1
280
               0
281
               0
  0
CLASS
  1
IDBUFFER
  2
AcDbIdBuffer
  3
"Acad"
 90
        0
280
               0
281
               0
  0
CLASS
  1
SPATIAL_FILTER
  2
AcDbSpatialFilter
  3
"Acad"
 90
        0
280
               0
281
               0
  0
CLASS
  1
XRECORD
  2
AcDbXrecord
  3
"<Built In>"
 90
        0
280
               0
281
               0
  0
CLASS
  1
SORTENTSTABLE
  2
AcDbSortentsTable
  3
"AutoCAD"
 90
        0
280
               0
281
               0
  0
CLASS
  1
LAYER_INDEX
  2
AcDbLayerIndex
  3
"Acad"
 90
        0
280
               0
281
               0
  0
CLASS
  1
SPATIAL_INDEX
  2
AcDbSpatialIndex
  3
"Acad"
 90
        0
280
               0
281
               0
  0
CLASS
  1
OBJECT_PTR
  2
CAseDLPNTableRecord
  3
"ASE-LPNTableRecord"
 90
        1
280
               0
281
               0
  0
CLASS
  1
LAYOUT
  2
AcDbLayout
  3
"AutoCAD 2000"
 90
        1
280
               0
281
               0
  0
CLASS
  1
PLOTSETTINGS
  2
AcDbPlotSettings
  3
"AutoCAD 2000"
 90
        1
280
               0
281
               0
  0
CLASS
  1
ACDBDICTIONARYWDFLT
  2
AcDbDictionaryWithDefault
  3
"AutoCAD 2000"
 90
        1
280
               0
281
               0
  0
CLASS
  1
ACDBPLACEHOLDER
  2
AcDbPlaceHolder
  3
"AutoCAD 2000"
 90
        1
280
               0
281
               0
  0
ENDSEC
  0
SECTION
  2
TABLES
  0
TABLE
  2
VPORT
  5
7
100
AcDbSymbolTable
 70
               1
  0
VPORT
  5
15
100
AcDbSymbolTableRecord
100
AcDbViewportTableRecord
  2
*ACTIVE
 70
               0
 10
0.0
 20
0.0
 11
1.0
 21
1.0
 12
-0.024993896484375
 22
-0.1500015258789063
 13
0.0
 23
0.0
 14
1.0
 24
1.0
 15
0.0
 25
0.0
 16
0.0
 26
0.0
 36
1.0
 17
0.0
 27
0.0
 37
0.0
 40
191.1930030822754
 41
1.7320508075688772
 42
50.0
 43
0.0
 44
0.0
 50
0.0
 51
0.0
 71
               0
 72
             100
 73
               1
 74
               1
 75
               0
 76
               0
 77
               0
 78
               0
  0
ENDTAB
  0
TABLE
  2
LTYPE
  5
4
100
AcDbSymbolTable
 70
               6
  0
LTYPE
  5
11
100
AcDbSymbolTableRecord
100
AcDbLinetypeTableRecord
  2
BYBLOCK
 70
              64
  3

 72
              65
 73
               0
 40
0.0
  0
LTYPE
  5
12
100
AcDbSymbolTableRecord
100
AcDbLinetypeTableRecord
  2
BYLAYER
 70
              64
  3

 72
              65
 73
               0
 40
0.0
  0
LTYPE
  5
13
100
AcDbSymbolTableRecord
100
AcDbLinetypeTableRecord
  2
CONTINUOUS
 70
              64
  3
Solid line
 72
              65
 73
               0
 40
0.0
  0
LTYPE
  5
2E
100
AcDbSymbolTableRecord
100
AcDbLinetypeTableRecord
  2
CENTER
 70
              64
  3
Center ____ _ ____ _ ____ _ ____ _ ____ _ ____
 72
              65
 73
               4
 40
26.0
 49
20.0
 74
               0
 49
-2.0
 74
               0
 49
2.0
 74
               0
 49
-2.0
 74
               0
  0
LTYPE
  5
31
100
AcDbSymbolTableRecord
100
AcDbLinetypeTableRecord
  2
DASHED
 70
              64
  3
Dashed __ __ __ __ __ __ __ __ __ __ __ __ __ _
 72
              65
 73
               2
 40
4.0
 49
2.0
 74
               0
 49
-2.0
 74
               0
  0
LTYPE
  5
E8
100
AcDbSymbolTableRecord
100
AcDbLinetypeTableRecord
  2
PHANTOM
 70
              64
  3
Phantom ______  __  __  ______  __  __  ______
 72
              65
 73
               6
 40
30.0
 49
20.0
 74
               0
 49
-2.0
 74
               0
 49
2.0
 74
               0
 49
-2.0
 74
               0
 49
2.0
 74
               0
 49
-2.0
 74
               0
  0
ENDTAB
  0
TABLE
  2
LAYER
  5
2
100
AcDbSymbolTable
 70
               2
  0
LAYER
  5
14
100
AcDbSymbolTableRecord
100
AcDbLayerTableRecord
  2
0
 70
               0
 62
               7
  6
CONTINUOUS
  0
LAYER
  5
1D
100
AcDbSymbolTableRecord
100
AcDbLayerTableRecord
  2
DEFPOINTS
 70
               0
 62
               7
  6
CONTINUOUS
  0
ENDTAB
  0
TABLE
  2
STYLE
  5
3
100
AcDbSymbolTable
 70
               1
  0
STYLE
  5
17
100
AcDbSymbolTableRecord
100
AcDbTextStyleTableRecord
  2
MX_NOTE_STANDARD
 70
               0
 40
0.0
 41
1.0
 50
0.0
 71
               0
 42
3.2000000476837158
  3
txt.shx
  4
extfont.shx
  0
ENDTAB
  0
TABLE
  2
VIEW
  5
5
100
AcDbSymbolTable
 70
               0
  0
ENDTAB
  0
TABLE
  2
UCS
  5
6
100
AcDbSymbolTable
 70
               0
  0
ENDTAB
  0
TABLE
  2
APPID
  5
8
100
AcDbSymbolTable
 70
               1
  0
APPID
  5
16
100
AcDbSymbolTableRecord
100
AcDbRegAppTableRecord
  2
ACAD
 70
               0
  0
ENDTAB
  0
TABLE
  2
DIMSTYLE
  5
9
100
AcDbSymbolTable
 70
               1
  0
DIMSTYLE
105
18
100
AcDbSymbolTableRecord
100
AcDbDimStyleTableRecord
  2
MXDIMSTYLE
 70
               0
  3

  4

  5

  6

  7

 40
1.0
 41
2.5
 42
1.5
 43
3.75
 44
1.5
 45
0.0
 46
0.0
 47
0.0
 48
0.0
 71
               0
 72
               0
 73
               0
 74
               0
 75
               0
 76
               0
 77
               1
 78
               8
140
3.2000000476837158
141
2.5
142
0.0
143
0.03937007874016
144
1.0
145
0.0
146
1.0
147
1.0
170
               0
171
               4
172
               1
173
               0
174
               0
175
               0
176
               0
177
               0
178
               0
270
               2
271
               4
272
               4
273
               2
274
               4
275
               0
280
               0
281
               0
282
               0
283
               1
284
               0
285
               0
286
               0
287
               3
288
               1
340
17
  0
ENDTAB
  0
TABLE
  2
BLOCK_RECORD
  5
1
100
AcDbSymbolTable
 70
              14
  0
BLOCK_RECORD
  5
A
100
AcDbSymbolTableRecord
100
AcDbBlockTableRecord
  2
*MODEL_SPACE
  0
BLOCK_RECORD
  5
B
100
AcDbSymbolTableRecord
100
AcDbBlockTableRecord
  2
*PAPER_SPACE
  0
BLOCK_RECORD
  5
1E
100
AcDbSymbolTableRecord
100
AcDbBlockTableRecord
  2
CS-PBDAS10-1
  0
BLOCK_RECORD
  5
1F
100
AcDbSymbolTableRecord
100
AcDbBlockTableRecord
  2
CS-PBDAS10-2
  0
BLOCK_RECORD
  5
20
100
AcDbSymbolTableRecord
100
AcDbBlockTableRecord
  2
CS-PBDAS10-3
  0
BLOCK_RECORD
  5
21
100
AcDbSymbolTableRecord
100
AcDbBlockTableRecord
  2
CS-PBDAS10-4
  0
BLOCK_RECORD
  5
22
100
AcDbSymbolTableRecord
100
AcDbBlockTableRecord
  2
CS-PBDAS10-5
  0
BLOCK_RECORD
  5
23
100
AcDbSymbolTableRecord
100
AcDbBlockTableRecord
  2
CS-PBDAS10-6
  0
BLOCK_RECORD
  5
24
100
AcDbSymbolTableRecord
100
AcDbBlockTableRecord
  2
CS-PBDAS10-7
  0
BLOCK_RECORD
  5
25
100
AcDbSymbolTableRecord
100
AcDbBlockTableRecord
  2
CS-PBDAS10-8
  0
BLOCK_RECORD
  5
26
100
AcDbSymbolTableRecord
100
AcDbBlockTableRecord
  2
CS-PBDAS10-9
  0
BLOCK_RECORD
  5
27
100
AcDbSymbolTableRecord
100
AcDbBlockTableRecord
  2
CS-PBDAS10-10
  0
BLOCK_RECORD
  5
28
100
AcDbSymbolTableRecord
100
AcDbBlockTableRecord
  2
CS-PBDAS10-11
  0
BLOCK_RECORD
  5
29
100
AcDbSymbolTableRecord
100
AcDbBlockTableRecord
  2
CS-PBDAS10-12
  0
BLOCK_RECORD
  5
2A
100
AcDbSymbolTableRecord
100
AcDbBlockTableRecord
  2
CS-PBDAS10-13
  0
BLOCK_RECORD
  5
2B
100
AcDbSymbolTableRecord
100
AcDbBlockTableRecord
  2
CS-PBDAS10-14
  0
ENDTAB
  0
ENDSEC
  0
SECTION
  2
BLOCKS
  0
BLOCK
  5
D
100
AcDbEntity
  8
0
100
AcDbBlockBegin
  2
*MODEL_SPACE
 70
               0
 10
0.0
 20
0.0
 30
0.0
  3
*MODEL_SPACE
  1

  0
ENDBLK
  5
E
100
AcDbEntity
  8
0
100
AcDbBlockEnd
  0
BLOCK
  5
F
100
AcDbEntity
 67
               1
  8
0
100
AcDbBlockBegin
  2
*PAPER_SPACE
 70
               0
 10
0.0
 20
0.0
 30
0.0
  3
*PAPER_SPACE
  1

  0
ENDBLK
  5
10
100
AcDbEntity
 67
               1
  8
0
100
AcDbBlockEnd
  0
BLOCK
  5
2C
100
AcDbEntity
  8
0
100
AcDbBlockBegin
  2
CS-PBDAS10-1
 70
               0
 10
0.0
 20
0.0
 30
0.0
  3
CS-PBDAS10-1
  1

  0
LINE
  5
2D
100
AcDbEntity
  8
0
  6
CONTINUOUS
 62
               4
100
AcDbLine
 10
-6.0601806920373065
 20
-8.0829037686547736
 30
0.0
 11
-3.1319808959960938
 21
-8.0829037686547736
 31
0.0
  0
LINE
  5
2F
100
AcDbEntity
  8
0
  6
CENTER
 62
               2
100
AcDbLine
 10
-30.399461475061173
 20
0.0
 30
0.0
 11
89.499997138977051
 21
0.0
 31
0.0
  0
ARC
  5
30
100
AcDbEntity
  8
0
  6
CONTINUOUS
 62
               7
100
AcDbCircle
 10
4.622222900390625
 20
0.0
 30
0.0
 40
4.622220516204834
100
AcDbArc
 50
128.73514957167754
 51
231.26485042832246
  0
LINE
  5
32
100
AcDbEntity
  8
0
  6
DASHED
 62
               2
100
AcDbLine
 10
4.0
 20
5.9999990463256836
 30
0.0
 11
4.0
 21
3.0
 31
0.0
  0
LINE
  5
33
100
AcDbEntity
  8
0
  6
CENTER
 62
               2
100
AcDbLine
 10
6.5
 20
8.2830376625061035
 30
0.0
 11
6.5
 21
0.2885394096374512
 31
0.0
  0
LINE
  5
34
100
AcDbEntity
  8
0
  6
CONTINUOUS
 62
               7
100
AcDbLine
 10
21.26999664306641
 20
-3.6055517196655273
 30
0.0
 11
21.26999664306641
 21
-6.0
 31
0.0
  0
LINE
  5
35
100
AcDbEntity
  8
0
  6
CONTINUOUS
 62
               7
100
AcDbLine
 10
1.7300033569335938
 20
-3.6055517196655273
 30
0.0
 11
1.7300033569335938
 21
-6.0
 31
0.0
  0
LINE
  5
36
100
AcDbEntity
  8
0
  6
DASHED
 62
               2
100
AcDbLine
 10
9.0
 20
5.9999990463256836
 30
0.0
 11
9.0
 21
3.0
 31
0.0
  0
LINE
  5
37
100
AcDbEntity
  8
0
  6
DASHED
 62
               2
100
AcDbLine
 10
8.5670000000000002
 20
5.9999990463256836
 30
0.0
 11
8.5670000000000002
 21
3.0
 31
0.0
  0
LINE
  5
38
100
AcDbEntity
  8
0
  6
DASHED
 62
               2
100
AcDbLine
 10
4.4329999999999998
 20
5.9999990463256836
 30
0.0
 11
4.4329999999999998
 21
3.0
 31
0.0
  0
LINE
  5
39
100
AcDbEntity
  8
0
  6
CONTINUOUS
 62
               4
100
AcDbLine
 10
81.999996662139893
 20
5.5
 30
0.0
 11
81.999996662139893
 21
-5.5
 31
0.0
  0
LINE
  5
3A
100
AcDbEntity
  8
0
  6
CONTINUOUS
 62
               7
100
AcDbLine
 10
-7.2000045776367187
 20
4.9999990463256836
 30
0.0
 11
-7.2000045776367187
 21
-5.0
 31
0.0
  0
LINE
  5
3B
100
AcDbEntity
  8
0
  6
CONTINUOUS
 62
               7
100
AcDbLine
 10
-2.5960845947265625
 20
-5.0
 30
0.0
 11
0.0
 21
-5.0
 31
0.0
  0
LINE
  5
3C
100
AcDbEntity
  8
0
  6
CONTINUOUS
 62
               2
100
AcDbLine
 10
-2.5960845947265625
 20
-4.5
 30
0.0
 11
-1.5
 21
-4.5
 31
0.0
  0
LINE
  5
3D
100
AcDbEntity
  8
0
  6
CONTINUOUS
 62
               7
100
AcDbLine
 10
-20.22332763671875
 20
-2.0
 30
0.0
 11
-8.0
 21
-2.0
 31
0.0
  0
LINE
  5
3E
100
AcDbEntity
  8
0
  6
CONTINUOUS
 62
               2
100
AcDbLine
 10
-20.22332763671875
 20
-1.621
 30
0.0
 11
-13.0
 21
-1.621
 31
0.0
  0
LINE
  5
3F
100
AcDbEntity
  8
0
  6
CONTINUOUS
 62
               2
100
AcDbLine
 10
-20.22332763671875
 20
1.621
 30
0.0
 11
-13.0
 21
1.621
 31
0.0
  0
LINE
  5
40
100
AcDbEntity
  8
0
  6
CONTINUOUS
 62
               7
100
AcDbLine
 10
1.7300033569335938
 20
-3.6055517196655273
 30
0.0
 11
21.26999664306641
 21
-3.6055517196655273
 31
0.0
  0
LINE
  5
41
100
AcDbEntity
  8
0
  6
CONTINUOUS
 62
               7
100
AcDbLine
 10
-27.300003051757813
 20
2.0
 30
0.0
 11
-27.300003051757813
 21
-2.0
 31
0.0
  0
LINE
  5
42
100
AcDbEntity
  8
0
  6
CONTINUOUS
 62
               7
100
AcDbLine
 10
-28.000007500214906
 20
-1.3000047610962611
 30
0.0
 11
-27.30000561913721
 21
-2.000006583168215
 31
0.0
  0
LINE
  5
43
100
AcDbEntity
  8
0
  6
CONTINUOUS
 62
               7
100
AcDbLine
 10
-27.300011182521757
 20
2.000003226573881
 30
0.0
 11
-28.000013004593711
 21
1.3000013454961845
 31
0.0
  0
LINE
  5
44
100
AcDbEntity
  8
0
  6
CONTINUOUS
 62
               2
100
AcDbLine
 10
-27.679012234253292
 20
-1.621
 30
0.0
 11
-23.423332214355469
 21
-1.621
 31
0.0
  0
LINE
  5
45
100
AcDbEntity
  8
0
  6
CONTINUOUS
 62
               2
100
AcDbLine
 10
-27.679014377148057
 20
1.621
 30
0.0
 11
-23.423332214355469
 21
1.621
 31
0.0
  0
LINE
  5
46
100
AcDbEntity
  8
0
  6
CONTINUOUS
 62
               7
100
AcDbLine
 10
-27.300003051757813
 20
-2.0
 30
0.0
 11
-23.423332214355469
 21
-2.0
 31
0.0
  0
LINE
  5
47
100
AcDbEntity
  8
0
  6
CONTINUOUS
 62
               7
100
AcDbLine
 10
-27.300003051757813
 20
2.0
 30
0.0
 11
-23.423332214355469
 21
2.0
 31
0.0
  0
LINE
  5
48
100
AcDbEntity
  8
0
  6
CONTINUOUS
 62
               7
100
AcDbLine
 10
-13.0
 20
2.0
 30
0.0
 11
-13.0
 21
-2.0
 31
0.0
  0
LINE
  5
49
100
AcDbEntity
  8
0
  6
CONTINUOUS
 62
               7
100
AcDbLine
 10
-28.0
 20
1.3000001907348633
 30
0.0
 11
-28.0
 21
-1.3000001907348633
 31
0.0
  0
LINE
  5
4A
100
AcDbEntity
  8
0
  6
CONTINUOUS
 62
               7
100
AcDbLine
 10
-1.5
 20
-5.0
 30
0.0
 11
-1.5
 21
4.9999990463256836
 31
0.0
  0
LINE
  5
4B
100
AcDbEntity
  8
0
  6
CONTINUOUS
 62
               7
100
AcDbLine
 10
-8.0000041850498746
 20
-4.2000011847183032
 30
0.0
 11
-7.2000043473026381
 21
-5.0000009550306004
 31
0.0
  0
LINE
  5
4C
100
AcDbEntity
  8
0
  6
CONTINUOUS
 62
               7
100
AcDbLine
 10
-7.2000047687711231
 20
4.999999292739858
 30
0.0
 11
-8.0000045390834202
 21
4.1999994549926214
 31
0.0
  0
LINE
  5
4D
100
AcDbEntity
  8
0
  6
CONTINUOUS
 62
               2
100
AcDbLine
 10
-7.7000045776367188
 20
4.4999990463256836
 30
0.0
 11
-6.5960845947265625
 21
4.4999990463256836
 31
0.0
  0
LINE
  5
4E
100
AcDbEntity
  8
0
  6
CONTINUOUS
 62
               2
100
AcDbLine
 10
-7.7000045776367188
 20
-4.5
 30
0.0
 11
-6.5960845947265625
 21
-4.5
 31
0.0
  0
LINE
  5
4F
100
AcDbEntity
  8
0
  6
CONTINUOUS
 62
               7
100
AcDbLine
 10
-7.2000045776367187
 20
-5.0
 30
0.0
 11
-6.5960845947265625
 21
-5.0
 31
0.0
  0
LINE
  5
50
100
AcDbEntity
  8
0
  6
CONTINUOUS
 62
               7
100
AcDbLine
 10
-7.2000045776367187
 20
4.9999990463256836
 30
0.0
 11
-6.5960845947265625
 21
4.9999990463256836
 31
0.0
  0
LINE
  5
51
100
AcDbEntity
  8
0
  6
CONTINUOUS
 62
               4
100
AcDbLine
 10
87.999996562911576
 20
-5.0000004995573875
 30
0.0
 11
87.499996664319553
 21
-5.5000003560025732
 31
0.0
  0
LINE
  5
52
100
AcDbEntity
  8
0
  6
CONTINUOUS
 62
               7
100
AcDbLine
 10
0.0
 20
-6.0
 30
0.0
 11
0.0
 21
5.9999990463256836
 31
0.0
  0
LINE
  5
53
100
AcDbEntity
  8
0
  6
CONTINUOUS
 62
               7
100
AcDbLine
 10
-8.0
 20
-4.2000007629394531
 30
0.0
 11
-8.0
 21
4.1999998092651367
 31
0.0
  0
LINE
  5
54
100
AcDbEntity
  8
0
  6
CONTINUOUS
 62
               4
100
AcDbLine
 10
87.999997138977051
 20
4.9999990463256836
 30
0.0
 11
87.999997138977051
 21
-5.0
 31
0.0
  0
LINE
  5
55
100
AcDbEntity
  8
0
  6
DASHED
 62
             200
100
AcDbLine
 10
83.999997138977051
 20
-2.0670000000000002
 30
0.0
 11
87.999997138977051
 21
-2.0670000000000002
 31
0.0
  0
LINE
  5
56
100
AcDbEntity
  8
0
  6
DASHED
 62
             200
100
AcDbLine
 10
83.999997138977051
 20
-2.5
 30
0.0
 11
87.999997138977051
 21
-2.5
 31
0.0
  0
LINE
  5
57
100
AcDbEntity
  8
0
  6
CONTINUOUS
 62
               4
100
AcDbLine
 10
87.499997138977051
 20
5.4999998813451185
 30
0.0
 11
87.499997138977051
 21
-5.5
 31
0.0
  0
LINE
  5
58
100
AcDbEntity
  8
0
  6
CONTINUOUS
 62
               7
100
AcDbLine
 10
0.0
 20
-6.0
 30
0.0
 11
22.999996185302738
 21
-6.0
 31
0.0
  0
LINE
  5
59
100
AcDbEntity
  8
0
  6
CONTINUOUS
 62
               7
100
AcDbLine
 10
0.0
 20
5.9999990463256836
 30
0.0
 11
22.999996185302738
 21
5.9999990463256836
 31
0.0
  0
LINE
  5
5A
100
AcDbEntity
  8
0
  6
CONTINUOUS
 62
               7
100
AcDbLine
 10
22.999996185302738
 20
-6.0
 30
0.0
 11
22.999996185302738
 21
5.9999990463256836
 31
0.0
  0
LINE
  5
5B
100
AcDbEntity
  8
0
  6
CONTINUOUS
 62
               7
100
AcDbLine
 10
22.999996185302738
 20
-5.5
 30
0.0
 11
32.999996185302734
 21
-5.5
 31
0.0
  0
LINE
  5
5C
100
AcDbEntity
  8
0
  6
CONTINUOUS
 62
               7
100
AcDbLine
 10
22.999996185302738
 20
5.5
 30
0.0
 11
30.499996185302738
 21
5.5
 31
0.0
  0
LINE
  5
5D
100
AcDbEntity
  8
0
  6
CONTINUOUS
 62
               4
100
AcDbLine
 10
87.999996562911576
 20
5.0000004995573875
 30
0.0
 11
87.499996664319553
 21
5.5000003560025732
 31
0.0
  0
LINE
  5
5E
100
AcDbEntity
  8
0
  6
DASHED
 62
             200
100
AcDbLine
 10
83.999997138977051
 20
2.0670000000000002
 30
0.0
 11
87.999997138977051
 21
2.0670000000000002
 31
0.0
  0
LINE
  5
5F
100
AcDbEntity
  8
0
  6
DASHED
 62
             200
100
AcDbLine
 10
83.999997138977051
 20
2.5
 30
0.0
 11
87.999997138977051
 21
2.5
 31
0.0
  0
LINE
  5
60
100
AcDbEntity
  8
0
  6
CONTINUOUS
 62
               7
100
AcDbLine
 10
-2.5960845947265625
 20
4.9999990463256836
 30
0.0
 11
0.0
 21
4.9999990463256836
 31
0.0
  0
LINE
  5
61
100
AcDbEntity
  8
0
  6
CONTINUOUS
 62
               2
100
AcDbLine
 10
-2.5960845947265625
 20
4.4999990463256836
 30
0.0
 11
-1.5
 21
4.4999990463256836
 31
0.0
  0
LINE
  5
62
100
AcDbEntity
  8
0
  6
CONTINUOUS
 62
               7
100
AcDbLine
 10
1.7300033569335938
 20
3.6055517196655273
 30
0.0
 11
1.7300033569335938
 21
6.0
 31
0.0
  0
LINE
  5
63
100
AcDbEntity
  8
0
  6
CONTINUOUS
 62
               7
100
AcDbLine
 10
1.7300033569335938
 20
3.6055517196655273
 30
0.0
 11
21.26999664306641
 21
3.6055517196655273
 31
0.0
  0
LINE
  5
64
100
AcDbEntity
  8
0
  6
CONTINUOUS
 62
               7
100
AcDbLine
 10
-20.22332763671875
 20
2.0
 30
0.0
 11
-8.0
 21
2.0
 31
0.0
  0
ARC
  5
65
100
AcDbEntity
  8
0
  6
CONTINUOUS
 62
               7
100
AcDbCircle
 10
18.377769470214844
 20
0.0
 30
0.0
 40
4.6222271919250488
100
AcDbArc
 50
308.73516824101222
 51
51.264831758987782
  0
LINE
  5
66
100
AcDbEntity
  8
0
  6
CONTINUOUS
 62
               7
100
AcDbLine
 10
21.26999664306641
 20
3.6055517196655273
 30
0.0
 11
21.26999664306641
 21
6.0
 31
0.0
  0
LINE
  5
67
100
AcDbEntity
  8
0
  6
CENTER
 62
             200
100
AcDbLine
 10
37.499996185302734
 20
19.37225877199721
 30
0.0
 11
37.499996185302734
 21
-7.4200000000000017
 31
0.0
  0
LINE
  5
68
100
AcDbEntity
  8
0
  6
CONTINUOUS
 62
               4
100
AcDbLine
 10
30.499996185302738
 20
8.0999999999999801
 30
0.0
 11
30.499996185302738
 21
5.0
 31
0.0
  0
LINE
  5
69
100
AcDbEntity
  8
0
  6
CONTINUOUS
 62
               4
100
AcDbLine
 10
44.499996185302734
 20
8.0999999999999801
 30
0.0
 11
44.499996185302734
 21
5.0
 31
0.0
  0
LINE
  5
6A
100
AcDbEntity
  8
0
  6
CONTINUOUS
 62
               4
100
AcDbLine
 10
41.999996185302734
 20
8.5
 30
0.0
 11
41.999996185302734
 21
-5.6500000000000057
 31
0.0
  0
LINE
  5
6B
100
AcDbEntity
  8
0
  6
CONTINUOUS
 62
               4
100
AcDbLine
 10
32.999996185302734
 20
8.5
 30
0.0
 11
32.999996185302734
 21
-5.6500000000000057
 31
0.0
  0
ARC
  5
6C
100
AcDbEntity
  8
0
  6
CONTINUOUS
 62
               4
100
AcDbCircle
 10
36.00078767208629
 20
16.499208513216431
 30
0.0
 40
1.0007917997614517
100
AcDbArc
 50
90.04531297816014
 51
179.95468702183987
  0
ARC
  5
6D
100
AcDbEntity
  8
0
  6
CONTINUOUS
 62
               4
100
AcDbCircle
 10
38.998330528937004
 20
16.498334343634255
 30
0.0
 40
1.0016670412635778
100
AcDbArc
 50
0.0952762943444108
 51
89.904723705655996
  0
LINE
  5
6E
100
AcDbEntity
  8
0
  6
CONTINUOUS
 62
               4
100
AcDbLine
 10
34.999996185302734
 20
15.999999999999986
 30
0.0
 11
39.999996185302734
 21
15.999999999999986
 31
0.0
  0
LINE
  5
6F
100
AcDbEntity
  8
0
  6
CONTINUOUS
 62
               4
100
AcDbLine
 10
38.999996185302734
 20
15.999999999999986
 30
0.0
 11
38.999996185302734
 21
15.0
 31
0.0
  0
LINE
  5
70
100
AcDbEntity
  8
0
  6
CONTINUOUS
 62
             200
100
AcDbLine
 10
38.729996185302738
 20
15.999999999999986
 30
0.0
 11
38.729996185302738
 21
15.0
 31
0.0
  0
LINE
  5
71
100
AcDbEntity
  8
0
  6
CONTINUOUS
 62
               4
100
AcDbLine
 10
41.999996185302734
 20
8.5
 30
0.0
 11
41.999996185302734
 21
15.0
 31
0.0
  0
LINE
  5
72
100
AcDbEntity
  8
0
  6
CONTINUOUS
 62
               4
100
AcDbLine
 10
49.99999618530272
 20
10.299999999999997
 30
0.0
 11
49.99999618530272
 21
6.2999999999999972
 31
0.0
  0
LINE
  5
73
100
AcDbEntity
  8
0
  6
CONTINUOUS
 62
               4
100
AcDbLine
 10
49.99999618530272
 20
6.2999999999999972
 30
0.0
 11
52.999996175765972
 21
6.9999999999999858
 31
0.0
  0
LINE
  5
74
100
AcDbEntity
  8
0
  6
CONTINUOUS
 62
               4
100
AcDbLine
 10
24.999996185302738
 20
7.2999999999999972
 30
0.0
 11
25.999996185302738
 21
6.2999999999999972
 31
0.0
  0
LINE
  5
75
100
AcDbEntity
  8
0
  6
CONTINUOUS
 62
               4
100
AcDbLine
 10
25.999996185302738
 20
10.299999999999997
 30
0.0
 11
25.999996185302738
 21
6.2999999999999972
 31
0.0
  0
LINE
  5
76
100
AcDbEntity
  8
0
  6
CONTINUOUS
 62
               4
100
AcDbLine
 10
44.499996185302734
 20
10.299999999999997
 30
0.0
 11
49.99999618530272
 21
10.299999999999997
 31
0.0
  0
LINE
  5
77
100
AcDbEntity
  8
0
  6
CONTINUOUS
 62
               4
100
AcDbLine
 10
32.999996185302734
 20
8.4999999999999858
 30
0.0
 11
41.999996185302734
 21
8.4999999999999858
 31
0.0
  0
LINE
  5
78
100
AcDbEntity
  8
0
  6
CONTINUOUS
 62
               4
100
AcDbLine
 10
32.999996185302734
 20
8.4999999999999858
 30
0.0
 11
32.999996185302734
 21
15.0
 31
0.0
  0
LINE
  5
79
100
AcDbEntity
  8
0
  6
CONTINUOUS
 62
               4
100
AcDbLine
 10
41.999996185302734
 20
8.0999999999999801
 30
0.0
 11
44.499996175765986
 21
8.0999999999999801
 31
0.0
  0
LINE
  5
7A
100
AcDbEntity
  8
0
  6
CONTINUOUS
 62
               4
100
AcDbLine
 10
41.999996185302734
 20
11.299999999999997
 30
0.0
 11
44.499996175765986
 21
11.299999999999997
 31
0.0
  0
LINE
  5
7B
100
AcDbEntity
  8
0
  6
CONTINUOUS
 62
               4
100
AcDbLine
 10
30.49999617576599
 20
11.299999999999997
 30
0.0
 11
32.999996185302734
 21
11.299999999999997
 31
0.0
  0
LINE
  5
7C
100
AcDbEntity
  8
0
  6
CONTINUOUS
 62
               4
100
AcDbLine
 10
30.49999617576599
 20
8.4999999999999858
 30
0.0
 11
32.999996185302734
 21
8.4999999999999858
 31
0.0
  0
LINE
  5
7D
100
AcDbEntity
  8
0
  6
CONTINUOUS
 62
               4
100
AcDbLine
 10
30.49999617576599
 20
8.0999999999999801
 30
0.0
 11
32.999996185302734
 21
8.0999999999999801
 31
0.0
  0
LINE
  5
7E
100
AcDbEntity
  8
0
  6
CONTINUOUS
 62
             200
100
AcDbLine
 10
36.26999618530273
 20
15.999999999999986
 30
0.0
 11
36.26999618530273
 21
15.0
 31
0.0
  0
LINE
  5
7F
100
AcDbEntity
  8
0
  6
CONTINUOUS
 62
               4
100
AcDbLine
 10
35.999996185302734
 20
15.999999999999986
 30
0.0
 11
35.999996185302734
 21
15.0
 31
0.0
  0
LINE
  5
80
100
AcDbEntity
  8
0
  6
CONTINUOUS
 62
               4
100
AcDbLine
 10
30.499996185302738
 20
10.299999999999997
 30
0.0
 11
25.999996185302738
 21
10.299999999999997
 31
0.0
  0
LINE
  5
81
100
AcDbEntity
  8
0
  6
CONTINUOUS
 62
               4
100
AcDbLine
 10
32.999996185302734
 20
15.0
 30
0.0
 11
41.999996185302734
 21
15.0
 31
0.0
  0
LINE
  5
82
100
AcDbEntity
  8
0
  6
CONTINUOUS
 62
               4
100
AcDbLine
 10
41.999996185302734
 20
8.5
 30
0.0
 11
44.499996185302734
 21
8.5
 31
0.0
  0
LINE
  5
83
100
AcDbEntity
  8
0
  6
CONTINUOUS
 62
               4
100
AcDbLine
 10
24.999996185302738
 20
9.2999999999999972
 30
0.0
 11
24.999996185302738
 21
7.2999999999999972
 31
0.0
  0
LINE
  5
84
100
AcDbEntity
  8
0
  6
CONTINUOUS
 62
               4
100
AcDbLine
 10
24.999996185302738
 20
9.2999999999999972
 30
0.0
 11
25.999996185302738
 21
10.299999999999997
 31
0.0
  0
LINE
  5
85
100
AcDbEntity
  8
0
  6
CONTINUOUS
 62
               4
100
AcDbLine
 10
44.499996185302734
 20
11.299999999999997
 30
0.0
 11
44.499996185302734
 21
8.5
 31
0.0
  0
LINE
  5
86
100
AcDbEntity
  8
0
  6
CONTINUOUS
 62
               4
100
AcDbLine
 10
30.499996185302738
 20
11.299999999999997
 30
0.0
 11
30.499996185302738
 21
8.4999999999999858
 31
0.0
  0
LINE
  5
87
100
AcDbEntity
  8
0
  6
CONTINUOUS
 62
               4
100
AcDbLine
 10
52.999996175765972
 20
9.5999999999999801
 30
0.0
 11
57.936995262467676
 21
9.5999999999999801
 31
0.0
  0
LINE
  5
88
100
AcDbEntity
  8
0
  6
CONTINUOUS
 62
               4
100
AcDbLine
 10
52.999996175765972
 20
6.9999999999999858
 30
0.0
 11
55.336995262467667
 21
6.9999999999999858
 31
0.0
  0
LINE
  5
89
100
AcDbEntity
  8
0
  6
CONTINUOUS
 62
               4
100
AcDbLine
 10
49.99999618530272
 20
10.299999999999997
 30
0.0
 11
52.99999618530272
 21
9.5999999999999801
 31
0.0
  0
LINE
  5
8A
100
AcDbEntity
  8
0
  6
CONTINUOUS
 62
               4
100
AcDbLine
 10
52.99999618530272
 20
9.5999999999999801
 30
0.0
 11
52.99999618530272
 21
6.9999999999999858
 31
0.0
  0
LINE
  5
8B
100
AcDbEntity
  8
0
  6
CONTINUOUS
 62
             200
100
AcDbLine
 10
57.936995262467676
 20
9.5999999999999801
 30
0.0
 11
55.336995262467667
 21
6.9999999999999858
 31
0.0
  0
LINE
  5
8C
100
AcDbEntity
  8
0
  6
CONTINUOUS
 62
               4
100
AcDbLine
 10
44.499996185302734
 20
6.2999999999999972
 30
0.0
 11
49.99999618530272
 21
6.2999999999999972
 31
0.0
  0
LINE
  5
8D
100
AcDbEntity
  8
0
  6
CONTINUOUS
 62
               4
100
AcDbLine
 10
25.999996185302738
 20
6.2999999999999972
 30
0.0
 11
30.499996185302738
 21
6.2999999999999972
 31
0.0
  0
LINE
  5
8E
100
AcDbEntity
  8
0
  6
CONTINUOUS
 62
               4
100
AcDbLine
 10
34.999996185302734
 20
16.499999999999986
 30
0.0
 11
34.999996185302734
 21
15.999999999999986
 31
0.0
  0
LINE
  5
8F
100
AcDbEntity
  8
0
  6
CONTINUOUS
 62
               4
100
AcDbLine
 10
39.999996185302734
 20
16.499999999999986
 30
0.0
 11
39.999996185302734
 21
15.999999999999986
 31
0.0
  0
LINE
  5
90
100
AcDbEntity
  8
0
  6
CONTINUOUS
 62
               4
100
AcDbLine
 10
35.999996185302734
 20
17.499999999999986
 30
0.0
 11
38.999996185302734
 21
17.499999999999986
 31
0.0
  0
LINE
  5
91
100
AcDbEntity
  8
0
  6
CONTINUOUS
 62
               4
100
AcDbLine
 10
30.499996185302738
 20
5.0
 30
0.0
 11
32.999996185302734
 21
5.0
 31
0.0
  0
LINE
  5
92
100
AcDbEntity
  8
0
  6
CONTINUOUS
 62
               4
100
AcDbLine
 10
41.999996185302734
 20
5.0
 30
0.0
 11
44.499996185302734
 21
5.0
 31
0.0
  0
LINE
  5
93
100
AcDbEntity
  8
0
  6
CONTINUOUS
 62
               4
100
AcDbLine
 10
32.999996185302734
 20
-5.6500000000000057
 30
0.0
 11
41.999996185302734
 21
-5.6500000000000057
 31
0.0
  0
LINE
  5
94
100
AcDbEntity
  8
0
  6
CONTINUOUS
 62
               4
100
AcDbLine
 10
32.999996175765986
 20
-5.6460526739628136
 30
0.0
 11
41.999996175765986
 21
-5.6460526739628136
 31
0.0
  0
LINE
  5
95
100
AcDbEntity
  8
0
  6
CONTINUOUS
 62
               4
100
AcDbLine
 10
65.499996662139893
 20
8.0999999999999801
 30
0.0
 11
65.499996662139893
 21
5.0
 31
0.0
  0
LINE
  5
96
100
AcDbEntity
  8
0
  6
CONTINUOUS
 62
               4
100
AcDbLine
 10
79.499996662139893
 20
8.0999999999999801
 30
0.0
 11
79.499996662139893
 21
5.0
 31
0.0
  0
LINE
  5
97
100
AcDbEntity
  8
0
  6
CONTINUOUS
 62
               4
100
AcDbLine
 10
76.999996662139893
 20
8.5
 30
0.0
 11
76.999996662139893
 21
-5.6500000000000057
 31
0.0
  0
LINE
  5
98
100
AcDbEntity
  8
0
  6
CONTINUOUS
 62
               4
100
AcDbLine
 10
67.999996662139893
 20
8.5
 30
0.0
 11
67.999996662139893
 21
-5.6500000000000057
 31
0.0
  0
LINE
  5
99
100
AcDbEntity
  8
0
  6
CONTINUOUS
 62
               4
100
AcDbLine
 10
70.999996662139893
 20
17.499999999999986
 30
0.0
 11
73.999996662139893
 21
17.499999999999986
 31
0.0
  0
ARC
  5
9A
100
AcDbEntity
  8
0
  6
CONTINUOUS
 62
               4
100
AcDbCircle
 10
71.000788148923448
 20
16.499208513216431
 30
0.0
 40
1.0007917997614517
100
AcDbArc
 50
90.04531297816014
 51
179.95468702183987
  0
ARC
  5
9B
100
AcDbEntity
  8
0
  6
CONTINUOUS
 62
               4
100
AcDbCircle
 10
73.998331005774162
 20
16.498334343634255
 30
0.0
 40
1.0016670412635778
100
AcDbArc
 50
0.0952762943444108
 51
89.904723705655996
  0
LINE
  5
9C
100
AcDbEntity
  8
0
  6
CONTINUOUS
 62
               4
100
AcDbLine
 10
59.999996662139893
 20
9.2999999999999972
 30
0.0
 11
60.999996662139893
 21
10.299999999999997
 31
0.0
  0
LINE
  5
9D
100
AcDbEntity
  8
0
  6
CONTINUOUS
 62
               4
100
AcDbLine
 10
60.999996662139893
 20
10.299999999999997
 30
0.0
 11
60.999996662139893
 21
6.2999999999999972
 31
0.0
  0
LINE
  5
9E
100
AcDbEntity
  8
0
  6
CONTINUOUS
 62
               4
100
AcDbLine
 10
84.999996662139893
 20
10.299999999999997
 30
0.0
 11
84.999996662139893
 21
6.2999999999999972
 31
0.0
  0
LINE
  5
9F
100
AcDbEntity
  8
0
  6
CONTINUOUS
 62
               4
100
AcDbLine
 10
87.999996662139893
 20
9.5999999999999801
 30
0.0
 11
87.999996662139893
 21
6.9999999999999858
 31
0.0
  0
LINE
  5
A0
100
AcDbEntity
  8
0
  6
CONTINUOUS
 62
               4
100
AcDbLine
 10
65.499996662139893
 20
11.299999999999997
 30
0.0
 11
65.499996662139893
 21
8.4999999999999858
 31
0.0
  0
LINE
  5
A1
100
AcDbEntity
  8
0
  6
CONTINUOUS
 62
               4
100
AcDbLine
 10
79.499996662139893
 20
11.299999999999997
 30
0.0
 11
79.499996662139893
 21
8.5
 31
0.0
  0
LINE
  5
A2
100
AcDbEntity
  8
0
  6
CONTINUOUS
 62
               4
100
AcDbLine
 10
65.499996652603159
 20
8.0999999999999801
 30
0.0
 11
67.999996662139893
 21
8.0999999999999801
 31
0.0
  0
LINE
  5
A3
100
AcDbEntity
  8
0
  6
CONTINUOUS
 62
               4
100
AcDbLine
 10
65.499996652603159
 20
8.4999999999999858
 30
0.0
 11
67.999996662139893
 21
8.4999999999999858
 31
0.0
  0
LINE
  5
A4
100
AcDbEntity
  8
0
  6
CONTINUOUS
 62
               4
100
AcDbLine
 10
76.999996662139893
 20
8.5
 30
0.0
 11
76.999996662139893
 21
15.0
 31
0.0
  0
LINE
  5
A5
100
AcDbEntity
  8
0
  6
CONTINUOUS
 62
               4
100
AcDbLine
 10
67.999996662139893
 20
8.4999999999999858
 30
0.0
 11
67.999996662139893
 21
15.0
 31
0.0
  0
LINE
  5
A6
100
AcDbEntity
  8
0
  6
CONTINUOUS
 62
               4
100
AcDbLine
 10
67.999996662139893
 20
8.4999999999999858
 30
0.0
 11
76.999996662139893
 21
8.4999999999999858
 31
0.0
  0
LINE
  5
A7
100
AcDbEntity
  8
0
  6
CONTINUOUS
 62
               4
100
AcDbLine
 10
79.499996662139893
 20
10.299999999999997
 30
0.0
 11
84.999996662139893
 21
10.299999999999997
 31
0.0
  0
LINE
  5
A8
100
AcDbEntity
  8
0
  6
CONTINUOUS
 62
               4
100
AcDbLine
 10
76.999996662139893
 20
8.0999999999999801
 30
0.0
 11
79.499996652603159
 21
8.0999999999999801
 31
0.0
  0
LINE
  5
A9
100
AcDbEntity
  8
0
  6
CONTINUOUS
 62
               4
100
AcDbLine
 10
76.999996662139893
 20
11.299999999999997
 30
0.0
 11
79.499996652603159
 21
11.299999999999997
 31
0.0
  0
LINE
  5
AA
100
AcDbEntity
  8
0
  6
CONTINUOUS
 62
               4
100
AcDbLine
 10
65.499996652603159
 20
11.299999999999997
 30
0.0
 11
67.999996662139893
 21
11.299999999999997
 31
0.0
  0
LINE
  5
AB
100
AcDbEntity
  8
0
  6
CONTINUOUS
 62
             200
100
AcDbLine
 10
71.269996662139903
 20
15.999999999999986
 30
0.0
 11
71.269996662139903
 21
15.0
 31
0.0
  0
LINE
  5
AC
100
AcDbEntity
  8
0
  6
CONTINUOUS
 62
             200
100
AcDbLine
 10
73.729996662139882
 20
15.999999999999986
 30
0.0
 11
73.729996662139882
 21
15.0
 31
0.0
  0
LINE
  5
AD
100
AcDbEntity
  8
0
  6
CONTINUOUS
 62
               4
100
AcDbLine
 10
70.999996662139893
 20
15.999999999999986
 30
0.0
 11
70.999996662139893
 21
15.0
 31
0.0
  0
LINE
  5
AE
100
AcDbEntity
  8
0
  6
CONTINUOUS
 62
               4
100
AcDbLine
 10
73.999996662139893
 20
15.999999999999986
 30
0.0
 11
73.999996662139893
 21
15.0
 31
0.0
  0
LINE
  5
AF
100
AcDbEntity
  8
0
  6
CONTINUOUS
 62
               4
100
AcDbLine
 10
65.499996662139893
 20
10.299999999999997
 30
0.0
 11
60.999996662139893
 21
10.299999999999997
 31
0.0
  0
LINE
  5
B0
100
AcDbEntity
  8
0
  6
CONTINUOUS
 62
               4
100
AcDbLine
 10
67.999996662139893
 20
15.0
 30
0.0
 11
76.999996662139893
 21
15.0
 31
0.0
  0
LINE
  5
B1
100
AcDbEntity
  8
0
  6
CONTINUOUS
 62
               4
100
AcDbLine
 10
76.999996662139893
 20
8.5
 30
0.0
 11
79.499996662139893
 21
8.5
 31
0.0
  0
LINE
  5
B2
100
AcDbEntity
  8
0
  6
CONTINUOUS
 62
               4
100
AcDbLine
 10
69.999996662139893
 20
15.999999999999986
 30
0.0
 11
74.999996662139893
 21
15.999999999999986
 31
0.0
  0
LINE
  5
B3
100
AcDbEntity
  8
0
  6
CONTINUOUS
 62
               4
100
AcDbLine
 10
84.999996662139893
 20
10.299999999999997
 30
0.0
 11
87.999996662139893
 21
9.5999999999999801
 31
0.0
  0
LINE
  5
B4
100
AcDbEntity
  8
0
  6
CONTINUOUS
 62
               4
100
AcDbLine
 10
59.999996662139893
 20
7.2999999999999972
 30
0.0
 11
60.999996662139893
 21
6.2999999999999972
 31
0.0
  0
LINE
  5
B5
100
AcDbEntity
  8
0
  6
CONTINUOUS
 62
               4
100
AcDbLine
 10
59.999996662139893
 20
9.2999999999999972
 30
0.0
 11
59.999996662139893
 21
7.2999999999999972
 31
0.0
  0
LINE
  5
B6
100
AcDbEntity
  8
0
  6
CONTINUOUS
 62
               4
100
AcDbLine
 10
60.999996662139893
 20
6.2999999999999972
 30
0.0
 11
65.499996662139893
 21
6.2999999999999972
 31
0.0
  0
LINE
  5
B7
100
AcDbEntity
  8
0
  6
CONTINUOUS
 62
               4
100
AcDbLine
 10
79.499996662139893
 20
6.2999999999999972
 30
0.0
 11
84.999996662139893
 21
6.2999999999999972
 31
0.0
  0
LINE
  5
B8
100
AcDbEntity
  8
0
  6
CONTINUOUS
 62
               4
100
AcDbLine
 10
84.999996662139893
 20
6.2999999999999972
 30
0.0
 11
87.999996652603159
 21
6.9999999999999858
 31
0.0
  0
LINE
  5
B9
100
AcDbEntity
  8
0
  6
CONTINUOUS
 62
               4
100
AcDbLine
 10
69.999996662139893
 20
16.499999999999986
 30
0.0
 11
69.999996662139893
 21
15.999999999999986
 31
0.0
  0
LINE
  5
BA
100
AcDbEntity
  8
0
  6
CONTINUOUS
 62
               4
100
AcDbLine
 10
74.999996662139893
 20
16.499999999999986
 30
0.0
 11
74.999996662139893
 21
15.999999999999986
 31
0.0
  0
LINE
  5
BB
100
AcDbEntity
  8
0
  6
CONTINUOUS
 62
               4
100
AcDbLine
 10
76.999996662139893
 20
5.0
 30
0.0
 11
79.499996662139893
 21
5.0
 31
0.0
  0
LINE
  5
BC
100
AcDbEntity
  8
0
  6
CONTINUOUS
 62
               4
100
AcDbLine
 10
65.499996662139893
 20
5.0
 30
0.0
 11
67.999996662139893
 21
5.0
 31
0.0
  0
LINE
  5
BD
100
AcDbEntity
  8
0
  6
CONTINUOUS
 62
               4
100
AcDbLine
 10
67.999996662139893
 20
-5.6500000000000057
 30
0.0
 11
76.999996662139893
 21
-5.6500000000000057
 31
0.0
  0
LINE
  5
BE
100
AcDbEntity
  8
0
  6
CONTINUOUS
 62
               7
100
AcDbLine
 10
44.499996185302734
 20
5.5
 30
0.0
 11
65.499996662139893
 21
5.5
 31
0.0
  0
LINE
  5
BF
100
AcDbEntity
  8
0
  6
CONTINUOUS
 62
               7
100
AcDbLine
 10
79.499996662139893
 20
5.5
 30
0.0
 11
81.999996662139893
 21
5.5
 31
0.0
  0
LINE
  5
C0
100
AcDbEntity
  8
0
  6
CONTINUOUS
 62
               7
100
AcDbLine
 10
76.999996662139893
 20
-5.5
 30
0.0
 11
81.999996662139893
 21
-5.5
 31
0.0
  0
LINE
  5
C1
100
AcDbEntity
  8
0
  6
CONTINUOUS
 62
               7
100
AcDbLine
 10
41.999996185302734
 20
-5.5
 30
0.0
 11
67.999996662139893
 21
-5.5
 31
0.0
  0
LINE
  5
C2
100
AcDbEntity
  8
0
  6
CENTER
 62
             200
100
AcDbLine
 10
72.499996185302734
 20
19.37225877199721
 30
0.0
 11
72.499996185302734
 21
-7.4200000000000017
 31
0.0
  0
LINE
  5
C3
100
AcDbEntity
  8
0
  6
CONTINUOUS
 62
               4
100
AcDbLine
 10
81.999996662139893
 20
5.5
 30
0.0
 11
87.499996185302734
 21
5.5
 31
0.0
  0
LINE
  5
C4
100
AcDbEntity
  8
0
  6
CONTINUOUS
 62
               4
100
AcDbLine
 10
81.999996662139893
 20
-5.5
 30
0.0
 11
87.499996185302734
 21
-5.5
 31
0.0
  0
LINE
  5
C5
100
AcDbEntity
  8
0
  6
DASHED
 62
               2
100
AcDbLine
 10
16.0
 20
5.9999990463256836
 30
0.0
 11
16.0
 21
3.0
 31
0.0
  0
LINE
  5
C6
100
AcDbEntity
  8
0
  6
CENTER
 62
               2
100
AcDbLine
 10
18.5
 20
8.2830376625061035
 30
0.0
 11
18.5
 21
0.2885394096374512
 31
0.0
  0
LINE
  5
C7
100
AcDbEntity
  8
0
  6
DASHED
 62
               2
100
AcDbLine
 10
21.000000000000004
 20
5.9999990463256836
 30
0.0
 11
21.000000000000004
 21
3.0
 31
0.0
  0
LINE
  5
C8
100
AcDbEntity
  8
0
  6
DASHED
 62
               2
100
AcDbLine
 10
20.567000000000004
 20
5.9999990463256836
 30
0.0
 11
20.567000000000004
 21
3.0
 31
0.0
  0
LINE
  5
C9
100
AcDbEntity
  8
0
  6
DASHED
 62
               2
100
AcDbLine
 10
16.433
 20
5.9999990463256836
 30
0.0
 11
16.433
 21
3.0
 31
0.0
  0
LINE
  5
CA
100
AcDbEntity
  8
0
  6
CONTINUOUS
 62
               4
100
AcDbLine
 10
87.999996662139893
 20
9.5999999999999801
 30
0.0
 11
92.936995748841582
 21
9.5999999999999801
 31
0.0
  0
LINE
  5
CB
100
AcDbEntity
  8
0
  6
CONTINUOUS
 62
               4
100
AcDbLine
 10
87.999996662139893
 20
6.9999999999999858
 30
0.0
 11
90.336995748841588
 21
6.9999999999999858
 31
0.0
  0
LINE
  5
CC
100
AcDbEntity
  8
0
  6
CONTINUOUS
 62
             200
100
AcDbLine
 10
92.936995748841582
 20
9.5999999999999801
 30
0.0
 11
90.336995748841588
 21
6.9999999999999858
 31
0.0
  0
LINE
  5
CD
100
AcDbEntity
  8
0
  6
CONTINUOUS
 62
               4
100
AcDbLine
 10
-20.53593921661377
 20
-4.0414514541625977
 30
0.0
 11
-23.110724449157715
 21
-4.0414514541625977
 31
0.0
  0
LINE
  5
CE
100
AcDbEntity
  8
0
  6
CONTINUOUS
 62
               4
100
AcDbLine
 10
-20.223332620258873
 20
-3.5000002727683182
 30
0.0
 11
-20.535940020416547
 21
-4.0414519320414115
 31
0.0
  0
LINE
  5
CF
100
AcDbEntity
  8
0
  6
CONTINUOUS
 62
               4
100
AcDbLine
 10
-20.223332405090332
 20
-3.5
 30
0.0
 11
-20.223332405090332
 21
3.4999999999999964
 31
0.0
  0
LINE
  5
D0
100
AcDbEntity
  8
0
  6
CONTINUOUS
 62
               4
100
AcDbLine
 10
-20.535940170288086
 20
-2.020726203918457
 30
0.0
 11
-23.110724449157715
 21
-2.020726203918457
 31
0.0
  0
LINE
  5
D1
100
AcDbEntity
  8
0
  6
CONTINUOUS
 62
               4
100
AcDbLine
 10
-20.535940170288086
 20
2.0207252502441371
 30
0.0
 11
-23.110724449157715
 21
2.0207252502441442
 31
0.0
  0
LINE
  5
D2
100
AcDbEntity
  8
0
  6
CONTINUOUS
 62
               4
100
AcDbLine
 10
-20.53593921661377
 20
4.0414514541626012
 30
0.0
 11
-23.110724449157715
 21
4.0414514541626012
 31
0.0
  0
LINE
  5
D3
100
AcDbEntity
  8
0
  6
CONTINUOUS
 62
               4
100
AcDbLine
 10
-20.223332620258873
 20
3.5000002727683146
 30
0.0
 11
-20.535940020416547
 21
4.0414519320414151
 31
0.0
  0
LINE
  5
D4
100
AcDbEntity
  8
0
  6
CONTINUOUS
 62
               4
100
AcDbLine
 10
-23.423333099290971
 20
3.5000024597969777
 30
0.0
 11
-23.110725766048631
 21
4.0414530695701423
 31
0.0
  0
LINE
  5
D5
100
AcDbEntity
  8
0
  6
CONTINUOUS
 62
               4
100
AcDbLine
 10
-23.423332214355469
 20
-3.5
 30
0.0
 11
-23.423332214355469
 21
3.50000095367432
 31
0.0
  0
LINE
  5
D6
100
AcDbEntity
  8
0
  6
CONTINUOUS
 62
               4
100
AcDbLine
 10
-23.423331932016367
 20
-3.5000013149630718
 30
0.0
 11
-23.110725008696022
 21
-4.0414521483300518
 31
0.0
  0
ARC
  5
D7
100
AcDbEntity
  8
0
  6
CONTINUOUS
 62
               4
100
AcDbCircle
 10
-22.012409210205078
 20
-3.0310888290405273
 30
0.0
 40
1.7890758514404297
100
AcDbArc
 50
334.38429577217227
 51
34.384174498419348
  0
ARC
  5
D8
100
AcDbEntity
  8
0
  6
CONTINUOUS
 62
               4
100
AcDbCircle
 10
-26.910727500915527
 20
0.0
 30
0.0
 40
6.6873941421508789
100
AcDbArc
 50
342.41206299049838
 51
17.587919706657587
  0
ARC
  5
D9
100
AcDbEntity
  8
0
  6
CONTINUOUS
 62
               4
100
AcDbCircle
 10
-22.012409210205078
 20
3.0310888290405309
 30
0.0
 40
1.7890758514404297
100
AcDbArc
 50
325.61569891570991
 51
25.615577641956975
  0
ARC
  5
DA
100
AcDbEntity
  8
0
  6
CONTINUOUS
 62
               4
100
AcDbCircle
 10
-21.634255409240723
 20
3.0310888290405309
 30
0.0
 40
1.7890758514404297
100
AcDbArc
 50
154.38431808397263
 51
214.38418314984136
  0
ARC
  5
DB
100
AcDbEntity
  8
0
  6
CONTINUOUS
 62
               4
100
AcDbCircle
 10
-16.735937118530273
 20
0.0
 30
0.0
 40
6.6873941421508789
100
AcDbArc
 50
162.41204432116373
 51
197.58790103732292
  0
ARC
  5
DC
100
AcDbEntity
  8
0
  6
CONTINUOUS
 62
               4
100
AcDbCircle
 10
-21.634255409240723
 20
-3.0310888290405273
 30
0.0
 40
1.7890758514404297
100
AcDbArc
 50
145.61576220864529
 51
205.615627274514
  0
LINE
  5
DD
100
AcDbEntity
  8
0
  6
CONTINUOUS
 62
               4
100
AcDbLine
 10
-6.5960845947265625
 20
-6.0621778264910802
 30
0.0
 11
-6.5960845947265625
 21
6.0621778264910731
 31
0.0
  0
LINE
  5
DE
100
AcDbEntity
  8
0
  6
CONTINUOUS
 62
               4
100
AcDbLine
 10
-2.5960845947265625
 20
-6.1988568072741828
 30
0.0
 11
-2.5960845947265625
 21
6.1988568072741828
 31
0.0
  0
LINE
  5
DF
100
AcDbEntity
  8
0
  6
CONTINUOUS
 62
               4
100
AcDbLine
 10
-6.0601806920373065
 20
8.0829037686547593
 30
0.0
 11
-3.1319808959960938
 21
8.0829037686547593
 31
0.0
  0
LINE
  5
E0
100
AcDbEntity
  8
0
  6
CONTINUOUS
 62
               4
100
AcDbLine
 10
-6.0601806920373065
 20
4.0414518843273868
 30
0.0
 11
-3.1319808959960938
 21
4.0414518843273868
 31
0.0
  0
LINE
  5
E1
100
AcDbEntity
  8
0
  6
CONTINUOUS
 62
               4
100
AcDbLine
 10
-6.0601806920373065
 20
-4.0414518843273868
 30
0.0
 11
-3.1319808959960938
 21
-4.0414518843273868
 31
0.0
  0
ARC
  5
E2
100
AcDbEntity
  8
0
  6
CONTINUOUS
 62
               4
100
AcDbCircle
 10
-2.5183700041825716
 20
6.0621778264910731
 30
0.0
 40
4.0777145905439918
100
AcDbArc
 50
150.29374130944103
 51
209.70625869055897
  0
ARC
  5
E3
100
AcDbEntity
  8
0
  6
CONTINUOUS
 62
               4
100
AcDbCircle
 10
8.9109179134156307
 20
0.0
 30
0.0
 40
15.507002508142188
100
AcDbArc
 50
164.8930814358576
 51
195.1069185641424
  0
ARC
  5
E4
100
AcDbEntity
  8
0
  6
CONTINUOUS
 62
               4
100
AcDbCircle
 10
-6.6737991852705534
 20
6.0621778264910731
 30
0.0
 40
4.0777145905439918
100
AcDbArc
 50
330.29374130944103
 51
29.706258690558975
  0
ARC
  5
E5
100
AcDbEntity
  8
0
  6
CONTINUOUS
 62
               4
100
AcDbCircle
 10
-18.103087102868756
 20
0.0
 30
0.0
 40
15.507002508142188
100
AcDbArc
 50
344.8930814358576
 51
15.106918564142417
  0
ARC
  5
E6
100
AcDbEntity
  8
0
  6
CONTINUOUS
 62
               4
100
AcDbCircle
 10
-6.6737991852705818
 20
-6.0621778264910802
 30
0.0
 40
4.0777145905440175
100
AcDbArc
 50
330.29374130944115
 51
29.706258690558872
  0
ARC
  5
E7
100
AcDbEntity
  8
0
  6
CONTINUOUS
 62
               4
100
AcDbCircle
 10
-2.5183700041825432
 20
-6.0621778264910802
 30
0.0
 40
4.0777145905440175
100
AcDbArc
 50
150.29374130944112
 51
209.70625869055888
  0
LINE
  5
E9
100
AcDbEntity
  8
0
  6
PHANTOM
 62
               3
100
AcDbLine
 10
58.943884194056665
 20
19.397388119555828
 30
0.0
 11
58.943884194056665
 21
-13.009863588667354
 31
0.0
  0
ENDBLK
  5
EA
100
AcDbEntity
  8
0
100
AcDbBlockEnd
  0
BLOCK
  5
EB
100
AcDbEntity
  8
0
100
AcDbBlockBegin
  2
CS-PBDAS10-2
 70
               0
 10
0.0
 20
0.0
 30
0.0
  3
CS-PBDAS10-2
  1

  0
CIRCLE
  5
EC
100
AcDbEntity
  8
0
  6
CONTINUOUS
 62
               2
100
AcDbCircle
 10
0.0
 20
0.0
 30
0.0
 40
4.4584999999999999
  0
CIRCLE
  5
ED
100
AcDbEntity
  8
0
  6
CONTINUOUS
 62
               2
100
AcDbCircle
 10
0.0
 20
0.0
 30
0.0
 40
1.621
  0
LINE
  5
EE
100
AcDbEntity
  8
0
  6
CENTER
 62
               2
100
AcDbLine
 10
-9.1452586239837359
 20
0.0
 30
0.0
 11
9.2722987884620807
 21
0.0
 31
0.0
  0
LINE
  5
EF
100
AcDbEntity
  8
0
  6
CENTER
 62
               2
100
AcDbLine
 10
0.0
 20
19.807415180132928
 30
0.0
 11
0.0
 21
-10.412668890090274
 31
0.0
  0
CIRCLE
  5
F0
100
AcDbEntity
  8
0
  6
CONTINUOUS
 62
               4
100
AcDbCircle
 10
0.0
 20
0.0
 30
0.0
 40
7.0
  0
LINE
  5
F1
100
AcDbEntity
  8
0
  6
CONTINUOUS
 62
               4
100
AcDbLine
 10
-7.0
 20
4.0414518843273726
 30
0.0
 11
0.0
 21
8.0829037686547736
 31
0.0
  0
LINE
  5
F2
100
AcDbEntity
  8
0
  6
CONTINUOUS
 62
               4
100
AcDbLine
 10
-7.0
 20
-4.0414518843273832
 30
0.0
 11
-7.0000000000000142
 21
4.0414518843273868
 31
0.0
  0
LINE
  5
F3
100
AcDbEntity
  8
0
  6
CONTINUOUS
 62
               4
100
AcDbLine
 10
0.0
 20
-8.0829037686547629
 30
0.0
 11
-7.0000000000000142
 21
-4.0414518843273868
 31
0.0
  0
LINE
  5
F4
100
AcDbEntity
  8
0
  6
CONTINUOUS
 62
               4
100
AcDbLine
 10
7.0
 20
-4.0414518843273832
 30
0.0
 11
0.0
 21
-8.0829037686547771
 31
0.0
  0
LINE
  5
F5
100
AcDbEntity
  8
0
  6
CONTINUOUS
 62
               4
100
AcDbLine
 10
7.0
 20
4.0414518843273797
 30
0.0
 11
7.0000000000000142
 21
-4.0414518843273903
 31
0.0
  0
LINE
  5
F6
100
AcDbEntity
  8
0
  6
CONTINUOUS
 62
               4
100
AcDbLine
 10
0.0
 20
8.0829037686547593
 30
0.0
 11
7.0000000000000142
 21
4.0414518843273868
 31
0.0
  0
CIRCLE
  5
F7
100
AcDbEntity
  8
0
  6
CONTINUOUS
 62
               4
100
AcDbCircle
 10
0.0
 20
0.0
 30
0.0
 40
3.5
  0
LINE
  5
F8
100
AcDbEntity
  8
0
  6
CONTINUOUS
 62
               4
100
AcDbLine
 10
-3.5
 20
2.0207259421636863
 30
0.0
 11
0.0
 21
4.0414518843273868
 31
0.0
  0
LINE
  5
F9
100
AcDbEntity
  8
0
  6
CONTINUOUS
 62
               4
100
AcDbLine
 10
0.0
 20
4.0414518843273797
 30
0.0
 11
3.5000000000000142
 21
2.0207259421636934
 31
0.0
  0
LINE
  5
FA
100
AcDbEntity
  8
0
  6
CONTINUOUS
 62
               4
100
AcDbLine
 10
3.5
 20
2.0207259421636934
 30
0.0
 11
3.5000000000000142
 21
-2.0207259421636934
 31
0.0
  0
LINE
  5
FB
100
AcDbEntity
  8
0
  6
CONTINUOUS
 62
               4
100
AcDbLine
 10
3.5
 20
-2.0207259421636934
 30
0.0
 11
0.0
 21
-4.0414518843273868
 31
0.0
  0
LINE
  5
FC
100
AcDbEntity
  8
0
  6
CONTINUOUS
 62
               4
100
AcDbLine
 10
0.0
 20
-4.0414518843273797
 30
0.0
 11
-3.5000000000000142
 21
-2.0207259421636934
 31
0.0
  0
LINE
  5
FD
100
AcDbEntity
  8
0
  6
CONTINUOUS
 62
               4
100
AcDbLine
 10
-3.5
 20
-2.0207259421636934
 30
0.0
 11
-3.5000000000000142
 21
2.0207259421636934
 31
0.0
  0
CIRCLE
  5
FE
100
AcDbEntity
  8
0
  6
CONTINUOUS
 62
               7
100
AcDbCircle
 10
0.0
 20
0.0
 30
0.0
 40
5.0
  0
CIRCLE
  5
FF
100
AcDbEntity
  8
0
  6
CONTINUOUS
 62
               7
100
AcDbCircle
 10
0.0
 20
0.0
 30
0.0
 40
2.0
  0
LINE
  5
100
100
AcDbEntity
  8
0
  6
CONTINUOUS
 62
               4
100
AcDbLine
 10
1.0499999999999972
 20
9.3153503241307547
 30
0.0
 11
-1.0499999999999972
 21
9.3153503241307547
 31
0.0
  0
LINE
  5
101
100
AcDbEntity
  8
0
  6
CONTINUOUS
 62
               4
100
AcDbLine
 10
-4.8471949482611763
 20
13.697746847134717
 30
0.0
 11
-5.7149380459916301
 21
4.7833827493994576
 31
0.0
  0
LINE
  5
102
100
AcDbEntity
  8
0
  6
CONTINUOUS
 62
               4
100
AcDbLine
 10
-4.3495471175048834
 20
13.649304752386868
 30
0.0
 11
-5.1826604950466191
 21
5.0906933367211593
 31
0.0
  0
LINE
  5
103
100
AcDbEntity
  8
0
  6
CONTINUOUS
 62
               4
100
AcDbLine
 10
-4.8300000000000125
 20
7.165350324130749
 30
0.0
 11
-5.0229772297631143
 21
5.1828865129176691
 31
0.0
  0
LINE
  5
104
100
AcDbEntity
  8
0
  6
CONTINUOUS
 62
               4
100
AcDbLine
 10
-3.25
 20
12.015350324130743
 30
0.0
 11
-3.25
 21
6.2065153937884787
 31
0.0
  0
LINE
  5
105
100
AcDbEntity
  8
0
  6
CONTINUOUS
 62
               4
100
AcDbLine
 10
3.25
 20
12.015350324130743
 30
0.0
 11
-3.25
 21
12.015350324130743
 31
0.0
  0
LINE
  5
106
100
AcDbEntity
  8
0
  6
CONTINUOUS
 62
               4
100
AcDbLine
 10
-2.0499999999999972
 20
10.315350324130755
 30
0.0
 11
-2.0499999999999972
 21
6.8993357168160401
 31
0.0
  0
LINE
  5
107
100
AcDbEntity
  8
0
  6
CONTINUOUS
 62
               4
100
AcDbLine
 10
2.0499999999999972
 20
10.315350324130755
 30
0.0
 11
-2.0499999999999972
 21
10.315350324130755
 31
0.0
  0
LINE
  5
108
100
AcDbEntity
  8
0
  6
CONTINUOUS
 62
               4
100
AcDbLine
 10
3.25
 20
11.315350324130755
 30
0.0
 11
-3.25
 21
11.315350324130755
 31
0.0
  0
LINE
  5
109
100
AcDbEntity
  8
0
  6
CONTINUOUS
 62
               4
100
AcDbLine
 10
2.5
 20
16.015350324130743
 30
0.0
 11
-2.5
 21
16.015350324130743
 31
0.0
  0
LINE
  5
10A
100
AcDbEntity
  8
0
  6
CONTINUOUS
 62
               4
100
AcDbLine
 10
3.5
 20
15.015350324130743
 30
0.0
 11
-3.5
 21
15.015350324130743
 31
0.0
  0
LINE
  5
10B
100
AcDbEntity
  8
0
  6
CONTINUOUS
 62
               4
100
AcDbLine
 10
2.0
 20
13.515350324130743
 30
0.0
 11
-2.0
 21
13.515350324130743
 31
0.0
  0
LINE
  5
10C
100
AcDbEntity
  8
0
  6
CONTINUOUS
 62
               4
100
AcDbLine
 10
3.0
 20
14.215350324130746
 30
0.0
 11
-3.0
 21
14.215350324130746
 31
0.0
  0
LINE
  5
10D
100
AcDbEntity
  8
0
  6
CONTINUOUS
 62
               4
100
AcDbLine
 10
1.5
 20
17.515350324130743
 30
0.0
 11
-1.5
 21
17.515350324130743
 31
0.0
  0
ARC
  5
10E
100
AcDbEntity
  8
0
  6
CONTINUOUS
 62
               4
100
AcDbCircle
 10
-1.5076267191957271
 20
16.522977043326485
 30
0.0
 40
0.9924025873101658
100
AcDbArc
 50
89.559671519865446
 51
180.44032848013444
  0
ARC
  5
10F
100
AcDbEntity
  8
0
  6
CONTINUOUS
 62
               4
100
AcDbCircle
 10
-3.5076251918623171
 20
14.222975515993063
 30
0.0
 40
0.7924114967125058
100
AcDbArc
 50
89.448647506628575
 51
180.55135249337138
  0
ARC
  5
110
100
AcDbEntity
  8
0
  6
CONTINUOUS
 62
               4
100
AcDbCircle
 10
-3.0076251879642228
 20
13.722975512094969
 30
0.0
 40
0.4924338524296972
100
AcDbArc
 50
89.11275687609789
 51
180.88724312390252
  0
LINE
  5
111
100
AcDbEntity
  8
0
  6
CONTINUOUS
 62
               4
100
AcDbLine
 10
-1.5
 20
13.515350324130743
 30
0.0
 11
-1.5
 21
12.315350324130726
 31
0.0
  0
LINE
  5
112
100
AcDbEntity
  8
0
  6
CONTINUOUS
 62
             200
100
AcDbLine
 10
-1.230000000000004
 20
13.515350324130743
 30
0.0
 11
-1.230000000000004
 21
12.04535032413073
 31
0.0
  0
LINE
  5
113
100
AcDbEntity
  8
0
  6
CONTINUOUS
 62
               4
100
AcDbLine
 10
-2.5
 20
16.515350324130743
 30
0.0
 11
-2.5
 21
16.015350324130743
 31
0.0
  0
LINE
  5
114
100
AcDbEntity
  8
0
  6
CONTINUOUS
 62
             200
100
AcDbLine
 10
-1.230000000000004
 20
16.015350324130743
 30
0.0
 11
-1.230000000000004
 21
15.015350324130743
 31
0.0
  0
LINE
  5
115
100
AcDbEntity
  8
0
  6
CONTINUOUS
 62
               4
100
AcDbLine
 10
-1.5
 20
16.015350324130743
 30
0.0
 11
-1.5
 21
15.015350324130743
 31
0.0
  0
LINE
  5
116
100
AcDbEntity
  8
0
  6
CONTINUOUS
 62
               4
100
AcDbLine
 10
-5.1578917890397662
 20
10.505944146588504
 30
0.0
 11
-5.8999999999999915
 21
10.94535032413075
 31
0.0
  0
LINE
  5
117
100
AcDbEntity
  8
0
  6
CONTINUOUS
 62
               4
100
AcDbLine
 10
-5.0721490645728124
 20
11.386783033845951
 30
0.0
 11
-5.0999999999999943
 21
11.405350324130744
 31
0.0
  0
LINE
  5
118
100
AcDbEntity
  8
0
  6
CONTINUOUS
 62
               4
100
AcDbLine
 10
-4.2999999999999972
 20
10.94535032413075
 30
0.0
 11
-4.5967100061319854
 21
11.110189216426306
 31
0.0
  0
LINE
  5
119
100
AcDbEntity
  8
0
  6
CONTINUOUS
 62
               4
100
AcDbLine
 10
-5.0999999999999943
 20
13.315350324130755
 30
0.0
 11
-5.0999999999999943
 21
11.405350324130744
 31
0.0
  0
LINE
  5
11A
100
AcDbEntity
  8
0
  6
CONTINUOUS
 62
               4
100
AcDbLine
 10
-5.0999999999999943
 20
13.315350324130755
 30
0.0
 11
-5.8999999999999915
 21
13.315350324130755
 31
0.0
  0
LINE
  5
11B
100
AcDbEntity
  8
0
  6
CONTINUOUS
 62
               4
100
AcDbLine
 10
-5.8999999999999915
 20
13.315350324130755
 30
0.0
 11
-5.8999999999999915
 21
10.94535032413075
 31
0.0
  0
LINE
  5
11C
100
AcDbEntity
  8
0
  6
CONTINUOUS
 62
               4
100
AcDbLine
 10
-4.2999999999999972
 20
10.015350324130743
 30
0.0
 11
-4.6816147512409856
 21
10.237958929021332
 31
0.0
  0
LINE
  5
11D
100
AcDbEntity
  8
0
  6
CONTINUOUS
 62
               4
100
AcDbLine
 10
-3.5
 20
7.8153503241307547
 30
0.0
 11
-4.2999999999999972
 21
7.8153503241307547
 31
0.0
  0
LINE
  5
11E
100
AcDbEntity
  8
0
  6
CONTINUOUS
 62
               4
100
AcDbLine
 10
-2.0600000000000023
 20
14.215350324130746
 30
0.0
 11
-2.0
 21
13.515350324130743
 31
0.0
  0
LINE
  5
11F
100
AcDbEntity
  8
0
  6
CONTINUOUS
 62
               4
100
AcDbLine
 10
-4.2999999999999972
 20
14.215350324130746
 30
0.0
 11
-4.2999999999999972
 21
7.8153503241307547
 31
0.0
  0
LINE
  5
120
100
AcDbEntity
  8
0
  6
CONTINUOUS
 62
               4
100
AcDbLine
 10
-3.5
 20
13.715350324130746
 30
0.0
 11
-3.5
 21
7.8153503241307547
 31
0.0
  0
LINE
  5
121
100
AcDbEntity
  8
0
  6
CONTINUOUS
 62
               4
100
AcDbLine
 10
-4.8300000000000125
 20
7.165350324130749
 30
0.0
 11
-4.9792943492269046
 21
7.1798829525551042
 31
0.0
  0
LINE
  5
122
100
AcDbEntity
  8
0
  6
CONTINUOUS
 62
               4
100
AcDbLine
 10
-4.3495471175048834
 20
13.649304752386868
 30
0.0
 11
-4.8471949482611763
 21
13.697746847134717
 31
0.0
  0
LINE
  5
123
100
AcDbEntity
  8
0
  6
CONTINUOUS
 62
               4
100
AcDbLine
 10
-1.5
 20
12.315350324130726
 30
0.0
 11
-1.2000000000000171
 21
12.015350324130743
 31
0.0
  0
LINE
  5
124
100
AcDbEntity
  8
0
  6
CONTINUOUS
 62
               4
100
AcDbLine
 10
-1.0499999999999972
 20
9.3153503241307547
 30
0.0
 11
-1.0499999999999972
 21
7.4766859860056627
 31
0.0
  0
LINE
  5
125
100
AcDbEntity
  8
0
  6
CONTINUOUS
 62
               4
100
AcDbLine
 10
-2.0499999999999972
 20
10.315350324130755
 30
0.0
 11
-1.0499999999999972
 21
9.3153503241307547
 31
0.0
  0
LINE
  5
126
100
AcDbEntity
  8
0
  6
CONTINUOUS
 62
               4
100
AcDbLine
 10
3.5
 20
8.5153503241307433
 30
0.0
 11
4.3364882645640677
 21
5.5083575581420448
 31
0.0
  0
LINE
  5
127
100
AcDbEntity
  8
0
  6
CONTINUOUS
 62
               4
100
AcDbLine
 10
3.3500000000000085
 20
8.5153503241307433
 30
0.0
 11
4.1433765038189421
 21
5.6550017686613572
 31
0.0
  0
LINE
  5
128
100
AcDbEntity
  8
0
  6
CONTINUOUS
 62
               4
100
AcDbLine
 10
1.0
 20
10.615350324130738
 30
0.0
 11
-1.0
 21
10.615350324130738
 31
0.0
  0
LINE
  5
129
100
AcDbEntity
  8
0
  6
CONTINUOUS
 62
               4
100
AcDbLine
 10
3.25
 20
8.1153503241307376
 30
0.0
 11
3.25
 21
6.2065153937884858
 31
0.0
  0
LINE
  5
12A
100
AcDbEntity
  8
0
  6
CONTINUOUS
 62
               4
100
AcDbLine
 10
2.0499999999999972
 20
10.315350324130755
 30
0.0
 11
2.0499999999999972
 21
6.899335716816033
 31
0.0
  0
ARC
  5
12B
100
AcDbEntity
  8
0
  6
CONTINUOUS
 62
               4
100
AcDbCircle
 10
1.4998704365679885
 20
16.515220760698732
 30
0.0
 40
1.0001295718242713
100
AcDbArc
 50
0.0074224761108777
 51
89.992577523889196
  0
ARC
  5
12C
100
AcDbEntity
  8
0
  6
CONTINUOUS
 62
               4
100
AcDbCircle
 10
3.4998616535656737
 20
14.21521197769642
 30
0.0
 40
0.8001383583945874
100
AcDbArc
 50
0.0099066202162127
 51
89.990093379784071
  0
ARC
  5
12D
100
AcDbEntity
  8
0
  6
CONTINUOUS
 62
               4
100
AcDbCircle
 10
2.9998398445983412
 20
13.715190168729087
 30
0.0
 40
0.5001601810431999
100
AcDbArc
 50
0.01834657992753
 51
89.981653420072192
  0
LINE
  5
12E
100
AcDbEntity
  8
0
  6
CONTINUOUS
 62
             200
100
AcDbLine
 10
1.230000000000004
 20
13.515350324130743
 30
0.0
 11
1.230000000000004
 21
12.045350324130759
 31
0.0
  0
LINE
  5
12F
100
AcDbEntity
  8
0
  6
CONTINUOUS
 62
               4
100
AcDbLine
 10
1.5
 20
13.515350324130743
 30
0.0
 11
1.5
 21
12.315350324130726
 31
0.0
  0
LINE
  5
130
100
AcDbEntity
  8
0
  6
CONTINUOUS
 62
               4
100
AcDbLine
 10
2.5
 20
16.515350324130743
 30
0.0
 11
2.5
 21
16.015350324130743
 31
0.0
  0
LINE
  5
131
100
AcDbEntity
  8
0
  6
CONTINUOUS
 62
             200
100
AcDbLine
 10
1.230000000000004
 20
16.015350324130743
 30
0.0
 11
1.230000000000004
 21
15.015350324130743
 31
0.0
  0
LINE
  5
132
100
AcDbEntity
  8
0
  6
CONTINUOUS
 62
               4
100
AcDbLine
 10
1.5
 20
16.015350324130743
 30
0.0
 11
1.5
 21
15.015350324130743
 31
0.0
  0
LINE
  5
133
100
AcDbEntity
  8
0
  6
CONTINUOUS
 62
               4
100
AcDbLine
 10
3.5
 20
13.715350324130746
 30
0.0
 11
3.3500000000000085
 21
13.715350324130746
 31
0.0
  0
LINE
  5
134
100
AcDbEntity
  8
0
  6
CONTINUOUS
 62
               4
100
AcDbLine
 10
3.3500000000000085
 20
13.715350324130746
 30
0.0
 11
3.3500000000000085
 21
8.5153503241307433
 31
0.0
  0
LINE
  5
135
100
AcDbEntity
  8
0
  6
CONTINUOUS
 62
               4
100
AcDbLine
 10
4.2999999999999972
 20
8.5153503241307433
 30
0.0
 11
3.5
 21
8.5153503241307433
 31
0.0
  0
LINE
  5
136
100
AcDbEntity
  8
0
  6
CONTINUOUS
 62
               4
100
AcDbLine
 10
2.0600000000000023
 20
14.215350324130746
 30
0.0
 11
2.0
 21
13.515350324130743
 31
0.0
  0
LINE
  5
137
100
AcDbEntity
  8
0
  6
CONTINUOUS
 62
               4
100
AcDbLine
 10
4.2999999999999972
 20
14.215350324130746
 30
0.0
 11
4.2999999999999972
 21
8.5153503241307433
 31
0.0
  0
LINE
  5
138
100
AcDbEntity
  8
0
  6
CONTINUOUS
 62
               4
100
AcDbLine
 10
3.5
 20
13.715350324130746
 30
0.0
 11
3.5
 21
8.5153503241307433
 31
0.0
  0
LINE
  5
139
100
AcDbEntity
  8
0
  6
CONTINUOUS
 62
               4
100
AcDbLine
 10
3.25
 20
8.5153503241307433
 30
0.0
 11
2.0499999999999972
 21
8.5153503241307433
 31
0.0
  0
LINE
  5
13A
100
AcDbEntity
  8
0
  6
CONTINUOUS
 62
               4
100
AcDbLine
 10
3.25
 20
8.1153503241307376
 30
0.0
 11
2.0499999999999972
 21
8.1153503241307376
 31
0.0
  0
LINE
  5
13B
100
AcDbEntity
  8
0
  6
CONTINUOUS
 62
               4
100
AcDbLine
 10
1.0
 20
10.615350324130738
 30
0.0
 11
1.0
 21
10.315350324130755
 31
0.0
  0
LINE
  5
13C
100
AcDbEntity
  8
0
  6
CONTINUOUS
 62
               4
100
AcDbLine
 10
3.25
 20
12.015350324130743
 30
0.0
 11
3.25
 21
8.5153503241307433
 31
0.0
  0
LINE
  5
13D
100
AcDbEntity
  8
0
  6
CONTINUOUS
 62
               4
100
AcDbLine
 10
1.5
 20
12.315350324130726
 30
0.0
 11
1.1999999999999886
 21
12.015350324130743
 31
0.0
  0
LINE
  5
13E
100
AcDbEntity
  8
0
  6
CONTINUOUS
 62
               4
100
AcDbLine
 10
1.0499999999999972
 20
9.3153503241307547
 30
0.0
 11
1.0499999999999972
 21
7.4766859860056556
 31
0.0
  0
LINE
  5
13F
100
AcDbEntity
  8
0
  6
CONTINUOUS
 62
               4
100
AcDbLine
 10
2.0499999999999972
 20
10.315350324130755
 30
0.0
 11
1.0499999999999972
 21
9.3153503241307547
 31
0.0
  0
LINE
  5
140
100
AcDbEntity
  8
0
  6
CONTINUOUS
 62
               4
100
AcDbLine
 10
-1.0
 20
10.615350324130738
 30
0.0
 11
-1.0
 21
10.315350324130755
 31
0.0
  0
ENDBLK
  5
141
100
AcDbEntity
  8
0
100
AcDbBlockEnd
  0
BLOCK
  5
142
100
AcDbEntity
  8
0
100
AcDbBlockBegin
  2
CS-PBDAS10-3
 70
               0
 10
0.0
 20
0.0
 30
0.0
  3
CS-PBDAS10-3
  1

  0
CIRCLE
  5
143
100
AcDbEntity
  8
0
  6
CONTINUOUS
 62
               4
100
AcDbCircle
 10
0.0
 20
0.0
 30
0.0
 40
2.0670000000000002
  0
LINE
  5
144
100
AcDbEntity
  8
0
  6
CENTER
 62
               2
100
AcDbLine
 10
-8.6798145469692543
 20
0.0
 30
0.0
 11
8.8929081655180937
 21
0.0
 31
0.0
  0
LINE
  5
145
100
AcDbEntity
  8
0
  6
CONTINUOUS
 62
               7
100
AcDbLine
 10
-3.6055512754639665
 20
6.0
 30
0.0
 11
-3.25
 21
6.0
 31
0.0
  0
ARC
  5
146
100
AcDbEntity
  8
0
  6
CONTINUOUS
 62
               7
100
AcDbCircle
 10
0.0000000000000142
 20
0.0
 30
0.0
 40
7.0
100
AcDbArc
 50
128.27215584374315
 51
148.9972811777732
  0
ARC
  5
147
100
AcDbEntity
  8
0
  6
CONTINUOUS
 62
               7
100
AcDbCircle
 10
0.0000000000000142
 20
0.0
 30
0.0
 40
7.0
100
AcDbArc
 50
31.002718822226768
 51
34.089263281856724
  0
ARC
  5
148
100
AcDbEntity
  8
0
  6
CONTINUOUS
 62
               7
100
AcDbCircle
 10
0.0000000000000142
 20
0.0
 30
0.0
 40
7.0
100
AcDbArc
 50
301.00271913387394
 51
328.99728117777323
  0
LINE
  5
149
100
AcDbEntity
  8
0
  6
CONTINUOUS
 62
               7
100
AcDbLine
 10
-3.6055512754639665
 20
-6.0
 30
0.0
 11
3.6055512754639949
 21
-6.0
 31
0.0
  0
ARC
  5
14A
100
AcDbEntity
  8
0
  6
CONTINUOUS
 62
               7
100
AcDbCircle
 10
0.0000000000000142
 20
0.0
 30
0.0
 40
7.0
100
AcDbArc
 50
211.00271882222677
 51
238.99728086612603
  0
LINE
  5
14B
100
AcDbEntity
  8
0
  6
CONTINUOUS
 62
               7
100
AcDbLine
 10
-5.9999999999999858
 20
3.6055512754639949
 30
0.0
 11
-5.9999999999999858
 21
-3.6055512754639878
 31
0.0
  0
LINE
  5
14C
100
AcDbEntity
  8
0
  6
CONTINUOUS
 62
               7
100
AcDbLine
 10
6.0000000000000142
 20
3.6055512754639878
 30
0.0
 11
6.0000000000000142
 21
-3.6055512754639878
 31
0.0
  0
CIRCLE
  5
14D
100
AcDbEntity
  8
0
  6
CONTINUOUS
 62
               4
100
AcDbCircle
 10
0.0
 20
0.0
 30
0.0
 40
5.5
  0
CIRCLE
  5
14E
100
AcDbEntity
  8
0
  6
CONTINUOUS
 62
             200
100
AcDbCircle
 10
0.0
 20
0.0
 30
0.0
 40
2.5
  0
LINE
  5
14F
100
AcDbEntity
  8
0
  6
CONTINUOUS
 62
               4
100
AcDbLine
 10
-6.9999999999999858
 20
4.0414518843273726
 30
0.0
 11
-4.3079130118440077
 21
5.5957290316211257
 31
0.0
  0
LINE
  5
150
100
AcDbEntity
  8
0
  6
CONTINUOUS
 62
               4
100
AcDbLine
 10
3.25
 20
6.2065153937884929
 30
0.0
 11
5.0213940194640543
 21
5.1838005798100326
 31
0.0
  0
LINE
  5
151
100
AcDbEntity
  8
0
  6
CONTINUOUS
 62
               4
100
AcDbLine
 10
7.0000000000000142
 20
4.0414518843273797
 30
0.0
 11
7.0000000000000284
 21
-4.0414518843273903
 31
0.0
  0
LINE
  5
152
100
AcDbEntity
  8
0
  6
CONTINUOUS
 62
               4
100
AcDbLine
 10
7.0000000000000142
 20
-4.0414518843273832
 30
0.0
 11
0.0000000000000142
 21
-8.0829037686547771
 31
0.0
  0
LINE
  5
153
100
AcDbEntity
  8
0
  6
CONTINUOUS
 62
               4
100
AcDbLine
 10
0.0000000000000142
 20
-8.0829037686547629
 30
0.0
 11
-7.0
 21
-4.0414518843273868
 31
0.0
  0
LINE
  5
154
100
AcDbEntity
  8
0
  6
CONTINUOUS
 62
               4
100
AcDbLine
 10
-6.9999999999999858
 20
-4.0414518843273832
 30
0.0
 11
-7.0
 21
4.0414518843273868
 31
0.0
  0
LINE
  5
155
100
AcDbEntity
  8
0
  6
CONTINUOUS
 62
               4
100
AcDbLine
 10
-3.5
 20
8.5
 30
0.0
 11
-5.4433097927877299
 21
1.5142253794403544
 31
0.0
  0
LINE
  5
156
100
AcDbEntity
  8
0
  6
CONTINUOUS
 62
               4
100
AcDbLine
 10
-3.3500000000000085
 20
8.5
 30
0.0
 11
-5.2999046729730566
 21
1.4700375700635533
 31
0.0
  0
CIRCLE
  5
157
100
AcDbEntity
  8
0
  6
CONTINUOUS
 62
               4
100
AcDbCircle
 10
0.0
 20
8.2999999999999972
 30
0.0
 40
1.2999999999999972
  0
LINE
  5
158
100
AcDbEntity
  8
0
  6
CONTINUOUS
 62
               4
100
AcDbLine
 10
-3.25
 20
12.0
 30
0.0
 11
3.25
 21
12.0
 31
0.0
  0
LINE
  5
159
100
AcDbEntity
  8
0
  6
CONTINUOUS
 62
               4
100
AcDbLine
 10
-2.0499999999999972
 20
6.3000000000000114
 30
0.0
 11
2.0499999999999972
 21
6.3000000000000114
 31
0.0
  0
LINE
  5
15A
100
AcDbEntity
  8
0
  6
CONTINUOUS
 62
               4
100
AcDbLine
 10
-2.0499999999999972
 20
10.300000000000011
 30
0.0
 11
2.0499999999999972
 21
10.300000000000011
 31
0.0
  0
LINE
  5
15B
100
AcDbEntity
  8
0
  6
CONTINUOUS
 62
               4
100
AcDbLine
 10
-1.0
 20
10.599999999999994
 30
0.0
 11
1.0
 21
10.599999999999994
 31
0.0
  0
LINE
  5
15C
100
AcDbEntity
  8
0
  6
CONTINUOUS
 62
               4
100
AcDbLine
 10
-1.0
 20
6.3000000000000114
 30
0.0
 11
-1.0
 21
6.0
 31
0.0
  0
LINE
  5
15D
100
AcDbEntity
  8
0
  6
CONTINUOUS
 62
               4
100
AcDbLine
 10
-3.25
 20
11.300000000000011
 30
0.0
 11
3.25
 21
11.300000000000011
 31
0.0
  0
LINE
  5
15E
100
AcDbEntity
  8
0
  6
CONTINUOUS
 62
               4
100
AcDbLine
 10
-3.25
 20
8.0999999999999943
 30
0.0
 11
-3.25
 21
5.5
 31
0.0
  0
LINE
  5
15F
100
AcDbEntity
  8
0
  6
CONTINUOUS
 62
               4
100
AcDbLine
 10
-2.5
 20
16.0
 30
0.0
 11
2.5
 21
16.0
 31
0.0
  0
LINE
  5
160
100
AcDbEntity
  8
0
  6
CONTINUOUS
 62
               4
100
AcDbLine
 10
-3.5
 20
15.0
 30
0.0
 11
3.5
 21
15.0
 31
0.0
  0
LINE
  5
161
100
AcDbEntity
  8
0
  6
CONTINUOUS
 62
               4
100
AcDbLine
 10
-2.0
 20
13.5
 30
0.0
 11
2.0
 21
13.5
 31
0.0
  0
LINE
  5
162
100
AcDbEntity
  8
0
  6
CONTINUOUS
 62
               4
100
AcDbLine
 10
-3.0
 20
14.200000000000003
 30
0.0
 11
3.0
 21
14.200000000000003
 31
0.0
  0
LINE
  5
163
100
AcDbEntity
  8
0
  6
CONTINUOUS
 62
               4
100
AcDbLine
 10
-1.5
 20
17.5
 30
0.0
 11
1.5
 21
17.5
 31
0.0
  0
LINE
  5
164
100
AcDbEntity
  8
0
  6
CONTINUOUS
 62
               4
100
AcDbLine
 10
-1.2999999999999972
 20
7.0
 30
0.0
 11
1.2999999999999972
 21
7.0
 31
0.0
  0
LINE
  5
165
100
AcDbEntity
  8
0
  6
CONTINUOUS
 62
               4
100
AcDbLine
 10
-1.2999999999999972
 20
9.5999999999999943
 30
0.0
 11
1.2999999999999972
 21
9.5999999999999943
 31
0.0
  0
ARC
  5
166
100
AcDbEntity
  8
0
  6
CONTINUOUS
 62
               4
100
AcDbCircle
 10
-1.4998704365679885
 20
16.499870436567988
 30
0.0
 40
1.0001295718242713
100
AcDbArc
 50
90.007422476110804
 51
179.99257752388911
  0
ARC
  5
167
100
AcDbEntity
  8
0
  6
CONTINUOUS
 62
               4
100
AcDbCircle
 10
-3.4998616535656737
 20
14.199861653565677
 30
0.0
 40
0.8001383583945874
100
AcDbArc
 50
90.009906620215929
 51
179.99009337978379
  0
ARC
  5
168
100
AcDbEntity
  8
0
  6
CONTINUOUS
 62
               4
100
AcDbCircle
 10
-2.9998398445983412
 20
13.699839844598344
 30
0.0
 40
0.5001601810431999
100
AcDbArc
 50
90.018346579927808
 51
179.98165342007246
  0
LINE
  5
169
100
AcDbEntity
  8
0
  6
CONTINUOUS
 62
               4
100
AcDbLine
 10
-1.2999999999999972
 20
7.0
 30
0.0
 11
-2.0499999999999972
 21
6.3000000000000114
 31
0.0
  0
LINE
  5
16A
100
AcDbEntity
  8
0
  6
CONTINUOUS
 62
               4
100
AcDbLine
 10
-2.0499999999999972
 20
10.300000000000011
 30
0.0
 11
-1.2999999999999972
 21
9.5999999999999943
 31
0.0
  0
LINE
  5
16B
100
AcDbEntity
  8
0
  6
CONTINUOUS
 62
               4
100
AcDbLine
 10
-1.2999999999999972
 20
9.5999999999999943
 30
0.0
 11
-1.2999999999999972
 21
7.0
 31
0.0
  0
LINE
  5
16C
100
AcDbEntity
  8
0
  6
CONTINUOUS
 62
             200
100
AcDbLine
 10
-1.230000000000004
 20
13.5
 30
0.0
 11
-1.230000000000004
 21
12.030000000000015
 31
0.0
  0
LINE
  5
16D
100
AcDbEntity
  8
0
  6
CONTINUOUS
 62
               4
100
AcDbLine
 10
-1.5
 20
13.5
 30
0.0
 11
-1.5
 21
12.299999999999983
 31
0.0
  0
LINE
  5
16E
100
AcDbEntity
  8
0
  6
CONTINUOUS
 62
               4
100
AcDbLine
 10
-2.5
 20
16.5
 30
0.0
 11
-2.5
 21
16.0
 31
0.0
  0
LINE
  5
16F
100
AcDbEntity
  8
0
  6
CONTINUOUS
 62
             200
100
AcDbLine
 10
-1.230000000000004
 20
16.0
 30
0.0
 11
-1.230000000000004
 21
15.0
 31
0.0
  0
LINE
  5
170
100
AcDbEntity
  8
0
  6
CONTINUOUS
 62
               4
100
AcDbLine
 10
-1.5
 20
16.0
 30
0.0
 11
-1.5
 21
15.0
 31
0.0
  0
LINE
  5
171
100
AcDbEntity
  8
0
  6
CONTINUOUS
 62
               4
100
AcDbLine
 10
-3.5
 20
13.700000000000003
 30
0.0
 11
-3.3500000000000085
 21
13.700000000000003
 31
0.0
  0
LINE
  5
172
100
AcDbEntity
  8
0
  6
CONTINUOUS
 62
               4
100
AcDbLine
 10
-3.3500000000000085
 20
13.700000000000003
 30
0.0
 11
-3.3500000000000085
 21
8.5
 31
0.0
  0
LINE
  5
173
100
AcDbEntity
  8
0
  6
CONTINUOUS
 62
               4
100
AcDbLine
 10
-4.2999999999999972
 20
8.5
 30
0.0
 11
-3.5
 21
8.5
 31
0.0
  0
LINE
  5
174
100
AcDbEntity
  8
0
  6
CONTINUOUS
 62
               4
100
AcDbLine
 10
-2.0600000000000023
 20
14.200000000000003
 30
0.0
 11
-2.0
 21
13.5
 31
0.0
  0
LINE
  5
175
100
AcDbEntity
  8
0
  6
CONTINUOUS
 62
               4
100
AcDbLine
 10
-4.2999999999999972
 20
14.200000000000003
 30
0.0
 11
-4.2999999999999972
 21
8.5
 31
0.0
  0
LINE
  5
176
100
AcDbEntity
  8
0
  6
CONTINUOUS
 62
               4
100
AcDbLine
 10
-3.5
 20
13.700000000000003
 30
0.0
 11
-3.5
 21
8.5
 31
0.0
  0
LINE
  5
177
100
AcDbEntity
  8
0
  6
CONTINUOUS
 62
               4
100
AcDbLine
 10
-2.0499999999999972
 20
10.300000000000011
 30
0.0
 11
-2.0499999999999972
 21
6.3000000000000114
 31
0.0
  0
LINE
  5
178
100
AcDbEntity
  8
0
  6
CONTINUOUS
 62
               4
100
AcDbLine
 10
-3.25
 20
8.5
 30
0.0
 11
-2.0499999999999972
 21
8.5
 31
0.0
  0
LINE
  5
179
100
AcDbEntity
  8
0
  6
CONTINUOUS
 62
               4
100
AcDbLine
 10
-3.25
 20
8.0999999999999943
 30
0.0
 11
-2.0499999999999972
 21
8.0999999999999943
 31
0.0
  0
LINE
  5
17A
100
AcDbEntity
  8
0
  6
CONTINUOUS
 62
               4
100
AcDbLine
 10
-1.0
 20
10.599999999999994
 30
0.0
 11
-1.0
 21
10.300000000000011
 31
0.0
  0
LINE
  5
17B
100
AcDbEntity
  8
0
  6
CONTINUOUS
 62
               4
100
AcDbLine
 10
-3.25
 20
12.0
 30
0.0
 11
-3.25
 21
8.5
 31
0.0
  0
LINE
  5
17C
100
AcDbEntity
  8
0
  6
CONTINUOUS
 62
               4
100
AcDbLine
 10
-1.5
 20
12.299999999999983
 30
0.0
 11
-1.1999999999999886
 21
12.0
 31
0.0
  0
LINE
  5
17D
100
AcDbEntity
  8
0
  6
CONTINUOUS
 62
               4
100
AcDbLine
 10
4.8471949482611763
 20
13.682396523003973
 30
0.0
 11
5.8644789379659841
 21
3.2317920771218951
 31
0.0
  0
LINE
  5
17E
100
AcDbEntity
  8
0
  6
CONTINUOUS
 62
               4
100
AcDbLine
 10
4.3495471175048834
 20
13.633954428256125
 30
0.0
 11
5.6234204875460705
 21
0.5473956706506868
 31
0.0
  0
LINE
  5
17F
100
AcDbEntity
  8
0
  6
CONTINUOUS
 62
               4
100
AcDbLine
 10
4.8300000000000125
 20
7.1500000000000057
 30
0.0
 11
5.4741261383191784
 21
0.5328630422263316
 31
0.0
  0
LINE
  5
180
100
AcDbEntity
  8
0
  6
CONTINUOUS
 62
               4
100
AcDbLine
 10
3.25
 20
12.0
 30
0.0
 11
3.25
 21
5.5
 31
0.0
  0
LINE
  5
181
100
AcDbEntity
  8
0
  6
CONTINUOUS
 62
               4
100
AcDbLine
 10
2.0499999999999972
 20
10.300000000000011
 30
0.0
 11
2.0499999999999972
 21
6.3000000000000114
 31
0.0
  0
LINE
  5
182
100
AcDbEntity
  8
0
  6
CONTINUOUS
 62
               4
100
AcDbLine
 10
1.2999999999999972
 20
7.0
 30
0.0
 11
2.0499999999999972
 21
6.3000000000000114
 31
0.0
  0
ARC
  5
183
100
AcDbEntity
  8
0
  6
CONTINUOUS
 62
               4
100
AcDbCircle
 10
1.5076267191957271
 20
16.507626719195741
 30
0.0
 40
0.9924025873101658
100
AcDbArc
 50
359.55967151986556
 51
90.440328480134554
  0
ARC
  5
184
100
AcDbEntity
  8
0
  6
CONTINUOUS
 62
               4
100
AcDbCircle
 10
3.5076251918623171
 20
14.20762519186232
 30
0.0
 40
0.7924114967125058
100
AcDbArc
 50
359.44864750662862
 51
90.551352493371425
  0
ARC
  5
185
100
AcDbEntity
  8
0
  6
CONTINUOUS
 62
               4
100
AcDbCircle
 10
3.0076251879642228
 20
13.707625187964226
 30
0.0
 40
0.4924338524296972
100
AcDbArc
 50
359.11275687609748
 51
90.88724312390211
  0
LINE
  5
186
100
AcDbEntity
  8
0
  6
CONTINUOUS
 62
               4
100
AcDbLine
 10
1.2999999999999972
 20
9.5999999999999943
 30
0.0
 11
2.0499999999999972
 21
10.300000000000011
 31
0.0
  0
LINE
  5
187
100
AcDbEntity
  8
0
  6
CONTINUOUS
 62
               4
100
AcDbLine
 10
1.2999999999999972
 20
9.5999999999999943
 30
0.0
 11
1.2999999999999972
 21
7.0
 31
0.0
  0
LINE
  5
188
100
AcDbEntity
  8
0
  6
CONTINUOUS
 62
               4
100
AcDbLine
 10
1.5
 20
13.5
 30
0.0
 11
1.5
 21
12.299999999999983
 31
0.0
  0
LINE
  5
189
100
AcDbEntity
  8
0
  6
CONTINUOUS
 62
             200
100
AcDbLine
 10
1.230000000000004
 20
13.5
 30
0.0
 11
1.230000000000004
 21
12.029999999999987
 31
0.0
  0
LINE
  5
18A
100
AcDbEntity
  8
0
  6
CONTINUOUS
 62
               4
100
AcDbLine
 10
2.5
 20
16.5
 30
0.0
 11
2.5
 21
16.0
 31
0.0
  0
LINE
  5
18B
100
AcDbEntity
  8
0
  6
CONTINUOUS
 62
             200
100
AcDbLine
 10
1.230000000000004
 20
16.0
 30
0.0
 11
1.230000000000004
 21
15.0
 31
0.0
  0
LINE
  5
18C
100
AcDbEntity
  8
0
  6
CONTINUOUS
 62
               4
100
AcDbLine
 10
1.5
 20
16.0
 30
0.0
 11
1.5
 21
15.0
 31
0.0
  0
LINE
  5
18D
100
AcDbEntity
  8
0
  6
CONTINUOUS
 62
               4
100
AcDbLine
 10
5.1578917890397662
 20
10.490593822457761
 30
0.0
 11
5.8999999999999915
 21
10.930000000000007
 31
0.0
  0
LINE
  5
18E
100
AcDbEntity
  8
0
  6
CONTINUOUS
 62
               4
100
AcDbLine
 10
5.0721490645728124
 20
11.371432709715208
 30
0.0
 11
5.0999999999999943
 21
11.390000000000001
 31
0.0
  0
LINE
  5
18F
100
AcDbEntity
  8
0
  6
CONTINUOUS
 62
               4
100
AcDbLine
 10
4.2999999999999972
 20
10.930000000000007
 30
0.0
 11
4.5967100061319854
 21
11.094838892295563
 31
0.0
  0
LINE
  5
190
100
AcDbEntity
  8
0
  6
CONTINUOUS
 62
               4
100
AcDbLine
 10
5.0999999999999943
 20
13.300000000000011
 30
0.0
 11
5.0999999999999943
 21
11.390000000000001
 31
0.0
  0
LINE
  5
191
100
AcDbEntity
  8
0
  6
CONTINUOUS
 62
               4
100
AcDbLine
 10
5.0999999999999943
 20
13.300000000000011
 30
0.0
 11
5.8999999999999915
 21
13.300000000000011
 31
0.0
  0
LINE
  5
192
100
AcDbEntity
  8
0
  6
CONTINUOUS
 62
               4
100
AcDbLine
 10
5.8999999999999915
 20
13.300000000000011
 30
0.0
 11
5.8999999999999915
 21
10.930000000000007
 31
0.0
  0
LINE
  5
193
100
AcDbEntity
  8
0
  6
CONTINUOUS
 62
               4
100
AcDbLine
 10
4.2999999999999972
 20
10.0
 30
0.0
 11
4.6816147512409856
 21
10.222608604890588
 31
0.0
  0
LINE
  5
194
100
AcDbEntity
  8
0
  6
CONTINUOUS
 62
               4
100
AcDbLine
 10
3.5
 20
7.8000000000000114
 30
0.0
 11
4.2999999999999972
 21
7.8000000000000114
 31
0.0
  0
LINE
  5
195
100
AcDbEntity
  8
0
  6
CONTINUOUS
 62
               4
100
AcDbLine
 10
2.0600000000000023
 20
14.200000000000003
 30
0.0
 11
2.0
 21
13.5
 31
0.0
  0
LINE
  5
196
100
AcDbEntity
  8
0
  6
CONTINUOUS
 62
               4
100
AcDbLine
 10
4.2999999999999972
 20
14.200000000000003
 30
0.0
 11
4.2999999999999972
 21
7.8000000000000114
 31
0.0
  0
LINE
  5
197
100
AcDbEntity
  8
0
  6
CONTINUOUS
 62
               4
100
AcDbLine
 10
3.5
 20
13.700000000000003
 30
0.0
 11
3.5
 21
7.8000000000000114
 31
0.0
  0
LINE
  5
198
100
AcDbEntity
  8
0
  6
CONTINUOUS
 62
               4
100
AcDbLine
 10
1.0
 20
10.599999999999994
 30
0.0
 11
1.0
 21
10.300000000000011
 31
0.0
  0
LINE
  5
199
100
AcDbEntity
  8
0
  6
CONTINUOUS
 62
               4
100
AcDbLine
 10
4.8300000000000125
 20
7.1500000000000057
 30
0.0
 11
4.9792943492269046
 21
7.1645326284243609
 31
0.0
  0
LINE
  5
19A
100
AcDbEntity
  8
0
  6
CONTINUOUS
 62
               4
100
AcDbLine
 10
4.3495471175048834
 20
13.633954428256125
 30
0.0
 11
4.8471949482611763
 21
13.682396523003973
 31
0.0
  0
LINE
  5
19B
100
AcDbEntity
  8
0
  6
CONTINUOUS
 62
               4
100
AcDbLine
 10
1.5
 20
12.299999999999983
 30
0.0
 11
1.2000000000000171
 21
12.0
 31
0.0
  0
LINE
  5
19C
100
AcDbEntity
  8
0
  6
CONTINUOUS
 62
               4
100
AcDbLine
 10
2.75
 20
5.0
 30
0.0
 11
3.25
 21
5.5
 31
0.0
  0
LINE
  5
19D
100
AcDbEntity
  8
0
  6
CONTINUOUS
 62
               4
100
AcDbLine
 10
5.3668311072096913
 20
3.1833499823740468
 30
0.0
 11
5.8644789379659841
 21
3.2317920771218951
 31
0.0
  0
LINE
  5
19E
100
AcDbEntity
  8
0
  6
CONTINUOUS
 62
               4
100
AcDbLine
 10
-1.0
 20
6.0
 30
0.0
 11
1.0
 21
6.0
 31
0.0
  0
LINE
  5
19F
100
AcDbEntity
  8
0
  6
CONTINUOUS
 62
               4
100
AcDbLine
 10
1.0
 20
6.3000000000000114
 30
0.0
 11
1.0
 21
6.0
 31
0.0
  0
LINE
  5
1A0
100
AcDbEntity
  8
0
  6
CONTINUOUS
 62
               4
100
AcDbLine
 10
-2.75
 20
5.0
 30
0.0
 11
-3.25
 21
5.5
 31
0.0
  0
LINE
  5
1A1
100
AcDbEntity
  8
0
  6
CONTINUOUS
 62
               4
100
AcDbLine
 10
-2.75
 20
5.0
 30
0.0
 11
-2.2912878474779177
 21
5.0
 31
0.0
  0
ARC
  5
1A2
100
AcDbEntity
  8
0
  6
CONTINUOUS
 62
               4
100
AcDbCircle
 10
0.0
 20
0.0
 30
0.0
 40
5.6500000000000004
100
AcDbArc
 50
164.45444306489551
 51
5.5597762534596136
  0
LINE
  5
1A3
100
AcDbEntity
  8
0
  6
CONTINUOUS
 62
               4
100
AcDbLine
 10
5.7133548356925843
 20
4.7842968162918211
 30
0.0
 11
7.0000000000000284
 21
4.0414518843273868
 31
0.0
  0
LINE
  5
1A4
100
AcDbEntity
  8
0
  6
CONTINUOUS
 62
               4
100
AcDbLine
 10
-4.1265093036618339
 20
5.7004625113721019
 30
0.0
 11
-3.25
 21
6.2065153937884787
 31
0.0
  0
ARC
  5
1A5
100
AcDbEntity
  8
0
  6
CONTINUOUS
 62
               7
100
AcDbCircle
 10
0.0000000000000142
 20
0.0
 30
0.0
 40
7.0
100
AcDbArc
 50
43.772986955198064
 51
58.997280866126033
  0
ARC
  5
1A6
100
AcDbEntity
  8
0
  6
CONTINUOUS
 62
               7
100
AcDbCircle
 10
0.0000000000000142
 20
0.0
 30
0.0
 40
7.0
100
AcDbArc
 50
121.00271913387397
 51
126.28434066729227
  0
LINE
  5
1A7
100
AcDbEntity
  8
0
  6
CONTINUOUS
 62
               7
100
AcDbLine
 10
3.25
 20
6.0
 30
0.0
 11
3.6055512754639949
 21
6.0
 31
0.0
  0
LINE
  5
1A8
100
AcDbEntity
  8
0
  6
CONTINUOUS
 62
               4
100
AcDbLine
 10
2.2912878474779177
 20
5.0
 30
0.0
 11
2.75
 21
5.0
 31
0.0
  0
LINE
  5
1A9
100
AcDbEntity
  8
0
  6
CENTER
 62
               2
100
AcDbLine
 10
0.0
 20
-10.115444904086356
 30
0.0
 11
0.0
 21
19.662422329920865
 31
0.0
  0
ENDBLK
  5
1AA
100
AcDbEntity
  8
0
100
AcDbBlockEnd
  0
BLOCK
  5
1AB
100
AcDbEntity
  8
0
100
AcDbBlockBegin
  2
CS-PBDAS10-4
 70
               0
 10
0.0
 20
0.0
 30
0.0
  3
CS-PBDAS10-4
  1

  0
LINE
  5
1AC
100
AcDbEntity
  8
0
  6
CONTINUOUS
 62
               4
100
AcDbLine
 10
-2.0
 20
4.8471949482611834
 30
0.0
 11
-2.0
 21
5.8644789379660054
 31
0.0
  0
LINE
  5
1AD
100
AcDbEntity
  8
0
  6
CONTINUOUS
 62
               4
100
AcDbLine
 10
-4.4999999783108535
 20
5.8644789379660054
 30
0.0
 11
4.5000000216891465
 21
5.8644789379660054
 31
0.0
  0
LINE
  5
1AE
100
AcDbEntity
  8
0
  6
CONTINUOUS
 62
               4
100
AcDbLine
 10
-2.0000000095367341
 20
5.1000000000000014
 30
0.0
 11
1.9999999904632659
 21
5.1000000000000014
 31
0.0
  0
CIRCLE
  5
1AF
100
AcDbEntity
  8
0
  6
CONTINUOUS
 62
               4
100
AcDbCircle
 10
-0.0008752441406159
 20
-0.0024584960937304
 30
0.0
 40
2.5
  0
LINE
  5
1B0
100
AcDbEntity
  8
0
  6
CONTINUOUS
 62
               4
100
AcDbLine
 10
7.0
 20
-1.9999999999999929
 30
0.0
 11
12.5
 21
-1.9999999999999929
 31
0.0
  0
LINE
  5
1B1
100
AcDbEntity
  8
0
  6
CONTINUOUS
 62
               4
100
AcDbLine
 10
7.0
 20
2.0000000000000071
 30
0.0
 11
12.5
 21
2.0000000000000071
 31
0.0
  0
LINE
  5
1B2
100
AcDbEntity
  8
0
  6
CONTINUOUS
 62
               4
100
AcDbLine
 10
4.5
 20
-3.2499999999999929
 30
0.0
 11
7.0
 21
-3.2499999999999929
 31
0.0
  0
LINE
  5
1B3
100
AcDbEntity
  8
0
  6
CONTINUOUS
 62
               4
100
AcDbLine
 10
4.5
 20
3.2500000000000071
 30
0.0
 11
7.0
 21
3.2500000000000071
 31
0.0
  0
LINE
  5
1B4
100
AcDbEntity
  8
0
  6
CONTINUOUS
 62
               4
100
AcDbLine
 10
7.0
 20
-3.2499999999999929
 30
0.0
 11
7.0
 21
3.2500000000000071
 31
0.0
  0
LINE
  5
1B5
100
AcDbEntity
  8
0
  6
CONTINUOUS
 62
               4
100
AcDbLine
 10
-6.9999999999999929
 20
3.2500000000000071
 30
0.0
 11
-4.5
 21
3.2500000000000071
 31
0.0
  0
LINE
  5
1B6
100
AcDbEntity
  8
0
  6
CONTINUOUS
 62
               4
100
AcDbLine
 10
-6.9999999999999929
 20
-3.2499999999999929
 30
0.0
 11
-4.5
 21
-3.2499999999999929
 31
0.0
  0
LINE
  5
1B7
100
AcDbEntity
  8
0
  6
CONTINUOUS
 62
               4
100
AcDbLine
 10
-12.499999999999993
 20
-0.9999999999999929
 30
0.0
 11
-11.499999999999993
 21
-1.9999999999999929
 31
0.0
  0
LINE
  5
1B8
100
AcDbEntity
  8
0
  6
CONTINUOUS
 62
               4
100
AcDbLine
 10
-12.499999999999993
 20
1.0000000000000071
 30
0.0
 11
-11.499999999999993
 21
2.0000000000000071
 31
0.0
  0
LINE
  5
1B9
100
AcDbEntity
  8
0
  6
CONTINUOUS
 62
               4
100
AcDbLine
 10
-11.499999999999993
 20
2.0000000000000071
 30
0.0
 11
-11.499999999999993
 21
-1.9999999999999929
 31
0.0
  0
LINE
  5
1BA
100
AcDbEntity
  8
0
  6
CONTINUOUS
 62
               4
100
AcDbLine
 10
-11.499999999999993
 20
2.0000000000000071
 30
0.0
 11
-6.9999999999999929
 21
2.0000000000000071
 31
0.0
  0
LINE
  5
1BB
100
AcDbEntity
  8
0
  6
CONTINUOUS
 62
               4
100
AcDbLine
 10
-11.499999999999993
 20
-1.9999999999999929
 30
0.0
 11
-6.9999999999999929
 21
-1.9999999999999929
 31
0.0
  0
LINE
  5
1BC
100
AcDbEntity
  8
0
  6
CONTINUOUS
 62
               4
100
AcDbLine
 10
-12.499999999999993
 20
1.0000000000000071
 30
0.0
 11
-12.499999999999993
 21
-0.9999999999999929
 31
0.0
  0
LINE
  5
1BD
100
AcDbEntity
  8
0
  6
CONTINUOUS
 62
               4
100
AcDbLine
 10
12.5
 20
2.0000000000000071
 30
0.0
 11
12.5
 21
-1.9999999999999929
 31
0.0
  0
LINE
  5
1BE
100
AcDbEntity
  8
0
  6
CONTINUOUS
 62
               4
100
AcDbLine
 10
1.0074334140435948
 20
-1.0025665859563944
 30
0.0
 11
-1.0625665859564126
 21
1.0574334140435795
 31
0.0
  0
LINE
  5
1BF
100
AcDbEntity
  8
0
  6
CONTINUOUS
 62
               4
100
AcDbLine
 10
-1.0625665859564126
 20
-1.0625665859563966
 30
0.0
 11
1.0574334140435919
 21
1.0574334140435795
 31
0.0
  0
LINE
  5
1C0
100
AcDbEntity
  8
0
  6
CONTINUOUS
 62
               4
100
AcDbLine
 10
1.1099999999999994
 20
-1.0999999999999872
 30
0.0
 11
1.0600000000000023
 21
-1.0599999999999952
 31
0.0
  0
LINE
  5
1C1
100
AcDbEntity
  8
0
  6
CONTINUOUS
 62
               4
100
AcDbLine
 10
-4.5
 20
-5.6499999999999702
 30
0.0
 11
4.5
 21
-5.6499999999999702
 31
0.0
  0
LINE
  5
1C2
100
AcDbEntity
  8
0
  6
CONTINUOUS
 62
               4
100
AcDbLine
 10
-6.9999999999999929
 20
-3.2499999999999929
 30
0.0
 11
-6.9999999999999929
 21
3.2500000000000071
 31
0.0
  0
LINE
  5
1C3
100
AcDbEntity
  8
0
  6
CONTINUOUS
 62
               4
100
AcDbLine
 10
-4.5000000095367341
 20
-4.3000000000000043
 30
0.0
 11
4.5
 21
-4.3000000000000043
 31
0.0
  0
LINE
  5
1C4
100
AcDbEntity
  8
0
  6
CONTINUOUS
 62
               4
100
AcDbLine
 10
-4.5000000095367341
 20
4.3000366885748136
 30
0.0
 11
4.5
 21
4.3000366885748136
 31
0.0
  0
LINE
  5
1C5
100
AcDbEntity
  8
0
  6
CONTINUOUS
 62
               4
100
AcDbLine
 10
12.5
 20
2.0000000000000071
 30
0.0
 11
15.5
 21
1.2999999999999901
 31
0.0
  0
LINE
  5
1C6
100
AcDbEntity
  8
0
  6
CONTINUOUS
 62
               4
100
AcDbLine
 10
15.499999990463266
 20
1.2999999999999901
 30
0.0
 11
20.436999077164955
 21
1.2999999999999901
 31
0.0
  0
LINE
  5
1C7
100
AcDbEntity
  8
0
  6
CONTINUOUS
 62
               4
100
AcDbLine
 10
15.499999990463266
 20
-1.3000000000000043
 30
0.0
 11
17.836999077164961
 21
-1.3000000000000043
 31
0.0
  0
LINE
  5
1C8
100
AcDbEntity
  8
0
  6
CONTINUOUS
 62
               4
100
AcDbLine
 10
12.5
 20
-1.9999999999999929
 30
0.0
 11
15.499999990463266
 21
-1.3000000000000043
 31
0.0
  0
LINE
  5
1C9
100
AcDbEntity
  8
0
  6
CONTINUOUS
 62
             200
100
AcDbLine
 10
20.436999077164955
 20
1.2999999999999901
 30
0.0
 11
17.836999077164961
 21
-1.3000000000000043
 31
0.0
  0
LINE
  5
1CA
100
AcDbEntity
  8
0
  6
CONTINUOUS
 62
               4
100
AcDbLine
 10
-4.4999999783108535
 20
4.8471949482611834
 30
0.0
 11
4.5000000216891465
 21
4.8471949482611834
 31
0.0
  0
LINE
  5
1CB
100
AcDbEntity
  8
0
  6
CONTINUOUS
 62
               4
100
AcDbLine
 10
-4.5
 20
-5.6499999999999702
 30
0.0
 11
-4.5
 21
5.8644789379660054
 31
0.0
  0
LINE
  5
1CC
100
AcDbEntity
  8
0
  6
CONTINUOUS
 62
               4
100
AcDbLine
 10
4.5
 20
-5.6499999999999702
 30
0.0
 11
4.5
 21
5.8644789379660054
 31
0.0
  0
LINE
  5
1CD
100
AcDbEntity
  8
0
  6
CONTINUOUS
 62
               4
100
AcDbLine
 10
2.0
 20
5.8644789379660054
 30
0.0
 11
2.0
 21
4.8471949482611834
 31
0.0
  0
LINE
  5
1CE
100
AcDbEntity
  8
0
  6
CENTER
 62
             200
100
AcDbLine
 10
-14.634076711158585
 20
0.0000000000000071
 30
0.0
 11
21.671576029108593
 21
0.0000000000000071
 31
0.0
  0
LINE
  5
1CF
100
AcDbEntity
  8
0
  6
CONTINUOUS
 62
               4
100
AcDbLine
 10
15.499999990463266
 20
1.2999999999999901
 30
0.0
 11
15.499999990463266
 21
-1.3000000000000043
 31
0.0
  0
LINE
  5
1D0
100
AcDbEntity
  8
0
  6
CENTER
 62
             200
100
AcDbLine
 10
0.0
 20
7.3000000000000185
 30
0.0
 11
0.0
 21
-7.4199999999999804
 31
0.0
  0
ENDBLK
  5
1D1
100
AcDbEntity
  8
0
100
AcDbBlockEnd
  0
BLOCK
  5
1D2
100
AcDbEntity
  8
0
100
AcDbBlockBegin
  2
CS-PBDAS10-5
 70
               0
 10
0.0
 20
0.0
 30
0.0
  3
CS-PBDAS10-5
  1

  0
CIRCLE
  5
1D3
100
AcDbEntity
  8
0
  6
CONTINUOUS
 62
               4
100
AcDbCircle
 10
0.0
 20
0.0
 30
0.0
 40
5.0
  0
LINE
  5
1D4
100
AcDbEntity
  8
0
  6
CONTINUOUS
 62
               4
100
AcDbLine
 10
-21.00000000500853
 20
-14.0
 30
0.0
 11
20.99999999499147
 21
-14.0
 31
0.0
  0
LINE
  5
1D5
100
AcDbEntity
  8
0
  6
CONTINUOUS
 62
               4
100
AcDbLine
 10
-21.00000000500853
 20
-11.699999999999989
 30
0.0
 11
20.99999999499147
 21
-11.699999999999989
 31
0.0
  0
ARC
  5
1D6
100
AcDbEntity
  8
0
  6
CONTINUOUS
 62
               4
100
AcDbCircle
 10
0.0
 20
0.0
 30
0.0
 40
10.0
100
AcDbArc
 50
36.294600266468315
 51
143.70539973353175
  0
LINE
  5
1D7
100
AcDbEntity
  8
0
  6
CONTINUOUS
 62
               4
100
AcDbLine
 10
-21.0
 20
-13.999999987824367
 30
0.0
 11
-21.0
 21
-11.699999999999989
 31
0.0
  0
LINE
  5
1D8
100
AcDbEntity
  8
0
  6
CONTINUOUS
 62
               4
100
AcDbLine
 10
21.0
 20
-13.999999987824367
 30
0.0
 11
21.0
 21
-11.699999999999989
 31
0.0
  0
LINE
  5
1D9
100
AcDbEntity
  8
0
  6
CONTINUOUS
 62
               4
100
AcDbLine
 10
21.0
 20
-11.699999999999989
 30
0.0
 11
8.0598407184369307
 21
5.9193722296731721
 31
0.0
  0
LINE
  5
1DA
100
AcDbEntity
  8
0
  6
CONTINUOUS
 62
               4
100
AcDbLine
 10
-21.0
 20
-11.699999999999989
 30
0.0
 11
-8.0598407184369592
 21
5.9193722296731721
 31
0.0
  0
LINE
  5
1DB
100
AcDbEntity
  8
0
  6
CENTER
 62
             200
100
AcDbLine
 10
9.0
 20
0.0
 30
0.0
 11
-9.0
 21
0.0
 31
0.0
  0
LINE
  5
1DC
100
AcDbEntity
  8
0
  6
CENTER
 62
             200
100
AcDbLine
 10
0.0
 20
9.0
 30
0.0
 11
0.0
 21
-9.0
 31
0.0
  0
LINE
  5
1DD
100
AcDbEntity
  8
0
  6
CENTER
 62
             200
100
AcDbLine
 10
-14.600000000000023
 20
-8.8289725330620286
 30
0.0
 11
-14.600000000000023
 21
-16.711983723296044
 31
0.0
  0
LINE
  5
1DE
100
AcDbEntity
  8
0
  6
CENTER
 62
             200
100
AcDbLine
 10
14.599999999999966
 20
-8.8289725330620286
 30
0.0
 11
14.599999999999966
 21
-16.711983723296044
 31
0.0
  0
ENDBLK
  5
1DF
100
AcDbEntity
  8
0
100
AcDbBlockEnd
  0
BLOCK
  5
1E0
100
AcDbEntity
  8
0
100
AcDbBlockBegin
  2
CS-PBDAS10-6
 70
               0
 10
0.0
 20
0.0
 30
0.0
  3
CS-PBDAS10-6
  1

  0
LINE
  5
1E1
100
AcDbEntity
  8
0
  6
CONTINUOUS
 62
               4
100
AcDbLine
 10
-14.999999985231653
 20
-14.0
 30
0.0
 11
-3.4499999733107245
 21
-14.0
 31
0.0
  0
LINE
  5
1E2
100
AcDbEntity
  8
0
  6
CONTINUOUS
 62
               4
100
AcDbLine
 10
-14.999999985231653
 20
-11.699999999999989
 30
0.0
 11
-3.4499999733107245
 21
-11.699999999999989
 31
0.0
  0
LINE
  5
1E3
100
AcDbEntity
  8
0
  6
CONTINUOUS
 62
               4
100
AcDbLine
 10
-2.2999999971525824
 20
10.0
 30
0.0
 11
0.0
 21
10.0
 31
0.0
  0
LINE
  5
1E4
100
AcDbEntity
  8
0
  6
CONTINUOUS
 62
               4
100
AcDbLine
 10
0.0
 20
-10.549999999745296
 30
0.0
 11
0.0
 21
10.0
 31
0.0
  0
LINE
  5
1E5
100
AcDbEntity
  8
0
  6
CONTINUOUS
 62
               4
100
AcDbLine
 10
-2.2999999999999829
 20
-10.549999999745296
 30
0.0
 11
-2.2999999999999829
 21
10.0
 31
0.0
  0
ARC
  5
1E6
100
AcDbEntity
  8
0
  6
CONTINUOUS
 62
               4
100
AcDbCircle
 10
-3.4499999999999886
 20
-10.549999999999955
 30
0.0
 40
1.1499999999999999
100
AcDbArc
 50
270.0
 51
0.0
  0
ARC
  5
1E7
100
AcDbEntity
  8
0
  6
CONTINUOUS
 62
               4
100
AcDbCircle
 10
-3.4499999999999886
 20
-10.549999999999955
 30
0.0
 40
3.4499999999999957
100
AcDbArc
 50
270.0
 51
0.0
  0
LINE
  5
1E8
100
AcDbEntity
  8
0
  6
CONTINUOUS
 62
               4
100
AcDbLine
 10
-15.0
 20
-14.0
 30
0.0
 11
-15.0
 21
-11.699999999999989
 31
0.0
  0
LINE
  5
1E9
100
AcDbEntity
  8
0
  6
CENTER
 62
             200
100
AcDbLine
 10
-4.1668041714535491
 20
0.0
 30
0.0
 11
2.1653025894028985
 21
0.0
 31
0.0
  0
LINE
  5
1EA
100
AcDbEntity
  8
0
  6
CONTINUOUS
 62
               4
100
AcDbLine
 10
-11.599999999999994
 20
-13.999999987824367
 30
0.0
 11
-11.599999999999994
 21
-11.699999999999989
 31
0.0
  0
LINE
  5
1EB
100
AcDbEntity
  8
0
  6
CONTINUOUS
 62
               4
100
AcDbLine
 10
-6.4000000000000057
 20
-13.999999987824367
 30
0.0
 11
-6.4000000000000057
 21
-11.699999999999989
 31
0.0
  0
LINE
  5
1EC
100
AcDbEntity
  8
0
  6
CENTER
 62
             200
100
AcDbLine
 10
-9.0
 20
-15.89014243861925
 30
0.0
 11
-9.0
 21
-8.58386543198759
 31
0.0
  0
ENDBLK
  5
1ED
100
AcDbEntity
  8
0
100
AcDbBlockEnd
  0
BLOCK
  5
1EE
100
AcDbEntity
  8
0
100
AcDbBlockBegin
  2
CS-PBDAS10-7
 70
               0
 10
0.0
 20
0.0
 30
0.0
  3
CS-PBDAS10-7
  1

  0
LINE
  5
1EF
100
AcDbEntity
  8
0
  6
CONTINUOUS
 62
               4
100
AcDbLine
 10
-21.00000000500853
 20
-6.0
 30
0.0
 11
21.0
 21
-6.0
 31
0.0
  0
LINE
  5
1F0
100
AcDbEntity
  8
0
  6
CONTINUOUS
 62
               4
100
AcDbLine
 10
21.0
 20
-6.0000000184217583
 30
0.0
 11
21.0
 21
-2.5999999999999659
 31
0.0
  0
LINE
  5
1F1
100
AcDbEntity
  8
0
  6
CONTINUOUS
 62
               4
100
AcDbLine
 10
-21.00000000500853
 20
-6.0000000184217583
 30
0.0
 11
-21.00000000500853
 21
-2.5999999999999659
 31
0.0
  0
LINE
  5
1F2
100
AcDbEntity
  8
0
  6
CONTINUOUS
 62
               4
100
AcDbLine
 10
-21.00000000500853
 20
9.0
 30
0.0
 11
20.99999999499147
 21
9.0
 31
0.0
  0
LINE
  5
1F3
100
AcDbEntity
  8
0
  6
CONTINUOUS
 62
               4
100
AcDbLine
 10
-21.00000000500853
 20
6.7000000000000171
 30
0.0
 11
20.99999999499147
 21
6.7000000000000171
 31
0.0
  0
LINE
  5
1F4
100
AcDbEntity
  8
0
  6
CENTER
 62
             200
100
AcDbLine
 10
-21.00000000500853
 20
0.0
 30
0.0
 11
20.99999999499147
 21
0.0
 31
0.0
  0
LINE
  5
1F5
100
AcDbEntity
  8
0
  6
CONTINUOUS
 62
               4
100
AcDbLine
 10
-21.00000000500853
 20
2.6000000000000227
 30
0.0
 11
-14.600000000000023
 21
2.6000000000000227
 31
0.0
  0
LINE
  5
1F6
100
AcDbEntity
  8
0
  6
CONTINUOUS
 62
               4
100
AcDbLine
 10
-21.00000000500853
 20
-2.5999999999999659
 30
0.0
 11
-14.600000000000023
 21
-2.5999999999999659
 31
0.0
  0
ARC
  5
1F7
100
AcDbEntity
  8
0
  6
CONTINUOUS
 62
               4
100
AcDbCircle
 10
14.599999999999966
 20
0.0
 30
0.0
 40
2.5999999999999943
100
AcDbArc
 50
90.0
 51
270.0
  0
ARC
  5
1F8
100
AcDbEntity
  8
0
  6
CONTINUOUS
 62
               4
100
AcDbCircle
 10
-14.600000000000023
 20
0.0
 30
0.0
 40
2.5999999999999943
100
AcDbArc
 50
270.0
 51
90.0
  0
LINE
  5
1F9
100
AcDbEntity
  8
0
  6
CONTINUOUS
 62
               4
100
AcDbLine
 10
14.599999999999966
 20
2.6000000000000227
 30
0.0
 11
20.99999999499147
 21
2.6000000000000227
 31
0.0
  0
LINE
  5
1FA
100
AcDbEntity
  8
0
  6
CONTINUOUS
 62
               4
100
AcDbLine
 10
14.599999999999966
 20
-2.5999999999999659
 30
0.0
 11
20.99999999499147
 21
-2.5999999999999659
 31
0.0
  0
LINE
  5
1FB
100
AcDbEntity
  8
0
  6
CONTINUOUS
 62
               4
100
AcDbLine
 10
21.0
 20
2.6000000000000227
 30
0.0
 11
21.0
 21
8.9999999815782417
 31
0.0
  0
LINE
  5
1FC
100
AcDbEntity
  8
0
  6
CONTINUOUS
 62
               4
100
AcDbLine
 10
-21.00000000500853
 20
2.6000000000000227
 30
0.0
 11
-21.00000000500853
 21
8.9999999815782417
 31
0.0
  0
LINE
  5
1FD
100
AcDbEntity
  8
0
  6
CENTER
 62
             200
100
AcDbLine
 10
-14.600000000000023
 20
-4.0
 30
0.0
 11
-14.600000000000023
 21
4.0
 31
0.0
  0
LINE
  5
1FE
100
AcDbEntity
  8
0
  6
CENTER
 62
             200
100
AcDbLine
 10
14.599999999999966
 20
-4.0
 30
0.0
 11
14.599999999999966
 21
4.0
 31
0.0
  0
LINE
  5
1FF
100
AcDbEntity
  8
0
  6
CENTER
 62
             200
100
AcDbLine
 10
0.0
 20
-8.9283760901503229
 30
0.0
 11
0.0
 21
12.852804284747492
 31
0.0
  0
ENDBLK
  5
200
100
AcDbEntity
  8
0
100
AcDbBlockEnd
  0
BLOCK
  5
201
100
AcDbEntity
  8
0
100
AcDbBlockBegin
  2
CS-PBDAS10-8
 70
               0
 10
0.0
 20
0.0
 30
0.0
  3
CS-PBDAS10-8
  1

  0
LINE
  5
202
100
AcDbEntity
  8
0
  6
CENTER
 62
             200
100
AcDbLine
 10
-21.000000024277711
 20
0.0
 30
0.0
 11
21.0
 21
0.0
 31
0.0
  0
LINE
  5
203
100
AcDbEntity
  8
0
  6
CONTINUOUS
 62
               4
100
AcDbLine
 10
-21.0
 20
2.5999999999999943
 30
0.0
 11
-21.0
 21
9.9999999924027065
 31
0.0
  0
LINE
  5
204
100
AcDbEntity
  8
0
  6
CONTINUOUS
 62
               4
100
AcDbLine
 10
21.0
 20
-10.000000007597293
 30
0.0
 11
21.0
 21
-2.5999999999999943
 31
0.0
  0
LINE
  5
205
100
AcDbEntity
  8
0
  6
CONTINUOUS
 62
               4
100
AcDbLine
 10
-21.000000024277711
 20
10.0
 30
0.0
 11
21.0
 21
10.0
 31
0.0
  0
LINE
  5
206
100
AcDbEntity
  8
0
  6
CONTINUOUS
 62
               4
100
AcDbLine
 10
-21.000000024277711
 20
-10.0
 30
0.0
 11
21.0
 21
-10.0
 31
0.0
  0
CIRCLE
  5
207
100
AcDbEntity
  8
0
  6
CONTINUOUS
 62
               4
100
AcDbCircle
 10
0.0
 20
0.0
 30
0.0
 40
5.0
  0
ARC
  5
208
100
AcDbEntity
  8
0
  6
CONTINUOUS
 62
               4
100
AcDbCircle
 10
14.599999999999994
 20
0.0
 30
0.0
 40
2.6000000000000001
100
AcDbArc
 50
90.0
 51
270.0
  0
LINE
  5
209
100
AcDbEntity
  8
0
  6
CONTINUOUS
 62
               4
100
AcDbLine
 10
14.599999999999994
 20
2.5999999999999943
 30
0.0
 11
21.0
 21
2.5999999999999943
 31
0.0
  0
LINE
  5
20A
100
AcDbEntity
  8
0
  6
CONTINUOUS
 62
               4
100
AcDbLine
 10
14.599999999999994
 20
-2.5999999999999943
 30
0.0
 11
21.0
 21
-2.5999999999999943
 31
0.0
  0
LINE
  5
20B
100
AcDbEntity
  8
0
  6
CONTINUOUS
 62
               4
100
AcDbLine
 10
21.0
 20
2.5999999999999943
 30
0.0
 11
21.0
 21
10.0
 31
0.0
  0
LINE
  5
20C
100
AcDbEntity
  8
0
  6
CONTINUOUS
 62
               4
100
AcDbLine
 10
-14.599999999999994
 20
2.5999999999999943
 30
0.0
 11
-21.0
 21
2.5999999999999943
 31
0.0
  0
LINE
  5
20D
100
AcDbEntity
  8
0
  6
CONTINUOUS
 62
               4
100
AcDbLine
 10
-14.599999999999994
 20
-2.5999999999999943
 30
0.0
 11
-21.0
 21
-2.5999999999999943
 31
0.0
  0
ARC
  5
20E
100
AcDbEntity
  8
0
  6
CONTINUOUS
 62
               4
100
AcDbCircle
 10
-14.599999999999994
 20
0.0
 30
0.0
 40
2.6000000000000001
100
AcDbArc
 50
270.0
 51
90.0
  0
LINE
  5
20F
100
AcDbEntity
  8
0
  6
CONTINUOUS
 62
               4
100
AcDbLine
 10
-21.000000024277711
 20
-10.0
 30
0.0
 11
-21.000000024277711
 21
-2.5999999999999943
 31
0.0
  0
LINE
  5
210
100
AcDbEntity
  8
0
  6
CENTER
 62
             200
100
AcDbLine
 10
14.599999999999994
 20
-4.229082697373201
 30
0.0
 11
14.599999999999994
 21
4.4517743260886959
 31
0.0
  0
LINE
  5
211
100
AcDbEntity
  8
0
  6
CENTER
 62
             200
100
AcDbLine
 10
-14.599999999999994
 20
-4.229082697373201
 30
0.0
 11
-14.599999999999994
 21
4.4517743260886959
 31
0.0
  0
LINE
  5
212
100
AcDbEntity
  8
0
  6
CENTER
 62
             200
100
AcDbLine
 10
0.0
 20
-15.60510487124094
 30
0.0
 11
0.0
 21
13.892035626697435
 31
0.0
  0
ENDBLK
  5
213
100
AcDbEntity
  8
0
100
AcDbBlockEnd
  0
BLOCK
  5
214
100
AcDbEntity
  8
0
100
AcDbBlockBegin
  2
CS-PBDAS10-9
 70
               0
 10
0.0
 20
0.0
 30
0.0
  3
CS-PBDAS10-9
  1

  0
LINE
  5
215
100
AcDbEntity
  8
0
  6
CONTINUOUS
 62
               4
100
AcDbLine
 10
0.0
 20
-10.000000007597293
 30
0.0
 11
0.0
 21
9.9999999924027065
 31
0.0
  0
LINE
  5
216
100
AcDbEntity
  8
0
  6
CONTINUOUS
 62
               4
100
AcDbLine
 10
-2.2999999999999829
 20
-10.000000007597293
 30
0.0
 11
-2.2999999999999829
 21
10.0
 31
0.0
  0
LINE
  5
217
100
AcDbEntity
  8
0
  6
CONTINUOUS
 62
               4
100
AcDbLine
 10
-2.2999999945096761
 20
10.0
 30
0.0
 11
0.0000000174112529
 21
10.0
 31
0.0
  0
LINE
  5
218
100
AcDbEntity
  8
0
  6
CONTINUOUS
 62
               4
100
AcDbLine
 10
-2.2999999945096761
 20
-10.0
 30
0.0
 11
0.0000000174112529
 21
-10.0
 31
0.0
  0
LINE
  5
219
100
AcDbEntity
  8
0
  6
CENTER
 62
             200
100
AcDbLine
 10
-3.9393688193148648
 20
0.0
 30
0.0
 11
1.8003345007556391
 21
0.0
 31
0.0
  0
LINE
  5
21A
100
AcDbEntity
  8
0
  6
CONTINUOUS
 62
               4
100
AcDbLine
 10
-2.2999999945096761
 20
2.5999999999999943
 30
0.0
 11
0.0000000174112529
 21
2.5999999999999943
 31
0.0
  0
LINE
  5
21B
100
AcDbEntity
  8
0
  6
CONTINUOUS
 62
               4
100
AcDbLine
 10
-2.2999999945096761
 20
-2.5999999999999943
 30
0.0
 11
0.0000000174112529
 21
-2.5999999999999943
 31
0.0
  0
ENDBLK
  5
21C
100
AcDbEntity
  8
0
100
AcDbBlockEnd
  0
BLOCK
  5
21D
100
AcDbEntity
  8
0
100
AcDbBlockBegin
  2
CS-PBDAS10-10
 70
               0
 10
0.0
 20
0.0
 30
0.0
  3
CS-PBDAS10-10
  1

  0
LINE
  5
21E
100
AcDbEntity
  8
0
  6
CONTINUOUS
 62
               4
100
AcDbLine
 10
-21.000000024277711
 20
-2.2999999999999972
 30
0.0
 11
21.0
 21
-2.2999999999999972
 31
0.0
  0
LINE
  5
21F
100
AcDbEntity
  8
0
  6
CONTINUOUS
 62
               4
100
AcDbLine
 10
-21.000000024277711
 20
0.0
 30
0.0
 11
21.0
 21
0.0
 31
0.0
  0
LINE
  5
220
100
AcDbEntity
  8
0
  6
CONTINUOUS
 62
               4
100
AcDbLine
 10
21.0
 20
-2.2999999730560461
 30
0.0
 11
21.0
 21
-0.0000000207397619
 31
0.0
  0
LINE
  5
221
100
AcDbEntity
  8
0
  6
CONTINUOUS
 62
               4
100
AcDbLine
 10
-21.0
 20
-2.2999999730560461
 30
0.0
 11
-21.0
 21
-0.0000000207397619
 31
0.0
  0
LINE
  5
222
100
AcDbEntity
  8
0
  6
CENTER
 62
             200
100
AcDbLine
 10
-14.599999999999994
 20
-4.3475955932113806
 30
0.0
 11
-14.599999999999994
 21
2.1517743260886988
 31
0.0
  0
LINE
  5
223
100
AcDbEntity
  8
0
  6
CENTER
 62
             200
100
AcDbLine
 10
14.599999999999994
 20
-4.3475955932113806
 30
0.0
 11
14.599999999999994
 21
2.1517743260886988
 31
0.0
  0
LINE
  5
224
100
AcDbEntity
  8
0
  6
CENTER
 62
             200
100
AcDbLine
 10
0.0
 20
-6.0974259863398999
 30
0.0
 11
0.0
 21
4.1515804511389405
 31
0.0
  0
ENDBLK
  5
225
100
AcDbEntity
  8
0
100
AcDbBlockEnd
  0
BLOCK
  5
226
100
AcDbEntity
  8
0
100
AcDbBlockBegin
  2
CS-PBDAS10-11
 70
               0
 10
0.0
 20
0.0
 30
0.0
  3
CS-PBDAS10-11
  1

  0
LINE
  5
227
100
AcDbEntity
  8
0
  6
DASHED
 62
             200
100
AcDbLine
 10
6.5670000000000002
 20
6.0
 30
0.0
 11
6.5670000000000002
 21
1.3397812560945255
 31
0.0
  0
LINE
  5
228
100
AcDbEntity
  8
0
  6
DASHED
 62
             200
100
AcDbLine
 10
2.4329999999999998
 20
6.0
 30
0.0
 11
2.4329999999999998
 21
1.3397812560945255
 31
0.0
  0
LINE
  5
229
100
AcDbEntity
  8
0
  6
CONTINUOUS
 62
               4
100
AcDbLine
 10
7.2700000000000102
 20
-3.6055512754639949
 30
0.0
 11
7.2700000000000102
 21
-6.0
 31
0.0
  0
ARC
  5
22A
100
AcDbEntity
  8
0
  6
CONTINUOUS
 62
               4
100
AcDbCircle
 10
4.377774566473974
 20
0.0
 30
0.0
 40
4.6222254335260216
100
AcDbArc
 50
308.73515692368665
 51
51.264843076313369
  0
LINE
  5
22B
100
AcDbEntity
  8
0
  6
CONTINUOUS
 62
               4
100
AcDbLine
 10
1.7299999999999898
 20
-3.6055512754639949
 30
0.0
 11
1.7299999999999898
 21
-6.0
 31
0.0
  0
LINE
  5
22C
100
AcDbEntity
  8
0
  6
CONTINUOUS
 62
               4
100
AcDbLine
 10
1.7299999999999898
 20
6.0
 30
0.0
 11
1.7299999999999898
 21
3.6055512754639878
 31
0.0
  0
LINE
  5
22D
100
AcDbEntity
  8
0
  6
CONTINUOUS
 62
               4
100
AcDbLine
 10
7.2700000000000102
 20
6.0
 30
0.0
 11
7.2700000000000102
 21
3.6055512754639878
 31
0.0
  0
LINE
  5
22E
100
AcDbEntity
  8
0
  6
CONTINUOUS
 62
               4
100
AcDbLine
 10
7.2700000000000102
 20
-3.6055512754639949
 30
0.0
 11
1.7299999999999898
 21
-3.6055512754639949
 31
0.0
  0
LINE
  5
22F
100
AcDbEntity
  8
0
  6
CONTINUOUS
 62
               4
100
AcDbLine
 10
7.2700000000000102
 20
3.6055512754639878
 30
0.0
 11
1.7299999999999898
 21
3.6055512754639878
 31
0.0
  0
LINE
  5
230
100
AcDbEntity
  8
0
  6
DASHED
 62
             200
100
AcDbLine
 10
2.0
 20
6.0
 30
0.0
 11
2.0
 21
1.3397812560945255
 31
0.0
  0
LINE
  5
231
100
AcDbEntity
  8
0
  6
DASHED
 62
             200
100
AcDbLine
 10
7.0
 20
6.0
 30
0.0
 11
7.0
 21
1.3397812560945255
 31
0.0
  0
LINE
  5
232
100
AcDbEntity
  8
0
  6
CENTER
 62
             200
100
AcDbLine
 10
4.5
 20
8.5997201964702441
 30
0.0
 11
4.5
 21
0.2910987047548304
 31
0.0
  0
LINE
  5
233
100
AcDbEntity
  8
0
  6
CONTINUOUS
 62
               4
100
AcDbLine
 10
0.0
 20
6.0
 30
0.0
 11
0.0
 21
-6.0
 31
0.0
  0
LINE
  5
234
100
AcDbEntity
  8
0
  6
CONTINUOUS
 62
               4
100
AcDbLine
 10
9.0
 20
6.0
 30
0.0
 11
9.0
 21
-6.0
 31
0.0
  0
LINE
  5
235
100
AcDbEntity
  8
0
  6
CENTER
 62
             200
100
AcDbLine
 10
-10.533155364018654
 20
0.0
 30
0.0
 11
19.438360773786655
 21
0.0
 31
0.0
  0
LINE
  5
236
100
AcDbEntity
  8
0
  6
CONTINUOUS
 62
               4
100
AcDbLine
 10
0.0
 20
6.0
 30
0.0
 11
9.0
 21
6.0
 31
0.0
  0
LINE
  5
237
100
AcDbEntity
  8
0
  6
CONTINUOUS
 62
               4
100
AcDbLine
 10
0.0
 20
-6.0
 30
0.0
 11
9.0
 21
-6.0
 31
0.0
  0
LINE
  5
238
100
AcDbEntity
  8
0
  6
CONTINUOUS
 62
               4
100
AcDbLine
 10
16.200004577636719
 20
4.9999990463256836
 30
0.0
 11
16.200004577636719
 21
-5.0
 31
0.0
  0
LINE
  5
239
100
AcDbEntity
  8
0
  6
CONTINUOUS
 62
               4
100
AcDbLine
 10
11.596084594726562
 20
-6.0621778264910802
 30
0.0
 11
11.596084594726562
 21
6.0621778264910731
 31
0.0
  0
LINE
  5
23A
100
AcDbEntity
  8
0
  6
CONTINUOUS
 62
               4
100
AcDbLine
 10
15.596084594726562
 20
-6.1988568072741828
 30
0.0
 11
15.596084594726562
 21
6.1988568072741828
 31
0.0
  0
LINE
  5
23B
100
AcDbEntity
  8
0
  6
CONTINUOUS
 62
               4
100
AcDbLine
 10
10.5
 20
-5.0
 30
0.0
 11
10.5
 21
4.9999990463256836
 31
0.0
  0
LINE
  5
23C
100
AcDbEntity
  8
0
  6
CONTINUOUS
 62
               4
100
AcDbLine
 10
17.0
 20
-4.2000007629394531
 30
0.0
 11
17.0
 21
4.1999998092651367
 31
0.0
  0
LINE
  5
23D
100
AcDbEntity
  8
0
  6
CONTINUOUS
 62
               4
100
AcDbLine
 10
11.596084594726562
 20
4.9999990463256836
 30
0.0
 11
9.0
 21
4.9999990463256836
 31
0.0
  0
LINE
  5
23E
100
AcDbEntity
  8
0
  6
CONTINUOUS
 62
             200
100
AcDbLine
 10
11.596084594726562
 20
4.4999990463256836
 30
0.0
 11
10.5
 21
4.4999990463256836
 31
0.0
  0
LINE
  5
23F
100
AcDbEntity
  8
0
  6
CONTINUOUS
 62
               4
100
AcDbLine
 10
16.200004577636719
 20
4.9999990463256836
 30
0.0
 11
15.596084594726562
 21
4.9999990463256836
 31
0.0
  0
LINE
  5
240
100
AcDbEntity
  8
0
  6
CONTINUOUS
 62
             200
100
AcDbLine
 10
16.700004577636719
 20
4.4999990463256836
 30
0.0
 11
15.596084594726562
 21
4.4999990463256836
 31
0.0
  0
LINE
  5
241
100
AcDbEntity
  8
0
  6
CONTINUOUS
 62
               4
100
AcDbLine
 10
16.200004768771123
 20
4.999999292739858
 30
0.0
 11
17.00000453908342
 21
4.1999994549926214
 31
0.0
  0
LINE
  5
242
100
AcDbEntity
  8
0
  6
CONTINUOUS
 62
               4
100
AcDbLine
 10
11.596084594726562
 20
-5.0
 30
0.0
 11
9.0
 21
-5.0
 31
0.0
  0
LINE
  5
243
100
AcDbEntity
  8
0
  6
CONTINUOUS
 62
               4
100
AcDbLine
 10
16.200004577636719
 20
-5.0
 30
0.0
 11
15.596084594726562
 21
-5.0
 31
0.0
  0
LINE
  5
244
100
AcDbEntity
  8
0
  6
CONTINUOUS
 62
             200
100
AcDbLine
 10
16.700004577636719
 20
-4.5
 30
0.0
 11
15.596084594726562
 21
-4.5
 31
0.0
  0
LINE
  5
245
100
AcDbEntity
  8
0
  6
CONTINUOUS
 62
               4
100
AcDbLine
 10
17.000004185049875
 20
-4.2000011847183032
 30
0.0
 11
16.200004347302638
 21
-5.0000009550306004
 31
0.0
  0
LINE
  5
246
100
AcDbEntity
  8
0
  6
CONTINUOUS
 62
             200
100
AcDbLine
 10
11.596084594726562
 20
-4.5
 30
0.0
 11
10.5
 21
-4.5
 31
0.0
  0
ARC
  5
247
100
AcDbEntity
  8
0
  6
CONTINUOUS
 62
               4
100
AcDbCircle
 10
4.6222254335260402
 20
0.0
 30
0.0
 40
4.6222254335260331
100
AcDbArc
 50
128.73515692368684
 51
231.26484307631316
  0
LINE
  5
248
100
AcDbEntity
  8
0
  6
CONTINUOUS
 62
               4
100
AcDbLine
 10
12.131988497415819
 20
8.0829037686547593
 30
0.0
 11
15.060188293457031
 21
8.0829037686547593
 31
0.0
  0
LINE
  5
249
100
AcDbEntity
  8
0
  6
CONTINUOUS
 62
               4
100
AcDbLine
 10
12.131988497415819
 20
4.0414518843273868
 30
0.0
 11
15.060188293457031
 21
4.0414518843273868
 31
0.0
  0
LINE
  5
24A
100
AcDbEntity
  8
0
  6
CONTINUOUS
 62
               4
100
AcDbLine
 10
12.131988497415819
 20
-4.0414518843273868
 30
0.0
 11
15.060188293457031
 21
-4.0414518843273868
 31
0.0
  0
LINE
  5
24B
100
AcDbEntity
  8
0
  6
CONTINUOUS
 62
               4
100
AcDbLine
 10
12.131988497415819
 20
-8.0829037686547736
 30
0.0
 11
15.060188293457031
 21
-8.0829037686547736
 31
0.0
  0
ARC
  5
24C
100
AcDbEntity
  8
0
  6
CONTINUOUS
 62
               4
100
AcDbCircle
 10
15.673799185270553
 20
6.0621778264910731
 30
0.0
 40
4.0777145905439918
100
AcDbArc
 50
150.29374130944103
 51
209.70625869055897
  0
ARC
  5
24D
100
AcDbEntity
  8
0
  6
CONTINUOUS
 62
               4
100
AcDbCircle
 10
27.103087102868756
 20
0.0
 30
0.0
 40
15.507002508142188
100
AcDbArc
 50
164.8930814358576
 51
195.1069185641424
  0
ARC
  5
24E
100
AcDbEntity
  8
0
  6
CONTINUOUS
 62
               4
100
AcDbCircle
 10
15.673799185270582
 20
-6.0621778264910802
 30
0.0
 40
4.0777145905440175
100
AcDbArc
 50
150.29374130944112
 51
209.70625869055888
  0
ARC
  5
24F
100
AcDbEntity
  8
0
  6
CONTINUOUS
 62
               4
100
AcDbCircle
 10
11.518370004182572
 20
6.0621778264910731
 30
0.0
 40
4.0777145905439918
100
AcDbArc
 50
330.29374130944103
 51
29.706258690558975
  0
ARC
  5
250
100
AcDbEntity
  8
0
  6
CONTINUOUS
 62
               4
100
AcDbCircle
 10
0.0890820865843693
 20
0.0
 30
0.0
 40
15.507002508142188
100
AcDbArc
 50
344.8930814358576
 51
15.106918564142417
  0
ARC
  5
251
100
AcDbEntity
  8
0
  6
CONTINUOUS
 62
               4
100
AcDbCircle
 10
11.518370004182543
 20
-6.0621778264910802
 30
0.0
 40
4.0777145905440175
100
AcDbArc
 50
330.29374130944115
 51
29.706258690558872
  0
ENDBLK
  5
252
100
AcDbEntity
  8
0
100
AcDbBlockEnd
  0
BLOCK
  5
253
100
AcDbEntity
  8
0
100
AcDbBlockBegin
  2
CS-PBDAS10-12
 70
               0
 10
0.0
 20
0.0
 30
0.0
  3
CS-PBDAS10-12
  1

  0
CIRCLE
  5
254
100
AcDbEntity
  8
0
  6
CONTINUOUS
 62
             200
100
AcDbCircle
 10
0.0
 20
0.0
 30
0.0
 40
4.4584999999999999
  0
LINE
  5
255
100
AcDbEntity
  8
0
  6
CENTER
 62
             200
100
AcDbLine
 10
-9.4565210976914926
 20
0.0
 30
0.0
 11
9.3591502714740926
 21
0.0
 31
0.0
  0
CIRCLE
  5
256
100
AcDbEntity
  8
0
  6
CONTINUOUS
 62
               4
100
AcDbCircle
 10
0.0
 20
0.0
 30
0.0
 40
5.0
  0
CIRCLE
  5
257
100
AcDbEntity
  8
0
  6
CONTINUOUS
 62
               4
100
AcDbCircle
 10
0.0
 20
0.0
 30
0.0
 40
7.0
  0
LINE
  5
258
100
AcDbEntity
  8
0
  6
CONTINUOUS
 62
               4
100
AcDbLine
 10
0.0
 20
8.0829037686547593
 30
0.0
 11
7.0000000000000142
 21
4.0414518843273868
 31
0.0
  0
LINE
  5
259
100
AcDbEntity
  8
0
  6
CONTINUOUS
 62
               4
100
AcDbLine
 10
-7.0
 20
-4.0414518843273868
 30
0.0
 11
-7.0000000000000142
 21
4.0414518843273868
 31
0.0
  0
LINE
  5
25A
100
AcDbEntity
  8
0
  6
CONTINUOUS
 62
               4
100
AcDbLine
 10
-7.0
 20
4.0414518843273726
 30
0.0
 11
0.0
 21
8.0829037686547736
 31
0.0
  0
LINE
  5
25B
100
AcDbEntity
  8
0
  6
CONTINUOUS
 62
               4
100
AcDbLine
 10
7.0
 20
4.0414518843273797
 30
0.0
 11
7.0000000000000142
 21
-4.0414518843273868
 31
0.0
  0
LINE
  5
25C
100
AcDbEntity
  8
0
  6
CONTINUOUS
 62
               4
100
AcDbLine
 10
0.0
 20
-8.0829037686547593
 30
0.0
 11
-7.0000000000000142
 21
-4.0414518843273868
 31
0.0
  0
LINE
  5
25D
100
AcDbEntity
  8
0
  6
CONTINUOUS
 62
               4
100
AcDbLine
 10
7.0
 20
-4.0414518843273868
 30
0.0
 11
0.0
 21
-8.0829037686547736
 31
0.0
  0
LINE
  5
25E
100
AcDbEntity
  8
0
  6
CENTER
 62
             200
100
AcDbLine
 10
0.0
 20
10.169783529594646
 30
0.0
 11
0.0
 21
-10.341720881427079
 31
0.0
  0
ENDBLK
  5
25F
100
AcDbEntity
  8
0
100
AcDbBlockEnd
  0
BLOCK
  5
260
100
AcDbEntity
  8
0
100
AcDbBlockBegin
  2
CS-PBDAS10-13
 70
               0
 10
0.0
 20
0.0
 30
0.0
  3
CS-PBDAS10-13
  1

  0
LINE
  5
261
100
AcDbEntity
  8
0
  6
DASHED
 62
             200
100
AcDbLine
 10
2.4329999999999998
 20
6.0
 30
0.0
 11
2.4329999999999998
 21
1.3397812560945255
 31
0.0
  0
LINE
  5
262
100
AcDbEntity
  8
0
  6
DASHED
 62
             200
100
AcDbLine
 10
6.5670000000000002
 20
6.0
 30
0.0
 11
6.5670000000000002
 21
1.3397812560945255
 31
0.0
  0
LINE
  5
263
100
AcDbEntity
  8
0
  6
CONTINUOUS
 62
               4
100
AcDbLine
 10
0.0
 20
-6.0
 30
0.0
 11
9.0
 21
-6.0
 31
0.0
  0
LINE
  5
264
100
AcDbEntity
  8
0
  6
CONTINUOUS
 62
               4
100
AcDbLine
 10
0.0
 20
6.0
 30
0.0
 11
9.0
 21
6.0
 31
0.0
  0
LINE
  5
265
100
AcDbEntity
  8
0
  6
CENTER
 62
             200
100
AcDbLine
 10
-10.533155364018654
 20
0.0
 30
0.0
 11
11.09918732362263
 21
0.0
 31
0.0
  0
LINE
  5
266
100
AcDbEntity
  8
0
  6
CONTINUOUS
 62
               4
100
AcDbLine
 10
9.0
 20
6.0
 30
0.0
 11
9.0
 21
-6.0
 31
0.0
  0
LINE
  5
267
100
AcDbEntity
  8
0
  6
CONTINUOUS
 62
               4
100
AcDbLine
 10
0.0
 20
6.0
 30
0.0
 11
0.0
 21
-6.0
 31
0.0
  0
LINE
  5
268
100
AcDbEntity
  8
0
  6
CENTER
 62
             200
100
AcDbLine
 10
4.5
 20
8.5997201964702441
 30
0.0
 11
4.5
 21
0.2910987047548304
 31
0.0
  0
LINE
  5
269
100
AcDbEntity
  8
0
  6
DASHED
 62
             200
100
AcDbLine
 10
7.0
 20
6.0
 30
0.0
 11
7.0
 21
1.3397812560945255
 31
0.0
  0
LINE
  5
26A
100
AcDbEntity
  8
0
  6
DASHED
 62
             200
100
AcDbLine
 10
2.0
 20
6.0
 30
0.0
 11
2.0
 21
1.3397812560945255
 31
0.0
  0
LINE
  5
26B
100
AcDbEntity
  8
0
  6
CONTINUOUS
 62
               4
100
AcDbLine
 10
7.2700000000000102
 20
3.6055512754639949
 30
0.0
 11
1.7299999999999898
 21
3.6055512754639949
 31
0.0
  0
LINE
  5
26C
100
AcDbEntity
  8
0
  6
CONTINUOUS
 62
               4
100
AcDbLine
 10
7.2700000000000102
 20
-3.6055512754639949
 30
0.0
 11
1.7299999999999898
 21
-3.6055512754639949
 31
0.0
  0
LINE
  5
26D
100
AcDbEntity
  8
0
  6
CONTINUOUS
 62
               4
100
AcDbLine
 10
7.2700000000000102
 20
6.0
 30
0.0
 11
7.2700000000000102
 21
3.6055512754639949
 31
0.0
  0
LINE
  5
26E
100
AcDbEntity
  8
0
  6
CONTINUOUS
 62
               4
100
AcDbLine
 10
1.7299999999999898
 20
6.0
 30
0.0
 11
1.7299999999999898
 21
3.6055512754639949
 31
0.0
  0
ARC
  5
26F
100
AcDbEntity
  8
0
  6
CONTINUOUS
 62
               4
100
AcDbCircle
 10
4.622225433526026
 20
0.0
 30
0.0
 40
4.6222254335260216
100
AcDbArc
 50
128.73515692368662
 51
231.26484307631338
  0
LINE
  5
270
100
AcDbEntity
  8
0
  6
CONTINUOUS
 62
               4
100
AcDbLine
 10
1.7299999999999898
 20
-3.6055512754639949
 30
0.0
 11
1.7299999999999898
 21
-6.0
 31
0.0
  0
ARC
  5
271
100
AcDbEntity
  8
0
  6
CONTINUOUS
 62
               4
100
AcDbCircle
 10
4.377774566473974
 20
0.0
 30
0.0
 40
4.6222254335260216
100
AcDbArc
 50
308.73515692368665
 51
51.264843076313369
  0
LINE
  5
272
100
AcDbEntity
  8
0
  6
CONTINUOUS
 62
               4
100
AcDbLine
 10
7.2700000000000102
 20
-3.6055512754639949
 30
0.0
 11
7.2700000000000102
 21
-6.0
 31
0.0
  0
ENDBLK
  5
273
100
AcDbEntity
  8
0
100
AcDbBlockEnd
  0
BLOCK
  5
274
100
AcDbEntity
  8
0
100
AcDbBlockBegin
  2
CS-PBDAS10-14
 70
               0
 10
0.0
 20
0.0
 30
0.0
  3
CS-PBDAS10-14
  1

  0
LINE
  5
275
100
AcDbEntity
  8
0
  6
CONTINUOUS
 62
               4
100
AcDbLine
 10
6.0
 20
3.6055512754639949
 30
0.0
 11
6.0
 21
-3.6055512754639949
 31
0.0
  0
LINE
  5
276
100
AcDbEntity
  8
0
  6
CONTINUOUS
 62
               4
100
AcDbLine
 10
-6.0
 20
3.6055512754639949
 30
0.0
 11
-6.0
 21
-3.6055512754639949
 31
0.0
  0
LINE
  5
277
100
AcDbEntity
  8
0
  6
CONTINUOUS
 62
               4
100
AcDbLine
 10
-3.6055512754639807
 20
-6.0
 30
0.0
 11
3.6055512754639807
 21
-6.0
 31
0.0
  0
LINE
  5
278
100
AcDbEntity
  8
0
  6
CONTINUOUS
 62
               4
100
AcDbLine
 10
-3.6055512754639807
 20
6.0
 30
0.0
 11
3.6055512754639807
 21
6.0
 31
0.0
  0
ARC
  5
279
100
AcDbEntity
  8
0
  6
CONTINUOUS
 62
               4
100
AcDbCircle
 10
0.0
 20
0.0
 30
0.0
 40
7.0
100
AcDbArc
 50
121.002719133874
 51
148.99728086612603
  0
ARC
  5
27A
100
AcDbEntity
  8
0
  6
CONTINUOUS
 62
               4
100
AcDbCircle
 10
0.0
 20
0.0
 30
0.0
 40
7.0
100
AcDbArc
 50
211.002719133874
 51
238.99728086612603
  0
ARC
  5
27B
100
AcDbEntity
  8
0
  6
CONTINUOUS
 62
               4
100
AcDbCircle
 10
0.0
 20
0.0
 30
0.0
 40
7.0
100
AcDbArc
 50
301.00271913387394
 51
328.997280866126
  0
ARC
  5
27C
100
AcDbEntity
  8
0
  6
CONTINUOUS
 62
               4
100
AcDbCircle
 10
0.0
 20
0.0
 30
0.0
 40
7.0
100
AcDbArc
 50
31.002719133873967
 51
58.997280866126005
  0
CIRCLE
  5
27D
100
AcDbEntity
  8
0
  6
CONTINUOUS
 62
               4
100
AcDbCircle
 10
0.0
 20
0.0
 30
0.0
 40
6.0
  0
LINE
  5
27E
100
AcDbEntity
  8
0
  6
CENTER
 62
             200
100
AcDbLine
 10
-8.2448933278883061
 20
0.0
 30
0.0
 11
8.1032129780390676
 21
0.0
 31
0.0
  0
LINE
  5
27F
100
AcDbEntity
  8
0
  6
CENTER
 62
             200
100
AcDbLine
 10
0.0
 20
7.9491421981797856
 30
0.0
 11
0.0
 21
-7.9861331404262046
 31
0.0
  0
ENDBLK
  5
280
100
AcDbEntity
  8
0
100
AcDbBlockEnd
  0
ENDSEC
  0
SECTION
  2
ENTITIES
  0
INSERT
  5
281
100
AcDbEntity
  8
0
  6
ByBlock
100
AcDbBlockReference
  2
CS-PBDAS10-14
 10
106.06111313394588
 20
-69.915395020107667
 30
0.0
  0
INSERT
  5
282
100
AcDbEntity
  8
0
  6
ByBlock
100
AcDbBlockReference
  2
CS-PBDAS10-13
 10
67.58900772161445
 20
-69.915395020107667
 30
0.0
  0
INSERT
  5
283
100
AcDbEntity
  8
0
  6
ByBlock
100
AcDbBlockReference
  2
CS-PBDAS10-12
 10
105.94404750745254
 20
-38.609476866907244
 30
0.0
 50
359.99999999999989
  0
INSERT
  5
284
100
AcDbEntity
  8
0
  6
ByBlock
100
AcDbBlockReference
  2
CS-PBDAS10-11
 10
59.471942095121108
 20
-38.609476866907244
 30
0.0
  0
INSERT
  5
285
100
AcDbEntity
  8
0
  6
ByBlock
100
AcDbBlockReference
  2
CS-PBDAS10-10
 10
-23.957586993233519
 20
-37.078108256802537
 30
0.0
  0
INSERT
  5
286
100
AcDbEntity
  8
0
  6
ByBlock
100
AcDbBlockReference
  2
CS-PBDAS10-9
 10
17.072098045128939
 20
-68.566842872873167
 30
0.0
 50
359.99999997442256
  0
INSERT
  5
287
100
AcDbEntity
  8
0
  6
ByBlock
100
AcDbBlockReference
  2
CS-PBDAS10-8
 10
-23.957586993233519
 20
-68.566842872873167
 30
0.0
  0
INSERT
  5
288
100
AcDbEntity
  8
0
  6
ByBlock
100
AcDbBlockReference
  2
CS-PBDAS10-7
 10
-114.43634751663126
 20
-37.10640840547768
 30
0.0
  0
INSERT
  5
289
100
AcDbEntity
  8
0
  6
ByBlock
100
AcDbBlockReference
  2
CS-PBDAS10-6
 10
-75.121142660321766
 20
-68.566842872873167
 30
0.0
  0
INSERT
  5
28A
100
AcDbEntity
  8
0
  6
ByBlock
100
AcDbBlockReference
  2
CS-PBDAS10-5
 10
-114.43634751663126
 20
-68.566842872873167
 30
0.0
  0
INSERT
  5
28B
100
AcDbEntity
  8
0
  6
ByBlock
100
AcDbBlockReference
  2
CS-PBDAS10-4
 10
-0.4713622687301644
 20
62.321963437094155
 30
0.0
  0
INSERT
  5
28C
100
AcDbEntity
  8
0
  6
ByBlock
100
AcDbBlockReference
  2
CS-PBDAS10-3
 10
88.276042340769436
 20
23.949704665096945
 30
0.0
  0
INSERT
  5
28D
100
AcDbEntity
  8
0
  6
ByBlock
100
AcDbBlockReference
  2
CS-PBDAS10-2
 10
-94.336595466574906
 20
23.949704665096945
 30
0.0
 50
359.99999999999989
  0
INSERT
  5
28E
100
AcDbEntity
  8
0
  6
ByBlock
100
AcDbBlockReference
  2
CS-PBDAS10-1
 10
-37.966210438779143
 20
23.949704665096945
 30
0.0
  0
MTEXT
  5
28F
100
AcDbEntity
  8
0
  6
CONTINUOUS
 62
               7
100
AcDbMText
 10
-11.035410602887472
 20
-16.800003051757812
 30
0.0
 40
3.2000000476837158
 41
0.0
 71
               4
 72
               1
  1
\A1;-3
  0
LINE
  5
290
100
AcDbEntity
  8
0
  6
CONTINUOUS
 62
               7
100
AcDbLine
 10
-51.712493896484375
 20
-14.800003051757812
 30
0.0
 11
-51.712493896484375
 21
-94.800003051757812
 31
0.0
  0
LINE
  5
291
100
AcDbEntity
  8
0
  6
CONTINUOUS
 62
               7
100
AcDbLine
 10
36.600006103515618
 20
-9.8000030517578125
 30
0.0
 11
36.600006103515618
 21
2.1999969482421875
 31
0.0
  0
MTEXT
  5
292
100
AcDbEntity
  8
0
  6
CONTINUOUS
 62
               7
100
AcDbMText
 10
37.285720316244621
 20
-6.8000030517578125
 30
0.0
 40
3.2000000476837158
 41
0.0
 71
               4
 72
               1
  1
\W1.286;\A1;115
  0
MTEXT
  5
293
100
AcDbEntity
  8
0
  6
CONTINUOUS
 62
               7
100
AcDbMText
 10
37.240006041526783
 20
-0.8000030517578125
 30
0.0
 40
3.2000000476837158
 41
0.0
 71
               4
 72
               1
  1
\W1.200;\A1;150
  0
LINE
  5
294
100
AcDbEntity
  8
0
  6
CONTINUOUS
 62
               7
100
AcDbLine
 10
27.000006103515616
 20
-9.8000030517578125
 30
0.0
 11
27.000006103515616
 21
2.1999969482421875
 31
0.0
  0
MTEXT
  5
295
100
AcDbEntity
  8
0
  6
CONTINUOUS
 62
               7
100
AcDbMText
 10
29.18182425262513
 20
-6.8000030517578125
 30
0.0
 40
3.2000000476837158
 41
0.0
 71
               4
 72
               1
  1
\W1.091;\A1;90
  0
MTEXT
  5
296
100
AcDbEntity
  8
0
  6
CONTINUOUS
 62
               7
100
AcDbMText
 10
27.600006036460389
 20
-0.8000030517578125
 30
0.0
 40
3.2000000476837158
 41
0.0
 71
               4
 72
               1
  1
\W1.125;\A1;125
  0
LINE
  5
297
100
AcDbEntity
  8
0
  6
CONTINUOUS
 62
               7
100
AcDbLine
 10
17.400006103515615
 20
-9.8000030517578125
 30
0.0
 11
17.400006103515615
 21
2.1999969482421875
 31
0.0
  0
MTEXT
  5
298
100
AcDbEntity
  8
0
  6
CONTINUOUS
 62
               7
100
AcDbMText
 10
19.533339397112517
 20
-6.8000030517578125
 30
0.0
 40
3.2000000476837158
 41
0.0
 71
               4
 72
               1
  1
\A1;65
  0
MTEXT
  5
299
100
AcDbEntity
  8
0
  6
CONTINUOUS
 62
               7
100
AcDbMText
 10
18.085720333761085
 20
-0.8000030517578125
 30
0.0
 40
3.2000000476837158
 41
0.0
 71
               4
 72
               1
  1
\W1.286;\A1;100
  0
LINE
  5
29A
100
AcDbEntity
  8
0
  6
CONTINUOUS
 62
               7
100
AcDbLine
 10
7.8000061035156136
 20
-9.8000030517578125
 30
0.0
 11
7.8000061035156136
 21
2.1999969482421875
 31
0.0
  0
MTEXT
  5
29B
100
AcDbEntity
  8
0
  6
CONTINUOUS
 62
               7
100
AcDbMText
 10
9.9818242526251293
 20
-6.8000030517578125
 30
0.0
 40
3.2000000476837158
 41
0.0
 71
               4
 72
               1
  1
\W1.091;\A1;40
  0
MTEXT
  5
29C
100
AcDbEntity
  8
0
  6
CONTINUOUS
 62
               7
100
AcDbMText
 10
9.9333393971125155
 20
-0.8000030517578125
 30
0.0
 40
3.2000000476837158
 41
0.0
 71
               4
 72
               1
  1
\A1;75
  0
LINE
  5
29D
100
AcDbEntity
  8
0
  6
CONTINUOUS
 62
               7
100
AcDbLine
 10
47.487381606362646
 20
-33.109476866907244
 30
0.0
 11
59.471942095121108
 21
-33.109476866907244
 31
0.0
  0
LINE
  5
29E
100
AcDbEntity
  8
0
  6
CONTINUOUS
 62
               7
100
AcDbLine
 10
53.838234567448509
 20
-44.109476866907244
 30
0.0
 11
59.471942095121108
 21
-44.109476866907244
 31
0.0
  0
LINE
  5
29F
100
AcDbEntity
  8
0
  6
CONTINUOUS
 62
               7
100
AcDbLine
 10
61.955300193941852
 20
-75.415395020107667
 30
0.0
 11
67.58900772161445
 21
-75.415395020107667
 31
0.0
  0
LINE
  5
2A0
100
AcDbEntity
  8
0
  6
CONTINUOUS
 62
               7
100
AcDbLine
 10
55.604447232855989
 20
-64.415395020107667
 30
0.0
 11
67.58900772161445
 21
-64.415395020107667
 31
0.0
  0
MTEXT
  5
2A1
100
AcDbEntity
  8
0
  6
CONTINUOUS
 62
               7
100
AcDbMText
 10
79.255098585729243
 20
-16.800003051757812
 30
0.0
 40
3.2000000476837158
 41
0.0
 71
               4
 72
               1
  1
\W1.111;\A1;-M,-A
  0
MTEXT
  5
2A2
100
AcDbEntity
  8
0
  6
CONTINUOUS
 62
               7
100
AcDbMText
 10
-99.256243963539603
 20
-16.800003051757812
 30
0.0
 40
3.2000000476837158
 41
0.0
 71
               4
 72
               1
  1
\W1.125;\A1;-1A
  0
LINE
  5
2A3
100
AcDbEntity
  8
0
  6
CONTINUOUS
 62
               7
100
AcDbLine
 10
-138.39999389648437
 20
-18.800003051757813
 30
0.0
 11
138.35000610351562
 21
-18.800003051757813
 31
0.0
  0
LINE
  5
2A4
100
AcDbEntity
  8
0
  6
CONTINUOUS
 62
               7
100
AcDbLine
 10
34.975006103515625
 20
-14.800003051757812
 30
0.0
 11
34.975006103515625
 21
-94.800003051757812
 31
0.0
  0
LINE
  5
2A5
100
AcDbEntity
  8
0
  6
CONTINUOUS
 62
               7
100
AcDbLine
 10
-138.39999389648437
 20
-14.800003051757812
 30
0.0
 11
138.35000610351562
 21
-14.800003051757812
 31
0.0
  0
MTEXT
  5
2A6
100
AcDbEntity
  8
0
  6
CONTINUOUS
 62
               3
100
AcDbMText
 10
4.2729377371805279
 20
47.173377277898638
 30
0.0
 40
3.2000000476837158
 41
0.0
 71
               4
 72
               1
  1
\W1.065;\A1;STRETCH LINE
  0
LINE
  5
2A7
100
AcDbEntity
  8
0
  6
CONTINUOUS
 62
               7
100
AcDbLine
 10
-133.39999389648437
 20
-9.8000030517578125
 30
0.0
 11
46.200006103515619
 21
-9.8000030517578125
 31
0.0
  0
LINE
  5
2A8
100
AcDbEntity
  8
0
  6
CONTINUOUS
 62
               7
100
AcDbLine
 10
-133.39999389648437
 20
-9.8000030517578125
 30
0.0
 11
-133.39999389648437
 21
2.1999969482421875
 31
0.0
  0
LINE
  5
2A9
100
AcDbEntity
  8
0
  6
CONTINUOUS
 62
               7
100
AcDbLine
 10
-133.39999389648437
 20
-3.8000030517578125
 30
0.0
 11
46.200006103515619
 21
-3.8000030517578125
 31
0.0
  0
LINE
  5
2AA
100
AcDbEntity
  8
0
  6
CONTINUOUS
 62
               7
100
AcDbLine
 10
-107.39999389648437
 20
-9.8000030517578125
 30
0.0
 11
-107.39999389648437
 21
2.1999969482421875
 31
0.0
  0
LINE
  5
2AB
100
AcDbEntity
  8
0
  6
CONTINUOUS
 62
               7
100
AcDbLine
 10
-97.799993896484381
 20
-9.8000030517578125
 30
0.0
 11
-97.799993896484381
 21
2.1999969482421875
 31
0.0
  0
LINE
  5
2AC
100
AcDbEntity
  8
0
  6
CONTINUOUS
 62
               7
100
AcDbLine
 10
-133.39999389648437
 20
2.1999969482421875
 30
0.0
 11
46.200006103515619
 21
2.1999969482421875
 31
0.0
  0
MTEXT
  5
2AD
100
AcDbEntity
  8
0
  6
CONTINUOUS
 62
               7
100
AcDbMText
 10
-103.66666057904561
 20
-0.8000030517578125
 30
0.0
 40
3.2000000476837158
 41
0.0
 71
               4
 72
               1
  1
\A1;5
  0
LINE
  5
2AE
100
AcDbEntity
  8
0
  6
CONTINUOUS
 62
               7
100
AcDbLine
 10
-88.199993896484386
 20
-9.8000030517578125
 30
0.0
 11
-88.199993896484386
 21
2.1999969482421875
 31
0.0
  0
MTEXT
  5
2AF
100
AcDbEntity
  8
0
  6
CONTINUOUS
 62
               7
100
AcDbMText
 10
-95.48888282246061
 20
-0.8000030517578125
 30
0.0
 40
3.2000000476837158
 41
0.0
 71
               4
 72
               1
  1
\W1.333;\A1;10
  0
LINE
  5
2B0
100
AcDbEntity
  8
0
  6
CONTINUOUS
 62
               7
100
AcDbLine
 10
-78.599993896484392
 20
-9.8000030517578125
 30
0.0
 11
-78.599993896484392
 21
2.1999969482421875
 31
0.0
  0
MTEXT
  5
2B1
100
AcDbEntity
  8
0
  6
CONTINUOUS
 62
               7
100
AcDbMText
 10
-85.959993942260752
 20
-0.8000030517578125
 30
0.0
 40
3.2000000476837158
 41
0.0
 71
               4
 72
               1
  1
\W1.200;\A1;15
  0
LINE
  5
2B2
100
AcDbEntity
  8
0
  6
CONTINUOUS
 62
               7
100
AcDbLine
 10
-68.999993896484398
 20
-9.8000030517578125
 30
0.0
 11
-68.999993896484398
 21
2.1999969482421875
 31
0.0
  0
MTEXT
  5
2B3
100
AcDbEntity
  8
0
  6
CONTINUOUS
 62
               7
100
AcDbMText
 10
-76.418175747374875
 20
-0.8000030517578125
 30
0.0
 40
3.2000000476837158
 41
0.0
 71
               4
 72
               1
  1
\W1.091;\A1;20
  0
LINE
  5
2B4
100
AcDbEntity
  8
0
  6
CONTINUOUS
 62
               7
100
AcDbLine
 10
-59.399993896484389
 20
-9.8000030517578125
 30
0.0
 11
-59.399993896484389
 21
2.1999969482421875
 31
0.0
  0
MTEXT
  5
2B5
100
AcDbEntity
  8
0
  6
CONTINUOUS
 62
               7
100
AcDbMText
 10
-66.866660602887478
 20
-0.8000030517578125
 30
0.0
 40
3.2000000476837158
 41
0.0
 71
               4
 72
               1
  1
\A1;25
  0
LINE
  5
2B6
100
AcDbEntity
  8
0
  6
CONTINUOUS
 62
               7
100
AcDbLine
 10
-49.799993896484388
 20
-9.8000030517578125
 30
0.0
 11
-49.799993896484388
 21
2.1999969482421875
 31
0.0
  0
MTEXT
  5
2B7
100
AcDbEntity
  8
0
  6
CONTINUOUS
 62
               7
100
AcDbMText
 10
-57.218175747374872
 20
-0.8000030517578125
 30
0.0
 40
3.2000000476837158
 41
0.0
 71
               4
 72
               1
  1
\W1.091;\A1;30
  0
LINE
  5
2B8
100
AcDbEntity
  8
0
  6
CONTINUOUS
 62
               7
100
AcDbLine
 10
-40.199993896484386
 20
-9.8000030517578125
 30
0.0
 11
-40.199993896484386
 21
2.1999969482421875
 31
0.0
  0
MTEXT
  5
2B9
100
AcDbEntity
  8
0
  6
CONTINUOUS
 62
               7
100
AcDbMText
 10
-47.666660602887482
 20
-0.8000030517578125
 30
0.0
 40
3.2000000476837158
 41
0.0
 71
               4
 72
               1
  1
\A1;35
  0
LINE
  5
2BA
100
AcDbEntity
  8
0
  6
CONTINUOUS
 62
               7
100
AcDbLine
 10
-30.599993896484385
 20
-9.8000030517578125
 30
0.0
 11
-30.599993896484385
 21
2.1999969482421875
 31
0.0
  0
MTEXT
  5
2BB
100
AcDbEntity
  8
0
  6
CONTINUOUS
 62
               7
100
AcDbMText
 10
-38.018175747374869
 20
-0.8000030517578125
 30
0.0
 40
3.2000000476837158
 41
0.0
 71
               4
 72
               1
  1
\W1.091;\A1;40
  0
LINE
  5
2BC
100
AcDbEntity
  8
0
  6
CONTINUOUS
 62
               7
100
AcDbLine
 10
-20.999993896484384
 20
-9.8000030517578125
 30
0.0
 11
-20.999993896484384
 21
2.1999969482421875
 31
0.0
  0
MTEXT
  5
2BD
100
AcDbEntity
  8
0
  6
CONTINUOUS
 62
               7
100
AcDbMText
 10
-28.46666060288748
 20
-0.8000030517578125
 30
0.0
 40
3.2000000476837158
 41
0.0
 71
               4
 72
               1
  1
\A1;45
  0
LINE
  5
2BE
100
AcDbEntity
  8
0
  6
CONTINUOUS
 62
               7
100
AcDbLine
 10
-11.399993896484386
 20
-9.8000030517578125
 30
0.0
 11
-11.399993896484386
 21
2.1999969482421875
 31
0.0
  0
MTEXT
  5
2BF
100
AcDbEntity
  8
0
  6
CONTINUOUS
 62
               7
100
AcDbMText
 10
-18.81817574737487
 20
-0.8000030517578125
 30
0.0
 40
3.2000000476837158
 41
0.0
 71
               4
 72
               1
  1
\W1.091;\A1;50
  0
LINE
  5
2C0
100
AcDbEntity
  8
0
  6
CONTINUOUS
 62
               7
100
AcDbLine
 10
-1.799993896484386
 20
-9.8000030517578125
 30
0.0
 11
-1.799993896484386
 21
2.1999969482421875
 31
0.0
  0
MTEXT
  5
2C1
100
AcDbEntity
  8
0
  6
CONTINUOUS
 62
               7
100
AcDbMText
 10
-9.2666606028874821
 20
-0.8000030517578125
 30
0.0
 40
3.2000000476837158
 41
0.0
 71
               4
 72
               1
  1
\A1;55
  0
LINE
  5
2C2
100
AcDbEntity
  8
0
  6
CONTINUOUS
 62
               7
100
AcDbLine
 10
46.200006103515619
 20
-9.8000030517578125
 30
0.0
 11
46.200006103515619
 21
2.1999969482421875
 31
0.0
  0
MTEXT
  5
2C3
100
AcDbEntity
  8
0
  6
CONTINUOUS
 62
               7
100
AcDbMText
 10
0.3818242526251304
 20
-0.8000030517578125
 30
0.0
 40
3.2000000476837158
 41
0.0
 71
               4
 72
               1
  1
\W1.091;\A1;60
  0
MTEXT
  5
2C4
100
AcDbEntity
  8
0
  6
CONTINUOUS
 62
               7
100
AcDbMText
 10
36.035338739809859
 20
5.7584782843850348
 30
0.0
 40
3.2000000476837158
 41
0.0
 71
               4
 72
               1
  1
\W1.200;\A1;(mm)
  0
MTEXT
  5
2C5
100
AcDbEntity
  8
0
  6
CONTINUOUS
 62
               7
100
AcDbMText
 10
-129.46666069825491
 20
-0.8000030517578125
 30
0.0
 40
3.2000000476837158
 41
0.0
 71
               4
 72
               1
  1
\A1;STROKE
  0
MTEXT
  5
2C6
100
AcDbEntity
  8
0
  6
CONTINUOUS
 62
               7
100
AcDbMText
 10
-131.06666072209677
 20
-6.8000030517578125
 30
0.0
 40
3.2000000476837158
 41
0.0
 71
               4
 72
               1
  1
\A1;STRETCH
  0
MTEXT
  5
2C7
100
AcDbEntity
  8
0
  6
CONTINUOUS
 62
               7
100
AcDbMText
 10
-106.83528807328234
 20
-6.8000030517578125
 30
0.0
 40
3.2000000476837158
 41
0.0
 71
               4
 72
               1
  1
\W1.059;\A1;-30
  0
MTEXT
  5
2C8
100
AcDbEntity
  8
0
  6
CONTINUOUS
 62
               7
100
AcDbMText
 10
-97.266660626729333
 20
-6.8000030517578125
 30
0.0
 40
3.2000000476837158
 41
0.0
 71
               4
 72
               1
  1
\A1;-25
  0
MTEXT
  5
2C9
100
AcDbEntity
  8
0
  6
CONTINUOUS
 62
               7
100
AcDbMText
 10
-87.635288073282354
 20
-6.8000030517578125
 30
0.0
 40
3.2000000476837158
 41
0.0
 71
               4
 72
               1
  1
\W1.059;\A1;-20
  0
MTEXT
  5
2CA
100
AcDbEntity
  8
0
  6
CONTINUOUS
 62
               7
100
AcDbMText
 10
-77.999993963539623
 20
-6.8000030517578125
 30
0.0
 40
3.2000000476837158
 41
0.0
 71
               4
 72
               1
  1
\W1.125;\A1;-15
  0
MTEXT
  5
2CB
100
AcDbEntity
  8
0
  6
CONTINUOUS
 62
               7
100
AcDbMText
 10
-68.359993958473211
 20
-6.8000030517578125
 30
0.0
 40
3.2000000476837158
 41
0.0
 71
               4
 72
               1
  1
\W1.200;\A1;-10
  0
MTEXT
  5
2CC
100
AcDbEntity
  8
0
  6
CONTINUOUS
 62
               7
100
AcDbMText
 10
-57.266660602887491
 20
-6.8000030517578125
 30
0.0
 40
3.2000000476837158
 41
0.0
 71
               4
 72
               1
  1
\A1;-5
  0
MTEXT
  5
2CD
100
AcDbEntity
  8
0
  6
CONTINUOUS
 62
               7
100
AcDbMText
 10
-45.959993895530708
 20
-6.8000030517578125
 30
0.0
 40
3.2000000476837158
 41
0.0
 71
               4
 72
               1
  1
\W1.200;\A1;0
  0
MTEXT
  5
2CE
100
AcDbEntity
  8
0
  6
CONTINUOUS
 62
               7
100
AcDbMText
 10
-36.46666057904563
 20
-6.8000030517578125
 30
0.0
 40
3.2000000476837158
 41
0.0
 71
               4
 72
               1
  1
\A1;5
  0
MTEXT
  5
2CF
100
AcDbEntity
  8
0
  6
CONTINUOUS
 62
               7
100
AcDbMText
 10
-28.288882822460607
 20
-6.8000030517578125
 30
0.0
 40
3.2000000476837158
 41
0.0
 71
               4
 72
               1
  1
\W1.333;\A1;10
  0
MTEXT
  5
2D0
100
AcDbEntity
  8
0
  6
CONTINUOUS
 62
               7
100
AcDbMText
 10
-18.759993942260753
 20
-6.8000030517578125
 30
0.0
 40
3.2000000476837158
 41
0.0
 71
               4
 72
               1
  1
\W1.200;\A1;15
  0
MTEXT
  5
2D1
100
AcDbEntity
  8
0
  6
CONTINUOUS
 62
               7
100
AcDbMText
 10
-9.2181757473748682
 20
-6.8000030517578125
 30
0.0
 40
3.2000000476837158
 41
0.0
 71
               4
 72
               1
  1
\W1.091;\A1;20
  0
MTEXT
  5
2D2
100
AcDbEntity
  8
0
  6
CONTINUOUS
 62
               7
100
AcDbMText
 10
0.3333393971125165
 20
-6.8000030517578125
 30
0.0
 40
3.2000000476837158
 41
0.0
 71
               4
 72
               1
  1
\A1;25
  0
MTEXT
  5
2D3
100
AcDbEntity
  8
0
  6
CONTINUOUS
 62
               7
100
AcDbMText
 10
-60.062969922840452
 20
5.7350981593257018
 30
0.0
 40
3.2000000476837158
 41
0.0
 71
               4
 72
               1
  1
\W1.065;\A1;STRETCH LIST
  0
LINE
  5
2D4
100
AcDbEntity
  8
0
  6
CONTINUOUS
 62
               7
100
AcDbLine
 10
-138.39999389648437
 20
94.5
 30
0.0
 11
138.35000610351562
 21
94.5
 31
0.0
  0
LINE
  5
2D5
100
AcDbEntity
  8
0
  6
CONTINUOUS
 62
               7
100
AcDbLine
 10
138.35000610351562
 20
94.5
 30
0.0
 11
138.35000610351562
 21
-94.800003051757812
 31
0.0
  0
LINE
  5
2D6
100
AcDbEntity
  8
0
  6
CONTINUOUS
 62
               7
100
AcDbLine
 10
-138.39999389648437
 20
-94.800003051757812
 30
0.0
 11
138.35000610351562
 21
-94.800003051757812
 31
0.0
  0
LINE
  5
2D7
100
AcDbEntity
  8
0
  6
CONTINUOUS
 62
               7
100
AcDbLine
 10
-138.39999389648437
 20
94.5
 30
0.0
 11
-138.39999389648437
 21
-94.800003051757812
 31
0.0
  0
LINE
  5
2D8
100
AcDbEntity
  8
0
  6
CONTINUOUS
 62
               7
100
AcDbLine
 10
73.350006103515625
 20
-84.800003051757813
 30
0.0
 11
138.35000610351562
 21
-84.800003051757813
 31
0.0
  0
LINE
  5
2D9
100
AcDbEntity
  8
0
  6
CONTINUOUS
 62
               7
100
AcDbLine
 10
-138.39999389648437
 20
84.5
 30
0.0
 11
-73.399993896484375
 21
84.5
 31
0.0
  0
LINE
  5
2DA
100
AcDbEntity
  8
0
  6
CONTINUOUS
 62
               7
100
AcDbLine
 10
73.350006103515625
 20
84.5
 30
0.0
 11
138.35000610351562
 21
84.5
 31
0.0
  0
LINE
  5
2DB
100
AcDbEntity
  8
0
  6
CONTINUOUS
 62
               7
100
AcDbLine
 10
73.350006103515625
 20
-84.800003051757813
 30
0.0
 11
73.350006103515625
 21
-94.800003051757812
 31
0.0
  0
LINE
  5
2DC
100
AcDbEntity
  8
0
  6
CONTINUOUS
 62
               7
100
AcDbLine
 10
73.350006103515625
 20
94.5
 30
0.0
 11
73.350006103515625
 21
84.5
 31
0.0
  0
LINE
  5
2DD
100
AcDbEntity
  8
0
  6
CONTINUOUS
 62
               7
100
AcDbLine
 10
-73.399993896484375
 20
94.5
 30
0.0
 11
-73.399993896484375
 21
84.5
 31
0.0
  0
MTEXT
  5
2DE
100
AcDbEntity
  8
0
  6
CONTINUOUS
 62
               7
100
AcDbMText
 10
77.440523342735503
 20
-89.800003051757812
 30
0.0
 40
4.5
 41
0.0
 71
               4
 72
               1
  1
\W1.121;\A1;KOGANEI CORP.
  0
MTEXT
  5
2DF
100
AcDbEntity
  8
0
  6
CONTINUOUS
 62
               7
100
AcDbMText
 10
93.73085788106853
 20
89.5
 30
0.0
 40
3.1999998092651367
 41
0.0
 71
               4
 72
               1
  1
\W1.277;\A1;Ver. 1.2
  0
MTEXT
  5
2E0
100
AcDbEntity
  8
0
  6
CONTINUOUS
 62
               7
100
AcDbMText
 10
-129.33924483662557
 20
91.099999904632568
 30
0.0
 40
3.1999998092651367
 41
0.0
 71
               1
 72
               1
  1
\W1.051;\A1;CS-PEN CYLINDER
  0
MTEXT
  5
2E1
100
AcDbEntity
  8
0
  6
CONTINUOUS
 62
               7
100
AcDbMText
 10
-129.42046635399544
 20
74.5
 30
0.0
 40
3.2000000476837158
 41
0.0
 71
               4
 72
               1
  1
\W1.087;\A1;MODEL:CS-PBDAS10*ST(35)
  0
ENDSEC
  0
SECTION
  2
OBJECTS
  0
DICTIONARY
  5
19
100
AcDbDictionary
  3
ACAD_GROUP
350
1A
  3
ACAD_MLINESTYLE
350
1B
  0
DICTIONARY
  5
1A
102
{ACAD_REACTORS
330
19
102
}
100
AcDbDictionary
  0
DICTIONARY
  5
1B
102
{ACAD_REACTORS
330
19
102
}
100
AcDbDictionary
  3
STANDARD
350
1C
  0
MLINESTYLE
  5
1C
102
{ACAD_REACTORS
330
1B
102
}
100
AcDbMlineStyle
  2
Standard
 70
               0
  3

 62
               0
 51
90.0
 52
90.0
 71
               2
 49
0.5
 62
             256
  6
ByLayer
 49
-0.5
 62
             256
  6
ByLayer
  0
ENDSEC
  0
EOF
