  0
SECTION
  2
HEADER
  9
$ACADVER
  1
AC1012
  9
$DWGCODEPAGE
  3
dos932
  9
$INSBASE
 10
0.0
 20
0.0
 30
0.0
  9
$EXTMIN
 10
-138.39999389648437
 20
-94.800003051757812
 30
0.0
  9
$EXTMAX
 10
138.35000610351562
 20
94.5
 30
0.0
  9
$LIMMIN
 10
-138.39999389648437
 20
-94.800003051757812
  9
$LIMMAX
 10
138.35000610351562
 20
94.5
  9
$ORTHOMODE
 70
               0
  9
$REGENMODE
 70
               1
  9
$FILLMODE
 70
               1
  9
$QTEXTMODE
 70
               0
  9
$MIRRTEXT
 70
               1
  9
$DRAGMODE
 70
               2
  9
$LTSCALE
 40
1.0
  9
$OSMODE
 70
               0
  9
$ATTMODE
 70
               1
  9
$TEXTSIZE
 40
3.2000000476837158
  9
$TRACEWID
 40
0.05
  9
$TEXTSTYLE
  7
MX_NOTE_STANDARD
  9
$CLAYER
  8
0
  9
$CELTYPE
  6
CONTINUOUS
  9
$CECOLOR
 62
             256
  9
$CELTSCALE
 40
1.0
  9
$DELOBJ
 70
               1
  9
$DISPSILH
 70
               0
  9
$DIMSCALE
 40
1.0
  9
$DIMASZ
 40
2.5
  9
$DIMEXO
 40
1.5
  9
$DIMDLI
 40
3.75
  9
$DIMRND
 40
0.0
  9
$DIMDLE
 40
0.0
  9
$DIMEXE
 40
1.5
  9
$DIMTP
 40
0.0
  9
$DIMTM
 40
0.0
  9
$DIMTXT
 40
3.2000000476837158
  9
$DIMCEN
 40
2.5
  9
$DIMTSZ
 40
0.0
  9
$DIMTOL
 70
               0
  9
$DIMLIM
 70
               0
  9
$DIMTIH
 70
               0
  9
$DIMTOH
 70
               0
  9
$DIMSE1
 70
               0
  9
$DIMSE2
 70
               0
  9
$DIMTAD
 70
               1
  9
$DIMZIN
 70
               8
  9
$DIMBLK
  1

  9
$DIMASO
 70
               1
  9
$DIMSHO
 70
               1
  9
$DIMPOST
  1

  9
$DIMAPOST
  1

  9
$DIMALT
 70
               0
  9
$DIMALTD
 70
               4
  9
$DIMALTF
 40
0.03937007874016
  9
$DIMLFAC
 40
1.0
  9
$DIMTOFL
 70
               1
  9
$DIMTVP
 40
0.0
  9
$DIMTIX
 70
               0
  9
$DIMSOXD
 70
               0
  9
$DIMSAH
 70
               0
  9
$DIMBLK1
  1

  9
$DIMBLK2
  1

  9
$DIMSTYLE
  2
MXDIMSTYLE
  9
$DIMCLRD
 70
               0
  9
$DIMCLRE
 70
               0
  9
$DIMCLRT
 70
               0
  9
$DIMTFAC
 40
1.0
  9
$DIMGAP
 40
1.0
  9
$DIMJUST
 70
               0
  9
$DIMSD1
 70
               0
  9
$DIMSD2
 70
               0
  9
$DIMTOLJ
 70
               1
  9
$DIMTZIN
 70
               0
  9
$DIMALTZ
 70
               0
  9
$DIMALTTZ
 70
               0
  9
$DIMFIT
 70
               3
  9
$DIMUPT
 70
               1
  9
$DIMUNIT
 70
               2
  9
$DIMDEC
 70
               4
  9
$DIMTDEC
 70
               4
  9
$DIMALTU
 70
               2
  9
$DIMALTTD
 70
               4
  9
$DIMTXSTY
  7
MX_NOTE_STANDARD
  9
$DIMAUNIT
 70
               0
  9
$LUNITS
 70
               2
  9
$LUPREC
 70
               4
  9
$SKETCHINC
 40
0.1
  9
$FILLETRAD
 40
0.0
  9
$AUNITS
 70
               0
  9
$AUPREC
 70
               0
  9
$MENU
  1
acad
  9
$ELEVATION
 40
0.0
  9
$PELEVATION
 40
0.0
  9
$THICKNESS
 40
0.0
  9
$LIMCHECK
 70
               0
  9
$BLIPMODE
 70
               1
  9
$CHAMFERA
 40
0.0
  9
$CHAMFERB
 40
0.0
  9
$CHAMFERC
 40
0.0
  9
$CHAMFERD
 40
0.0
  9
$SKPOLY
 70
               0
  9
$TDCREATE
 40
2453388.406203704
  9
$TDUPDATE
 40
2453388.406203704
  9
$TDINDWG
 40
0.0000000000
  9
$TDUSRTIMER
 40
0.0000000000
  9
$USRTIMER
 70
               1
  9
$ANGBASE
 50
0.0
  9
$ANGDIR
 70
               0
  9
$PDMODE
 70
               0
  9
$PDSIZE
 40
0.0
  9
$PLINEWID
 40
0.0
  9
$COORDS
 70
               1
  9
$SPLFRAME
 70
               0
  9
$SPLINETYPE
 70
               6
  9
$SPLINESEGS
 70
               8
  9
$ATTDIA
 70
               0
  9
$ATTREQ
 70
               1
  9
$HANDLING
 70
               1
  9
$HANDSEED
  5
29B
  9
$SURFTAB1
 70
               6
  9
$SURFTAB2
 70
               6
  9
$SURFTYPE
 70
               6
  9
$SURFU
 70
               6
  9
$SURFV
 70
               6
  9
$UCSNAME
  2

  9
$UCSORG
 10
0.0
 20
0.0
 30
0.0
  9
$UCSXDIR
 10
1.0
 20
0.0
 30
0.0
  9
$UCSYDIR
 10
0.0
 20
1.0
 30
0.0
  9
$PUCSNAME
  2

  9
$PUCSORG
 10
0.0
 20
0.0
 30
0.0
  9
$PUCSXDIR
 10
1.0
 20
0.0
 30
0.0
  9
$PUCSYDIR
 10
0.0
 20
1.0
 30
0.0
  9
$USERI1
 70
               0
  9
$USERI2
 70
               0
  9
$USERI3
 70
               0
  9
$USERI4
 70
               0
  9
$USERI5
 70
               0
  9
$USERR1
 40
0.0
  9
$USERR2
 40
0.0
  9
$USERR3
 40
0.0
  9
$USERR4
 40
0.0
  9
$USERR5
 40
0.0
  9
$WORLDVIEW
 70
               1
  9
$SHADEDGE
 70
               3
  9
$SHADEDIF
 70
              70
  9
$TILEMODE
 70
               1
  9
$MAXACTVP
 70
              16
  9
$PINSBASE
 10
0.0
 20
0.0
 30
0.0
  9
$PLIMCHECK
 70
               0
  9
$PEXTMIN
 10
1.0000000000000000E+20
 20
1.0000000000000000E+20
 30
1.0000000000000000E+20
  9
$PEXTMAX
 10
-1.0000000000000000E+20
 20
-1.0000000000000000E+20
 30
-1.0000000000000000E+20
  9
$PLIMMIN
 10
0.0
 20
0.0
  9
$PLIMMAX
 10
12.0
 20
9.0
  9
$UNITMODE
 70
               0
  9
$VISRETAIN
 70
               0
  9
$PLINEGEN
 70
               1
  9
$PSLTSCALE
 70
               0
  9
$TREEDEPTH
 70
            3020
  9
$PICKSTYLE
 70
               1
  9
$CMLSTYLE
  2
Standard
  9
$CMLJUST
 70
               0
  9
$CMLSCALE
 40
1.0
  9
$SAVEIMAGES
 70
               0
  0
ENDSEC
  0
SECTION
  2
CLASSES
  0
CLASS
  1
LWPOLYLINE
  2
AcDbPolyline
  3
"AutoCAD"
 90
        0
280
               0
281
               1
  0
CLASS
  1
IMAGE
  2
AcDbRasterImage
  3
ISM
 90
      127
280
               0
281
               1
  0
CLASS
  1
OLE2FRAME
  2
AcDbOle2Frame
  3
""
 90
        0
280
               0
281
               1
  0
CLASS
  1
HATCH
  2
AcDbHatch
  3
"ACAD_SEDONA"
 90
        0
280
               0
281
               1
  0
CLASS
  1
DICTIONARYVAR
  2
AcDbDictionaryVar
  3
"AutoCAD"
 90
        0
280
               0
281
               0
  0
CLASS
  1
RASTERVARIABLES
  2
AcDbRasterVariables
  3
ISM
 90
        0
280
               0
281
               0
  0
CLASS
  1
IMAGEDEF
  2
AcDbRasterImageDef
  3
ISM
 90
        0
280
               0
281
               0
  0
CLASS
  1
IMAGEDEF_REACTOR
  2
AcDbRasterImageDefReactor
  3
ISM
 90
        1
280
               0
281
               0
  0
CLASS
  1
IDBUFFER
  2
AcDbIdBuffer
  3
"Acad"
 90
        0
280
               0
281
               0
  0
CLASS
  1
SPATIAL_FILTER
  2
AcDbSpatialFilter
  3
"Acad"
 90
        0
280
               0
281
               0
  0
CLASS
  1
XRECORD
  2
AcDbXrecord
  3
"<Built In>"
 90
        0
280
               0
281
               0
  0
CLASS
  1
SORTENTSTABLE
  2
AcDbSortentsTable
  3
"AutoCAD"
 90
        0
280
               0
281
               0
  0
CLASS
  1
LAYER_INDEX
  2
AcDbLayerIndex
  3
"Acad"
 90
        0
280
               0
281
               0
  0
CLASS
  1
SPATIAL_INDEX
  2
AcDbSpatialIndex
  3
"Acad"
 90
        0
280
               0
281
               0
  0
CLASS
  1
OBJECT_PTR
  2
CAseDLPNTableRecord
  3
"ASE-LPNTableRecord"
 90
        1
280
               0
281
               0
  0
CLASS
  1
LAYOUT
  2
AcDbLayout
  3
"AutoCAD 2000"
 90
        1
280
               0
281
               0
  0
CLASS
  1
PLOTSETTINGS
  2
AcDbPlotSettings
  3
"AutoCAD 2000"
 90
        1
280
               0
281
               0
  0
CLASS
  1
ACDBDICTIONARYWDFLT
  2
AcDbDictionaryWithDefault
  3
"AutoCAD 2000"
 90
        1
280
               0
281
               0
  0
CLASS
  1
ACDBPLACEHOLDER
  2
AcDbPlaceHolder
  3
"AutoCAD 2000"
 90
        1
280
               0
281
               0
  0
ENDSEC
  0
SECTION
  2
TABLES
  0
TABLE
  2
VPORT
  5
7
100
AcDbSymbolTable
 70
               1
  0
VPORT
  5
15
100
AcDbSymbolTableRecord
100
AcDbViewportTableRecord
  2
*ACTIVE
 70
               0
 10
0.0
 20
0.0
 11
1.0
 21
1.0
 12
-0.024993896484375
 22
-0.1500015258789063
 13
0.0
 23
0.0
 14
1.0
 24
1.0
 15
0.0
 25
0.0
 16
0.0
 26
0.0
 36
1.0
 17
0.0
 27
0.0
 37
0.0
 40
191.1930030822754
 41
1.7320508075688772
 42
50.0
 43
0.0
 44
0.0
 50
0.0
 51
0.0
 71
               0
 72
             100
 73
               1
 74
               1
 75
               0
 76
               0
 77
               0
 78
               0
  0
ENDTAB
  0
TABLE
  2
LTYPE
  5
4
100
AcDbSymbolTable
 70
               6
  0
LTYPE
  5
11
100
AcDbSymbolTableRecord
100
AcDbLinetypeTableRecord
  2
BYBLOCK
 70
              64
  3

 72
              65
 73
               0
 40
0.0
  0
LTYPE
  5
12
100
AcDbSymbolTableRecord
100
AcDbLinetypeTableRecord
  2
BYLAYER
 70
              64
  3

 72
              65
 73
               0
 40
0.0
  0
LTYPE
  5
13
100
AcDbSymbolTableRecord
100
AcDbLinetypeTableRecord
  2
CONTINUOUS
 70
              64
  3
Solid line
 72
              65
 73
               0
 40
0.0
  0
LTYPE
  5
28
100
AcDbSymbolTableRecord
100
AcDbLinetypeTableRecord
  2
PHANTOM
 70
              64
  3
Phantom ______  __  __  ______  __  __  ______
 72
              65
 73
               6
 40
30.0
 49
20.0
 74
               0
 49
-2.0
 74
               0
 49
2.0
 74
               0
 49
-2.0
 74
               0
 49
2.0
 74
               0
 49
-2.0
 74
               0
  0
LTYPE
  5
2A
100
AcDbSymbolTableRecord
100
AcDbLinetypeTableRecord
  2
CENTER
 70
              64
  3
Center ____ _ ____ _ ____ _ ____ _ ____ _ ____
 72
              65
 73
               4
 40
26.0
 49
20.0
 74
               0
 49
-2.0
 74
               0
 49
2.0
 74
               0
 49
-2.0
 74
               0
  0
LTYPE
  5
32
100
AcDbSymbolTableRecord
100
AcDbLinetypeTableRecord
  2
DASHED
 70
              64
  3
Dashed __ __ __ __ __ __ __ __ __ __ __ __ __ _
 72
              65
 73
               2
 40
4.0
 49
2.0
 74
               0
 49
-2.0
 74
               0
  0
ENDTAB
  0
TABLE
  2
LAYER
  5
2
100
AcDbSymbolTable
 70
               2
  0
LAYER
  5
14
100
AcDbSymbolTableRecord
100
AcDbLayerTableRecord
  2
0
 70
               0
 62
               7
  6
CONTINUOUS
  0
LAYER
  5
1D
100
AcDbSymbolTableRecord
100
AcDbLayerTableRecord
  2
DEFPOINTS
 70
               0
 62
               7
  6
CONTINUOUS
  0
ENDTAB
  0
TABLE
  2
STYLE
  5
3
100
AcDbSymbolTable
 70
               1
  0
STYLE
  5
17
100
AcDbSymbolTableRecord
100
AcDbTextStyleTableRecord
  2
MX_NOTE_STANDARD
 70
               0
 40
0.0
 41
1.0
 50
0.0
 71
               0
 42
3.2000000476837158
  3
txt.shx
  4
extfont.shx
  0
ENDTAB
  0
TABLE
  2
VIEW
  5
5
100
AcDbSymbolTable
 70
               0
  0
ENDTAB
  0
TABLE
  2
UCS
  5
6
100
AcDbSymbolTable
 70
               0
  0
ENDTAB
  0
TABLE
  2
APPID
  5
8
100
AcDbSymbolTable
 70
               1
  0
APPID
  5
16
100
AcDbSymbolTableRecord
100
AcDbRegAppTableRecord
  2
ACAD
 70
               0
  0
ENDTAB
  0
TABLE
  2
DIMSTYLE
  5
9
100
AcDbSymbolTable
 70
               1
  0
DIMSTYLE
105
18
100
AcDbSymbolTableRecord
100
AcDbDimStyleTableRecord
  2
MXDIMSTYLE
 70
               0
  3

  4

  5

  6

  7

 40
1.0
 41
2.5
 42
1.5
 43
3.75
 44
1.5
 45
0.0
 46
0.0
 47
0.0
 48
0.0
 71
               0
 72
               0
 73
               0
 74
               0
 75
               0
 76
               0
 77
               1
 78
               8
140
3.2000000476837158
141
2.5
142
0.0
143
0.03937007874016
144
1.0
145
0.0
146
1.0
147
1.0
170
               0
171
               4
172
               1
173
               0
174
               0
175
               0
176
               0
177
               0
178
               0
270
               2
271
               4
272
               4
273
               2
274
               4
275
               0
280
               0
281
               0
282
               0
283
               1
284
               0
285
               0
286
               0
287
               3
288
               1
340
17
  0
ENDTAB
  0
TABLE
  2
BLOCK_RECORD
  5
1
100
AcDbSymbolTable
 70
               9
  0
BLOCK_RECORD
  5
A
100
AcDbSymbolTableRecord
100
AcDbBlockTableRecord
  2
*MODEL_SPACE
  0
BLOCK_RECORD
  5
B
100
AcDbSymbolTableRecord
100
AcDbBlockTableRecord
  2
*PAPER_SPACE
  0
BLOCK_RECORD
  5
1E
100
AcDbSymbolTableRecord
100
AcDbBlockTableRecord
  2
CS-PBSAS107-1
  0
BLOCK_RECORD
  5
1F
100
AcDbSymbolTableRecord
100
AcDbBlockTableRecord
  2
CS-PBSAS107-2
  0
BLOCK_RECORD
  5
20
100
AcDbSymbolTableRecord
100
AcDbBlockTableRecord
  2
CS-PBSAS107-3
  0
BLOCK_RECORD
  5
21
100
AcDbSymbolTableRecord
100
AcDbBlockTableRecord
  2
CS-PBSAS107-4
  0
BLOCK_RECORD
  5
22
100
AcDbSymbolTableRecord
100
AcDbBlockTableRecord
  2
CS-PBSAS107-5
  0
BLOCK_RECORD
  5
23
100
AcDbSymbolTableRecord
100
AcDbBlockTableRecord
  2
CS-PBSAS107-6
  0
BLOCK_RECORD
  5
24
100
AcDbSymbolTableRecord
100
AcDbBlockTableRecord
  2
CS-PBSAS107-7
  0
BLOCK_RECORD
  5
25
100
AcDbSymbolTableRecord
100
AcDbBlockTableRecord
  2
CS-PBSAS107-8
  0
BLOCK_RECORD
  5
26
100
AcDbSymbolTableRecord
100
AcDbBlockTableRecord
  2
CS-PBSAS107-9
  0
ENDTAB
  0
ENDSEC
  0
SECTION
  2
BLOCKS
  0
BLOCK
  5
D
100
AcDbEntity
  8
0
100
AcDbBlockBegin
  2
*MODEL_SPACE
 70
               0
 10
0.0
 20
0.0
 30
0.0
  3
*MODEL_SPACE
  1

  0
ENDBLK
  5
E
100
AcDbEntity
  8
0
100
AcDbBlockEnd
  0
BLOCK
  5
F
100
AcDbEntity
 67
               1
  8
0
100
AcDbBlockBegin
  2
*PAPER_SPACE
 70
               0
 10
0.0
 20
0.0
 30
0.0
  3
*PAPER_SPACE
  1

  0
ENDBLK
  5
10
100
AcDbEntity
 67
               1
  8
0
100
AcDbBlockEnd
  0
BLOCK
  5
27
100
AcDbEntity
  8
0
100
AcDbBlockBegin
  2
CS-PBSAS107-1
 70
               0
 10
0.0
 20
0.0
 30
0.0
  3
CS-PBSAS107-1
  1

  0
LINE
  5
29
100
AcDbEntity
  8
0
  6
PHANTOM
 62
               3
100
AcDbLine
 10
48.943884194056665
 20
19.397388119555828
 30
0.0
 11
48.943884194056665
 21
-13.009863588667358
 31
0.0
  0
LINE
  5
2B
100
AcDbEntity
  8
0
  6
CENTER
 62
               2
100
AcDbLine
 10
-24.899461475061173
 20
0.0
 30
0.0
 11
101.04411374474373
 21
0.0
 31
0.0
  0
ARC
  5
2C
100
AcDbEntity
  8
0
  6
CONTINUOUS
 62
               4
100
AcDbCircle
 10
-16.786727905273438
 20
-3.0310888290405273
 30
0.0
 40
1.5634002685546875
100
AcDbArc
 50
319.73979144681834
 51
40.260208553181663
  0
ARC
  5
2D
100
AcDbEntity
  8
0
  6
CONTINUOUS
 62
               4
100
AcDbCircle
 10
-16.859931945800781
 20
-3.0310888290405273
 30
0.0
 40
1.5634002685546875
100
AcDbArc
 50
139.73979645577467
 51
220.26021356213801
  0
ARC
  5
2E
100
AcDbEntity
  8
0
  6
CONTINUOUS
 62
               4
100
AcDbCircle
 10
-16.786727905273438
 20
3.0310888290405273
 30
0.0
 40
1.5634002685546875
100
AcDbArc
 50
319.73979144681834
 51
40.260208553181663
  0
ARC
  5
2F
100
AcDbEntity
  8
0
  6
CONTINUOUS
 62
               4
100
AcDbCircle
 10
-20.921417236328125
 20
0.0
 30
0.0
 40
5.698087215423584
100
AcDbArc
 50
339.22908737547857
 51
20.770912624521426
  0
ARC
  5
30
100
AcDbEntity
  8
0
  6
CONTINUOUS
 62
               4
100
AcDbCircle
 10
-12.725242614746094
 20
0.0
 30
0.0
 40
5.698087215423584
100
AcDbArc
 50
159.22908555424573
 51
200.77091080328859
  0
ARC
  5
31
100
AcDbEntity
  8
0
  6
CONTINUOUS
 62
               4
100
AcDbCircle
 10
-16.859931945800781
 20
3.0310888290405273
 30
0.0
 40
1.5634002685546875
100
AcDbArc
 50
139.73979645577467
 51
220.26021356213801
  0
LINE
  5
33
100
AcDbEntity
  8
0
  6
DASHED
 62
               2
100
AcDbLine
 10
6.0
 20
5.9999990463256836
 30
0.0
 11
6.0
 21
3.0
 31
0.0
  0
LINE
  5
34
100
AcDbEntity
  8
0
  6
CENTER
 62
               2
100
AcDbLine
 10
8.5
 20
8.2830376625061035
 30
0.0
 11
8.5
 21
0.2885394096374512
 31
0.0
  0
LINE
  5
35
100
AcDbEntity
  8
0
  6
CONTINUOUS
 62
               7
100
AcDbLine
 10
11.269996643066406
 20
-3.6055517196655273
 30
0.0
 11
11.269996643066406
 21
-6.0
 31
0.0
  0
LINE
  5
36
100
AcDbEntity
  8
0
  6
CONTINUOUS
 62
               7
100
AcDbLine
 10
1.7300033569335938
 20
-3.6055517196655273
 30
0.0
 11
1.7300033569335938
 21
-6.0
 31
0.0
  0
LINE
  5
37
100
AcDbEntity
  8
0
  6
DASHED
 62
               2
100
AcDbLine
 10
11.0
 20
5.9999990463256836
 30
0.0
 11
11.0
 21
3.0
 31
0.0
  0
LINE
  5
38
100
AcDbEntity
  8
0
  6
DASHED
 62
               2
100
AcDbLine
 10
10.5
 20
5.9999990463256836
 30
0.0
 11
10.5
 21
3.0
 31
0.0
  0
LINE
  5
39
100
AcDbEntity
  8
0
  6
DASHED
 62
               2
100
AcDbLine
 10
6.5
 20
5.9999990463256836
 30
0.0
 11
6.5
 21
3.0
 31
0.0
  0
LINE
  5
3A
100
AcDbEntity
  8
0
  6
CONTINUOUS
 62
               7
100
AcDbLine
 10
-7.2000045776367187
 20
4.9999990463256836
 30
0.0
 11
-7.2000045776367187
 21
-5.0
 31
0.0
  0
LINE
  5
3B
100
AcDbEntity
  8
0
  6
CONTINUOUS
 62
               4
100
AcDbLine
 10
-15.593666041376764
 20
-4.0414507471987235
 30
0.0
 11
-15.223323786738092
 21
-3.399999157487855
 31
0.0
  0
LINE
  5
3C
100
AcDbEntity
  8
0
  6
CONTINUOUS
 62
               4
100
AcDbLine
 10
-18.423328912224861
 20
-3.3999981719664447
 30
0.0
 11
-18.052986657586189
 21
-4.0414497616773133
 31
0.0
  0
LINE
  5
3D
100
AcDbEntity
  8
0
  6
CONTINUOUS
 62
               4
100
AcDbLine
 10
-15.593671562897725
 20
4.0414511011169907
 30
0.0
 11
-15.223329308259054
 21
3.3999995114061221
 31
0.0
  0
LINE
  5
3E
100
AcDbEntity
  8
0
  6
CONTINUOUS
 62
               4
100
AcDbLine
 10
-18.423323390703899
 20
3.3999985258847119
 30
0.0
 11
-18.052981136065227
 21
4.0414501155955804
 31
0.0
  0
LINE
  5
3F
100
AcDbEntity
  8
0
  6
CONTINUOUS
 62
               7
100
AcDbLine
 10
-15.22332763671875
 20
-2.0
 30
0.0
 11
-8.0
 21
-2.0
 31
0.0
  0
LINE
  5
40
100
AcDbEntity
  8
0
  6
CONTINUOUS
 62
               2
100
AcDbLine
 10
-15.22332763671875
 20
-1.5
 30
0.0
 11
-8.0
 21
-1.5
 31
0.0
  0
LINE
  5
41
100
AcDbEntity
  8
0
  6
CONTINUOUS
 62
               2
100
AcDbLine
 10
-15.22332763671875
 20
1.5
 30
0.0
 11
-8.0
 21
1.5
 31
0.0
  0
LINE
  5
42
100
AcDbEntity
  8
0
  6
CONTINUOUS
 62
               4
100
AcDbLine
 10
-18.052986145019531
 20
-2.020726203918457
 30
0.0
 11
-15.593673706054687
 21
-2.020726203918457
 31
0.0
  0
LINE
  5
43
100
AcDbEntity
  8
0
  6
CONTINUOUS
 62
               4
100
AcDbLine
 10
-18.052986145019531
 20
2.020726203918457
 30
0.0
 11
-15.593673706054687
 21
2.020726203918457
 31
0.0
  0
LINE
  5
44
100
AcDbEntity
  8
0
  6
CONTINUOUS
 62
               4
100
AcDbLine
 10
-18.052986145019531
 20
-4.0414524078369141
 30
0.0
 11
-15.593673706054687
 21
-4.0414524078369141
 31
0.0
  0
LINE
  5
45
100
AcDbEntity
  8
0
  6
CONTINUOUS
 62
               4
100
AcDbLine
 10
-18.052986145019531
 20
4.0414514541625977
 30
0.0
 11
-15.593673706054687
 21
4.0414514541625977
 31
0.0
  0
LINE
  5
46
100
AcDbEntity
  8
0
  6
CONTINUOUS
 62
               4
100
AcDbLine
 10
-15.22332763671875
 20
3.4000005722045898
 30
0.0
 11
-15.22332763671875
 21
-3.4000005722045898
 31
0.0
  0
LINE
  5
47
100
AcDbEntity
  8
0
  6
CONTINUOUS
 62
               4
100
AcDbLine
 10
-18.423332214355469
 20
3.4000005722045898
 30
0.0
 11
-18.423332214355469
 21
-3.4000005722045898
 31
0.0
  0
LINE
  5
48
100
AcDbEntity
  8
0
  6
CONTINUOUS
 62
               7
100
AcDbLine
 10
-22.300003051757813
 20
2.0
 30
0.0
 11
-22.300003051757813
 21
-2.0
 31
0.0
  0
LINE
  5
49
100
AcDbEntity
  8
0
  6
CONTINUOUS
 62
               7
100
AcDbLine
 10
-23.000007500214906
 20
-1.3000047610962611
 30
0.0
 11
-22.30000561913721
 21
-2.000006583168215
 31
0.0
  0
LINE
  5
4A
100
AcDbEntity
  8
0
  6
CONTINUOUS
 62
               7
100
AcDbLine
 10
-22.300011182521757
 20
2.000003226573881
 30
0.0
 11
-23.000013004593711
 21
1.3000013454961845
 31
0.0
  0
LINE
  5
4B
100
AcDbEntity
  8
0
  6
CONTINUOUS
 62
               2
100
AcDbLine
 10
-22.800003051757813
 20
-1.5
 30
0.0
 11
-18.423332214355469
 21
-1.5
 31
0.0
  0
LINE
  5
4C
100
AcDbEntity
  8
0
  6
CONTINUOUS
 62
               2
100
AcDbLine
 10
-22.800003051757813
 20
1.5
 30
0.0
 11
-18.423332214355469
 21
1.5
 31
0.0
  0
LINE
  5
4D
100
AcDbEntity
  8
0
  6
CONTINUOUS
 62
               7
100
AcDbLine
 10
-22.300003051757813
 20
-2.0
 30
0.0
 11
-18.423332214355469
 21
-2.0
 31
0.0
  0
LINE
  5
4E
100
AcDbEntity
  8
0
  6
CONTINUOUS
 62
               7
100
AcDbLine
 10
-22.300003051757813
 20
2.0
 30
0.0
 11
-18.423332214355469
 21
2.0
 31
0.0
  0
LINE
  5
4F
100
AcDbEntity
  8
0
  6
CONTINUOUS
 62
               7
100
AcDbLine
 10
-23.0
 20
1.3000001907348633
 30
0.0
 11
-23.0
 21
-1.3000001907348633
 31
0.0
  0
LINE
  5
50
100
AcDbEntity
  8
0
  6
CONTINUOUS
 62
               7
100
AcDbLine
 10
-1.5
 20
-5.0
 30
0.0
 11
-1.5
 21
4.9999990463256836
 31
0.0
  0
LINE
  5
51
100
AcDbEntity
  8
0
  6
CONTINUOUS
 62
               7
100
AcDbLine
 10
-8.0000041850498746
 20
-4.2000011847183032
 30
0.0
 11
-7.2000043473026381
 21
-5.0000009550306004
 31
0.0
  0
LINE
  5
52
100
AcDbEntity
  8
0
  6
CONTINUOUS
 62
               7
100
AcDbLine
 10
-7.2000047687711231
 20
4.999999292739858
 30
0.0
 11
-8.0000045390834202
 21
4.1999994549926214
 31
0.0
  0
LINE
  5
53
100
AcDbEntity
  8
0
  6
CONTINUOUS
 62
               2
100
AcDbLine
 10
-7.7000045776367188
 20
4.4999990463256836
 30
0.0
 11
-1.5
 21
4.4999990463256836
 31
0.0
  0
LINE
  5
54
100
AcDbEntity
  8
0
  6
CONTINUOUS
 62
               2
100
AcDbLine
 10
-7.7000045776367188
 20
-4.5
 30
0.0
 11
-1.5
 21
-4.5
 31
0.0
  0
LINE
  5
55
100
AcDbEntity
  8
0
  6
CONTINUOUS
 62
               7
100
AcDbLine
 10
-7.2000045776367187
 20
-5.0
 30
0.0
 11
0.0
 21
-5.0
 31
0.0
  0
LINE
  5
56
100
AcDbEntity
  8
0
  6
CONTINUOUS
 62
               7
100
AcDbLine
 10
-7.2000045776367187
 20
4.9999990463256836
 30
0.0
 11
0.0
 21
4.9999990463256836
 31
0.0
  0
LINE
  5
57
100
AcDbEntity
  8
0
  6
CONTINUOUS
 62
               7
100
AcDbLine
 10
0.0
 20
-6.0
 30
0.0
 11
0.0
 21
5.9999990463256836
 31
0.0
  0
LINE
  5
58
100
AcDbEntity
  8
0
  6
CONTINUOUS
 62
               7
100
AcDbLine
 10
-8.0
 20
-4.2000007629394531
 30
0.0
 11
-8.0
 21
4.1999998092651367
 31
0.0
  0
LINE
  5
59
100
AcDbEntity
  8
0
  6
CONTINUOUS
 62
               7
100
AcDbLine
 10
0.0
 20
-6.0
 30
0.0
 11
12.999996185302734
 21
-6.0
 31
0.0
  0
LINE
  5
5A
100
AcDbEntity
  8
0
  6
CONTINUOUS
 62
               7
100
AcDbLine
 10
0.0
 20
5.9999990463256836
 30
0.0
 11
12.999996185302734
 21
5.9999990463256836
 31
0.0
  0
LINE
  5
5B
100
AcDbEntity
  8
0
  6
CONTINUOUS
 62
               7
100
AcDbLine
 10
12.999996185302734
 20
-6.0
 30
0.0
 11
12.999996185302734
 21
5.9999990463256836
 31
0.0
  0
LINE
  5
5C
100
AcDbEntity
  8
0
  6
CONTINUOUS
 62
               7
100
AcDbLine
 10
12.999996185302734
 20
-5.5
 30
0.0
 11
22.999996185302734
 21
-5.5
 31
0.0
  0
LINE
  5
5D
100
AcDbEntity
  8
0
  6
CONTINUOUS
 62
               7
100
AcDbLine
 10
12.999996185302734
 20
5.5
 30
0.0
 11
20.499996185302734
 21
5.5
 31
0.0
  0
LINE
  5
5E
100
AcDbEntity
  8
0
  6
CONTINUOUS
 62
               7
100
AcDbLine
 10
1.7300033569335938
 20
3.6055517196655273
 30
0.0
 11
1.7300033569335938
 21
6.0
 31
0.0
  0
LINE
  5
5F
100
AcDbEntity
  8
0
  6
CONTINUOUS
 62
               7
100
AcDbLine
 10
-15.22332763671875
 20
2.0
 30
0.0
 11
-8.0
 21
2.0
 31
0.0
  0
LINE
  5
60
100
AcDbEntity
  8
0
  6
CONTINUOUS
 62
               7
100
AcDbLine
 10
11.269996643066406
 20
3.6055517196655273
 30
0.0
 11
11.269996643066406
 21
6.0
 31
0.0
  0
LINE
  5
61
100
AcDbEntity
  8
0
  6
CENTER
 62
             200
100
AcDbLine
 10
27.499996185302734
 20
19.37225877199721
 30
0.0
 11
27.499996185302734
 21
-7.4200000000000017
 31
0.0
  0
LINE
  5
62
100
AcDbEntity
  8
0
  6
CONTINUOUS
 62
               4
100
AcDbLine
 10
20.499996185302734
 20
8.0999999999999801
 30
0.0
 11
20.499996185302734
 21
5.0
 31
0.0
  0
LINE
  5
63
100
AcDbEntity
  8
0
  6
CONTINUOUS
 62
               4
100
AcDbLine
 10
34.499996185302734
 20
8.0999999999999801
 30
0.0
 11
34.499996185302734
 21
5.0
 31
0.0
  0
LINE
  5
64
100
AcDbEntity
  8
0
  6
CONTINUOUS
 62
               4
100
AcDbLine
 10
31.999996185302734
 20
8.5
 30
0.0
 11
31.999996185302734
 21
-5.6500000000000057
 31
0.0
  0
LINE
  5
65
100
AcDbEntity
  8
0
  6
CONTINUOUS
 62
               4
100
AcDbLine
 10
22.999996185302734
 20
8.5
 30
0.0
 11
22.999996185302734
 21
-5.6500000000000057
 31
0.0
  0
ARC
  5
66
100
AcDbEntity
  8
0
  6
CONTINUOUS
 62
               4
100
AcDbCircle
 10
26.00078767208629
 20
16.499208513216431
 30
0.0
 40
1.0007917997614517
100
AcDbArc
 50
90.04531297816014
 51
179.95468702183987
  0
ARC
  5
67
100
AcDbEntity
  8
0
  6
CONTINUOUS
 62
               4
100
AcDbCircle
 10
28.998330528937004
 20
16.498334343634255
 30
0.0
 40
1.0016670412635778
100
AcDbArc
 50
0.0952762943444108
 51
89.904723705655996
  0
LINE
  5
68
100
AcDbEntity
  8
0
  6
CONTINUOUS
 62
               4
100
AcDbLine
 10
24.999996185302734
 20
15.999999999999986
 30
0.0
 11
29.999996185302734
 21
15.999999999999986
 31
0.0
  0
LINE
  5
69
100
AcDbEntity
  8
0
  6
CONTINUOUS
 62
               4
100
AcDbLine
 10
28.999996185302734
 20
15.999999999999986
 30
0.0
 11
28.999996185302734
 21
15.0
 31
0.0
  0
LINE
  5
6A
100
AcDbEntity
  8
0
  6
CONTINUOUS
 62
             200
100
AcDbLine
 10
28.729996185302738
 20
15.999999999999986
 30
0.0
 11
28.729996185302738
 21
15.0
 31
0.0
  0
LINE
  5
6B
100
AcDbEntity
  8
0
  6
CONTINUOUS
 62
               4
100
AcDbLine
 10
31.999996185302734
 20
8.5
 30
0.0
 11
31.999996185302734
 21
15.0
 31
0.0
  0
LINE
  5
6C
100
AcDbEntity
  8
0
  6
CONTINUOUS
 62
               4
100
AcDbLine
 10
39.999996185302727
 20
10.299999999999997
 30
0.0
 11
39.999996185302727
 21
6.2999999999999972
 31
0.0
  0
LINE
  5
6D
100
AcDbEntity
  8
0
  6
CONTINUOUS
 62
               4
100
AcDbLine
 10
39.999996185302727
 20
6.2999999999999972
 30
0.0
 11
42.999996175765986
 21
6.9999999999999858
 31
0.0
  0
LINE
  5
6E
100
AcDbEntity
  8
0
  6
CONTINUOUS
 62
               4
100
AcDbLine
 10
14.999996185302734
 20
7.2999999999999972
 30
0.0
 11
15.999996185302734
 21
6.2999999999999972
 31
0.0
  0
LINE
  5
6F
100
AcDbEntity
  8
0
  6
CONTINUOUS
 62
               4
100
AcDbLine
 10
15.999996185302734
 20
10.299999999999997
 30
0.0
 11
15.999996185302734
 21
6.2999999999999972
 31
0.0
  0
LINE
  5
70
100
AcDbEntity
  8
0
  6
CONTINUOUS
 62
               4
100
AcDbLine
 10
34.499996185302734
 20
10.299999999999997
 30
0.0
 11
39.999996185302727
 21
10.299999999999997
 31
0.0
  0
LINE
  5
71
100
AcDbEntity
  8
0
  6
CONTINUOUS
 62
               4
100
AcDbLine
 10
22.999996185302734
 20
8.4999999999999858
 30
0.0
 11
31.999996185302734
 21
8.4999999999999858
 31
0.0
  0
LINE
  5
72
100
AcDbEntity
  8
0
  6
CONTINUOUS
 62
               4
100
AcDbLine
 10
22.999996185302734
 20
8.4999999999999858
 30
0.0
 11
22.999996185302734
 21
15.0
 31
0.0
  0
LINE
  5
73
100
AcDbEntity
  8
0
  6
CONTINUOUS
 62
               4
100
AcDbLine
 10
31.999996185302734
 20
8.0999999999999801
 30
0.0
 11
34.499996175765986
 21
8.0999999999999801
 31
0.0
  0
LINE
  5
74
100
AcDbEntity
  8
0
  6
CONTINUOUS
 62
               4
100
AcDbLine
 10
31.999996185302734
 20
11.299999999999997
 30
0.0
 11
34.499996175765986
 21
11.299999999999997
 31
0.0
  0
LINE
  5
75
100
AcDbEntity
  8
0
  6
CONTINUOUS
 62
               4
100
AcDbLine
 10
20.499996175765986
 20
11.299999999999997
 30
0.0
 11
22.999996185302734
 21
11.299999999999997
 31
0.0
  0
LINE
  5
76
100
AcDbEntity
  8
0
  6
CONTINUOUS
 62
               4
100
AcDbLine
 10
20.499996175765986
 20
8.4999999999999858
 30
0.0
 11
22.999996185302734
 21
8.4999999999999858
 31
0.0
  0
LINE
  5
77
100
AcDbEntity
  8
0
  6
CONTINUOUS
 62
               4
100
AcDbLine
 10
20.499996175765986
 20
8.0999999999999801
 30
0.0
 11
22.999996185302734
 21
8.0999999999999801
 31
0.0
  0
LINE
  5
78
100
AcDbEntity
  8
0
  6
CONTINUOUS
 62
             200
100
AcDbLine
 10
26.26999618530273
 20
15.999999999999986
 30
0.0
 11
26.26999618530273
 21
15.0
 31
0.0
  0
LINE
  5
79
100
AcDbEntity
  8
0
  6
CONTINUOUS
 62
               4
100
AcDbLine
 10
25.999996185302734
 20
15.999999999999986
 30
0.0
 11
25.999996185302734
 21
15.0
 31
0.0
  0
LINE
  5
7A
100
AcDbEntity
  8
0
  6
CONTINUOUS
 62
               4
100
AcDbLine
 10
20.499996185302734
 20
10.299999999999997
 30
0.0
 11
15.999996185302734
 21
10.299999999999997
 31
0.0
  0
LINE
  5
7B
100
AcDbEntity
  8
0
  6
CONTINUOUS
 62
               4
100
AcDbLine
 10
22.999996185302734
 20
15.0
 30
0.0
 11
31.999996185302734
 21
15.0
 31
0.0
  0
LINE
  5
7C
100
AcDbEntity
  8
0
  6
CONTINUOUS
 62
               4
100
AcDbLine
 10
31.999996185302734
 20
8.5
 30
0.0
 11
34.499996185302734
 21
8.5
 31
0.0
  0
LINE
  5
7D
100
AcDbEntity
  8
0
  6
CONTINUOUS
 62
               4
100
AcDbLine
 10
14.999996185302734
 20
9.2999999999999972
 30
0.0
 11
14.999996185302734
 21
7.2999999999999972
 31
0.0
  0
LINE
  5
7E
100
AcDbEntity
  8
0
  6
CONTINUOUS
 62
               4
100
AcDbLine
 10
14.999996185302734
 20
9.2999999999999972
 30
0.0
 11
15.999996185302734
 21
10.299999999999997
 31
0.0
  0
LINE
  5
7F
100
AcDbEntity
  8
0
  6
CONTINUOUS
 62
               4
100
AcDbLine
 10
34.499996185302734
 20
11.299999999999997
 30
0.0
 11
34.499996185302734
 21
8.5
 31
0.0
  0
LINE
  5
80
100
AcDbEntity
  8
0
  6
CONTINUOUS
 62
               4
100
AcDbLine
 10
20.499996185302734
 20
11.299999999999997
 30
0.0
 11
20.499996185302734
 21
8.4999999999999858
 31
0.0
  0
LINE
  5
81
100
AcDbEntity
  8
0
  6
CONTINUOUS
 62
               4
100
AcDbLine
 10
42.999996175765986
 20
9.5999999999999801
 30
0.0
 11
47.936995262467683
 21
9.5999999999999801
 31
0.0
  0
LINE
  5
82
100
AcDbEntity
  8
0
  6
CONTINUOUS
 62
               4
100
AcDbLine
 10
42.999996175765986
 20
6.9999999999999858
 30
0.0
 11
45.336995262467681
 21
6.9999999999999858
 31
0.0
  0
LINE
  5
83
100
AcDbEntity
  8
0
  6
CONTINUOUS
 62
               4
100
AcDbLine
 10
39.999996185302727
 20
10.299999999999997
 30
0.0
 11
42.999996185302727
 21
9.5999999999999801
 31
0.0
  0
LINE
  5
84
100
AcDbEntity
  8
0
  6
CONTINUOUS
 62
               4
100
AcDbLine
 10
42.999996185302727
 20
9.5999999999999801
 30
0.0
 11
42.999996185302727
 21
6.9999999999999858
 31
0.0
  0
LINE
  5
85
100
AcDbEntity
  8
0
  6
CONTINUOUS
 62
             200
100
AcDbLine
 10
47.936995262467683
 20
9.5999999999999801
 30
0.0
 11
45.336995262467681
 21
6.9999999999999858
 31
0.0
  0
LINE
  5
86
100
AcDbEntity
  8
0
  6
CONTINUOUS
 62
               4
100
AcDbLine
 10
34.499996185302734
 20
6.2999999999999972
 30
0.0
 11
39.999996185302727
 21
6.2999999999999972
 31
0.0
  0
LINE
  5
87
100
AcDbEntity
  8
0
  6
CONTINUOUS
 62
               4
100
AcDbLine
 10
15.999996185302734
 20
6.2999999999999972
 30
0.0
 11
20.499996185302734
 21
6.2999999999999972
 31
0.0
  0
LINE
  5
88
100
AcDbEntity
  8
0
  6
CONTINUOUS
 62
               4
100
AcDbLine
 10
24.999996185302734
 20
16.499999999999986
 30
0.0
 11
24.999996185302734
 21
15.999999999999986
 31
0.0
  0
LINE
  5
89
100
AcDbEntity
  8
0
  6
CONTINUOUS
 62
               4
100
AcDbLine
 10
29.999996185302734
 20
16.499999999999986
 30
0.0
 11
29.999996185302734
 21
15.999999999999986
 31
0.0
  0
LINE
  5
8A
100
AcDbEntity
  8
0
  6
CONTINUOUS
 62
               4
100
AcDbLine
 10
25.999996185302734
 20
17.499999999999986
 30
0.0
 11
28.999996185302734
 21
17.499999999999986
 31
0.0
  0
LINE
  5
8B
100
AcDbEntity
  8
0
  6
CONTINUOUS
 62
               4
100
AcDbLine
 10
20.499996185302734
 20
5.0
 30
0.0
 11
22.999996185302734
 21
5.0
 31
0.0
  0
LINE
  5
8C
100
AcDbEntity
  8
0
  6
CONTINUOUS
 62
               4
100
AcDbLine
 10
31.999996185302734
 20
5.0
 30
0.0
 11
34.499996185302734
 21
5.0
 31
0.0
  0
LINE
  5
8D
100
AcDbEntity
  8
0
  6
CONTINUOUS
 62
               4
100
AcDbLine
 10
22.999996185302734
 20
-5.6500000000000057
 30
0.0
 11
31.999996185302734
 21
-5.6500000000000057
 31
0.0
  0
LINE
  5
8E
100
AcDbEntity
  8
0
  6
CONTINUOUS
 62
               4
100
AcDbLine
 10
22.999996175765986
 20
-5.6460526739628136
 30
0.0
 11
31.999996175765986
 21
-5.6460526739628136
 31
0.0
  0
LINE
  5
8F
100
AcDbEntity
  8
0
  6
CONTINUOUS
 62
             200
100
AcDbLine
 10
87.936995739304848
 20
9.5999999999999801
 30
0.0
 11
85.336995739304854
 21
6.9999999999999858
 31
0.0
  0
LINE
  5
90
100
AcDbEntity
  8
0
  6
CONTINUOUS
 62
               4
100
AcDbLine
 10
82.999996652603159
 20
9.5999999999999801
 30
0.0
 11
87.936995739304848
 21
9.5999999999999801
 31
0.0
  0
LINE
  5
91
100
AcDbEntity
  8
0
  6
CONTINUOUS
 62
               4
100
AcDbLine
 10
60.499996662139893
 20
8.0999999999999801
 30
0.0
 11
60.499996662139893
 21
5.0
 31
0.0
  0
LINE
  5
92
100
AcDbEntity
  8
0
  6
CONTINUOUS
 62
               4
100
AcDbLine
 10
74.499996662139893
 20
8.0999999999999801
 30
0.0
 11
74.499996662139893
 21
5.0
 31
0.0
  0
LINE
  5
93
100
AcDbEntity
  8
0
  6
CONTINUOUS
 62
               4
100
AcDbLine
 10
71.999996662139893
 20
8.5
 30
0.0
 11
71.999996662139893
 21
-5.6500000000000057
 31
0.0
  0
LINE
  5
94
100
AcDbEntity
  8
0
  6
CONTINUOUS
 62
               4
100
AcDbLine
 10
62.999996662139893
 20
8.5
 30
0.0
 11
62.999996662139893
 21
-5.6500000000000057
 31
0.0
  0
LINE
  5
95
100
AcDbEntity
  8
0
  6
CONTINUOUS
 62
               4
100
AcDbLine
 10
65.999996662139893
 20
17.499999999999986
 30
0.0
 11
68.999996662139893
 21
17.499999999999986
 31
0.0
  0
ARC
  5
96
100
AcDbEntity
  8
0
  6
CONTINUOUS
 62
               4
100
AcDbCircle
 10
66.000788148923448
 20
16.499208513216431
 30
0.0
 40
1.0007917997614517
100
AcDbArc
 50
90.04531297816014
 51
179.95468702183987
  0
ARC
  5
97
100
AcDbEntity
  8
0
  6
CONTINUOUS
 62
               4
100
AcDbCircle
 10
68.998331005774162
 20
16.498334343634255
 30
0.0
 40
1.0016670412635778
100
AcDbArc
 50
0.0952762943444108
 51
89.904723705655996
  0
LINE
  5
98
100
AcDbEntity
  8
0
  6
CONTINUOUS
 62
               4
100
AcDbLine
 10
54.9999966621399
 20
9.2999999999999972
 30
0.0
 11
55.9999966621399
 21
10.299999999999997
 31
0.0
  0
LINE
  5
99
100
AcDbEntity
  8
0
  6
CONTINUOUS
 62
               4
100
AcDbLine
 10
55.9999966621399
 20
10.299999999999997
 30
0.0
 11
55.9999966621399
 21
6.2999999999999972
 31
0.0
  0
LINE
  5
9A
100
AcDbEntity
  8
0
  6
CONTINUOUS
 62
               4
100
AcDbLine
 10
79.999996662139893
 20
10.299999999999997
 30
0.0
 11
79.999996662139893
 21
6.2999999999999972
 31
0.0
  0
LINE
  5
9B
100
AcDbEntity
  8
0
  6
CONTINUOUS
 62
               4
100
AcDbLine
 10
82.999996662139893
 20
9.5999999999999801
 30
0.0
 11
82.999996662139893
 21
6.9999999999999858
 31
0.0
  0
LINE
  5
9C
100
AcDbEntity
  8
0
  6
CONTINUOUS
 62
               4
100
AcDbLine
 10
60.499996662139893
 20
11.299999999999997
 30
0.0
 11
60.499996662139893
 21
8.4999999999999858
 31
0.0
  0
LINE
  5
9D
100
AcDbEntity
  8
0
  6
CONTINUOUS
 62
               4
100
AcDbLine
 10
74.499996662139893
 20
11.299999999999997
 30
0.0
 11
74.499996662139893
 21
8.5
 31
0.0
  0
LINE
  5
9E
100
AcDbEntity
  8
0
  6
CONTINUOUS
 62
               4
100
AcDbLine
 10
60.499996652603159
 20
8.0999999999999801
 30
0.0
 11
62.999996662139893
 21
8.0999999999999801
 31
0.0
  0
LINE
  5
9F
100
AcDbEntity
  8
0
  6
CONTINUOUS
 62
               4
100
AcDbLine
 10
60.499996652603159
 20
8.4999999999999858
 30
0.0
 11
62.999996662139893
 21
8.4999999999999858
 31
0.0
  0
LINE
  5
A0
100
AcDbEntity
  8
0
  6
CONTINUOUS
 62
               4
100
AcDbLine
 10
71.999996662139893
 20
8.5
 30
0.0
 11
71.999996662139893
 21
15.0
 31
0.0
  0
LINE
  5
A1
100
AcDbEntity
  8
0
  6
CONTINUOUS
 62
               4
100
AcDbLine
 10
62.999996662139893
 20
8.4999999999999858
 30
0.0
 11
62.999996662139893
 21
15.0
 31
0.0
  0
LINE
  5
A2
100
AcDbEntity
  8
0
  6
CONTINUOUS
 62
               4
100
AcDbLine
 10
62.999996662139893
 20
8.4999999999999858
 30
0.0
 11
71.999996662139893
 21
8.4999999999999858
 31
0.0
  0
LINE
  5
A3
100
AcDbEntity
  8
0
  6
CONTINUOUS
 62
               4
100
AcDbLine
 10
74.499996662139893
 20
10.299999999999997
 30
0.0
 11
79.999996662139893
 21
10.299999999999997
 31
0.0
  0
LINE
  5
A4
100
AcDbEntity
  8
0
  6
CONTINUOUS
 62
               4
100
AcDbLine
 10
71.999996662139893
 20
8.0999999999999801
 30
0.0
 11
74.499996652603159
 21
8.0999999999999801
 31
0.0
  0
LINE
  5
A5
100
AcDbEntity
  8
0
  6
CONTINUOUS
 62
               4
100
AcDbLine
 10
71.999996662139893
 20
11.299999999999997
 30
0.0
 11
74.499996652603159
 21
11.299999999999997
 31
0.0
  0
LINE
  5
A6
100
AcDbEntity
  8
0
  6
CONTINUOUS
 62
               4
100
AcDbLine
 10
60.499996652603159
 20
11.299999999999997
 30
0.0
 11
62.999996662139893
 21
11.299999999999997
 31
0.0
  0
LINE
  5
A7
100
AcDbEntity
  8
0
  6
CONTINUOUS
 62
             200
100
AcDbLine
 10
66.269996662139903
 20
15.999999999999986
 30
0.0
 11
66.269996662139903
 21
15.0
 31
0.0
  0
LINE
  5
A8
100
AcDbEntity
  8
0
  6
CONTINUOUS
 62
             200
100
AcDbLine
 10
68.729996662139897
 20
15.999999999999986
 30
0.0
 11
68.729996662139897
 21
15.0
 31
0.0
  0
LINE
  5
A9
100
AcDbEntity
  8
0
  6
CONTINUOUS
 62
               4
100
AcDbLine
 10
65.999996662139893
 20
15.999999999999986
 30
0.0
 11
65.999996662139893
 21
15.0
 31
0.0
  0
LINE
  5
AA
100
AcDbEntity
  8
0
  6
CONTINUOUS
 62
               4
100
AcDbLine
 10
68.999996662139893
 20
15.999999999999986
 30
0.0
 11
68.999996662139893
 21
15.0
 31
0.0
  0
LINE
  5
AB
100
AcDbEntity
  8
0
  6
CONTINUOUS
 62
               4
100
AcDbLine
 10
60.499996662139893
 20
10.299999999999997
 30
0.0
 11
55.9999966621399
 21
10.299999999999997
 31
0.0
  0
LINE
  5
AC
100
AcDbEntity
  8
0
  6
CONTINUOUS
 62
               4
100
AcDbLine
 10
62.999996662139893
 20
15.0
 30
0.0
 11
71.999996662139893
 21
15.0
 31
0.0
  0
LINE
  5
AD
100
AcDbEntity
  8
0
  6
CONTINUOUS
 62
               4
100
AcDbLine
 10
71.999996662139893
 20
8.5
 30
0.0
 11
74.499996662139893
 21
8.5
 31
0.0
  0
LINE
  5
AE
100
AcDbEntity
  8
0
  6
CONTINUOUS
 62
               4
100
AcDbLine
 10
64.999996662139893
 20
15.999999999999986
 30
0.0
 11
69.999996662139893
 21
15.999999999999986
 31
0.0
  0
LINE
  5
AF
100
AcDbEntity
  8
0
  6
CONTINUOUS
 62
               4
100
AcDbLine
 10
79.999996662139893
 20
10.299999999999997
 30
0.0
 11
82.999996662139893
 21
9.5999999999999801
 31
0.0
  0
LINE
  5
B0
100
AcDbEntity
  8
0
  6
CONTINUOUS
 62
               4
100
AcDbLine
 10
54.9999966621399
 20
7.2999999999999972
 30
0.0
 11
55.9999966621399
 21
6.2999999999999972
 31
0.0
  0
LINE
  5
B1
100
AcDbEntity
  8
0
  6
CONTINUOUS
 62
               4
100
AcDbLine
 10
54.9999966621399
 20
9.2999999999999972
 30
0.0
 11
54.9999966621399
 21
7.2999999999999972
 31
0.0
  0
LINE
  5
B2
100
AcDbEntity
  8
0
  6
CONTINUOUS
 62
               4
100
AcDbLine
 10
55.9999966621399
 20
6.2999999999999972
 30
0.0
 11
60.499996662139893
 21
6.2999999999999972
 31
0.0
  0
LINE
  5
B3
100
AcDbEntity
  8
0
  6
CONTINUOUS
 62
               4
100
AcDbLine
 10
74.499996662139893
 20
6.2999999999999972
 30
0.0
 11
79.999996662139893
 21
6.2999999999999972
 31
0.0
  0
LINE
  5
B4
100
AcDbEntity
  8
0
  6
CONTINUOUS
 62
               4
100
AcDbLine
 10
79.999996662139893
 20
6.2999999999999972
 30
0.0
 11
82.999996652603159
 21
6.9999999999999858
 31
0.0
  0
LINE
  5
B5
100
AcDbEntity
  8
0
  6
CONTINUOUS
 62
               4
100
AcDbLine
 10
82.999996652603159
 20
6.9999999999999858
 30
0.0
 11
85.336995739304854
 21
6.9999999999999858
 31
0.0
  0
LINE
  5
B6
100
AcDbEntity
  8
0
  6
CONTINUOUS
 62
               4
100
AcDbLine
 10
64.999996662139893
 20
16.499999999999986
 30
0.0
 11
64.999996662139893
 21
15.999999999999986
 31
0.0
  0
LINE
  5
B7
100
AcDbEntity
  8
0
  6
CONTINUOUS
 62
               4
100
AcDbLine
 10
69.999996662139893
 20
16.499999999999986
 30
0.0
 11
69.999996662139893
 21
15.999999999999986
 31
0.0
  0
LINE
  5
B8
100
AcDbEntity
  8
0
  6
CONTINUOUS
 62
               4
100
AcDbLine
 10
71.999996662139893
 20
5.0
 30
0.0
 11
74.499996662139893
 21
5.0
 31
0.0
  0
LINE
  5
B9
100
AcDbEntity
  8
0
  6
CONTINUOUS
 62
               4
100
AcDbLine
 10
60.499996662139893
 20
5.0
 30
0.0
 11
62.999996662139893
 21
5.0
 31
0.0
  0
LINE
  5
BA
100
AcDbEntity
  8
0
  6
CONTINUOUS
 62
               4
100
AcDbLine
 10
62.999996662139893
 20
-5.6500000000000057
 30
0.0
 11
71.999996662139893
 21
-5.6500000000000057
 31
0.0
  0
LINE
  5
BB
100
AcDbEntity
  8
0
  6
CONTINUOUS
 62
               7
100
AcDbLine
 10
34.499996185302734
 20
5.5
 30
0.0
 11
60.499996662139893
 21
5.5
 31
0.0
  0
LINE
  5
BC
100
AcDbEntity
  8
0
  6
CONTINUOUS
 62
               7
100
AcDbLine
 10
74.499996662139893
 20
5.5
 30
0.0
 11
76.999996662139893
 21
5.5
 31
0.0
  0
LINE
  5
BD
100
AcDbEntity
  8
0
  6
CONTINUOUS
 62
               7
100
AcDbLine
 10
71.999996662139893
 20
-5.5
 30
0.0
 11
76.999996662139893
 21
-5.5
 31
0.0
  0
LINE
  5
BE
100
AcDbEntity
  8
0
  6
CONTINUOUS
 62
               7
100
AcDbLine
 10
31.999996185302734
 20
-5.5
 30
0.0
 11
62.999996662139893
 21
-5.5
 31
0.0
  0
LINE
  5
BF
100
AcDbEntity
  8
0
  6
CONTINUOUS
 62
               7
100
AcDbLine
 10
98.999996662139893
 20
6.0
 30
0.0
 11
98.999996662139893
 21
-6.0
 31
0.0
  0
LINE
  5
C0
100
AcDbEntity
  8
0
  6
CONTINUOUS
 62
               7
100
AcDbLine
 10
76.999996662139893
 20
-6.0
 30
0.0
 11
98.999996662139893
 21
-6.0
 31
0.0
  0
LINE
  5
C1
100
AcDbEntity
  8
0
  6
CENTER
 62
               2
100
AcDbLine
 10
81.5
 20
6.5743661235081525
 30
0.0
 11
81.5
 21
1.2874143164848277
 31
0.0
  0
LINE
  5
C2
100
AcDbEntity
  8
0
  6
DASHED
 62
               2
100
AcDbLine
 10
84.0
 20
6.0
 30
0.0
 11
84.0
 21
1.2874143164848277
 31
0.0
  0
LINE
  5
C3
100
AcDbEntity
  8
0
  6
DASHED
 62
               2
100
AcDbLine
 10
79.0
 20
6.0
 30
0.0
 11
79.0
 21
1.2874143164848277
 31
0.0
  0
LINE
  5
C4
100
AcDbEntity
  8
0
  6
DASHED
 62
               2
100
AcDbLine
 10
79.400000000000006
 20
6.0
 30
0.0
 11
79.400000000000006
 21
1.2874143164848277
 31
0.0
  0
LINE
  5
C5
100
AcDbEntity
  8
0
  6
DASHED
 62
               2
100
AcDbLine
 10
83.599999999999994
 20
6.0
 30
0.0
 11
83.599999999999994
 21
1.2874143164848277
 31
0.0
  0
LINE
  5
C6
100
AcDbEntity
  8
0
  6
DASHED
 62
               2
100
AcDbLine
 10
85.999996662139893
 20
6.0
 30
0.0
 11
85.999996662139893
 21
-6.0
 31
0.0
  0
LINE
  5
C7
100
AcDbEntity
  8
0
  6
CONTINUOUS
 62
               7
100
AcDbLine
 10
97.269997119903564
 20
3.6055517196655273
 30
0.0
 11
97.269997119903564
 21
6.0
 31
0.0
  0
LINE
  5
C8
100
AcDbEntity
  8
0
  6
CONTINUOUS
 62
               7
100
AcDbLine
 10
78.729996204376221
 20
3.6055517196655273
 30
0.0
 11
78.729996204376221
 21
6.0
 31
0.0
  0
LINE
  5
C9
100
AcDbEntity
  8
0
  6
CONTINUOUS
 62
               7
100
AcDbLine
 10
78.729996204376221
 20
-3.6055517196655273
 30
0.0
 11
78.729996204376221
 21
-6.0
 31
0.0
  0
LINE
  5
CA
100
AcDbEntity
  8
0
  6
CONTINUOUS
 62
               7
100
AcDbLine
 10
97.269997119903564
 20
-3.6055517196655273
 30
0.0
 11
97.269997119903564
 21
-6.0
 31
0.0
  0
CIRCLE
  5
CB
100
AcDbEntity
  8
0
  6
CONTINUOUS
 62
               7
100
AcDbCircle
 10
94.0
 20
0.0
 30
0.0
 40
1.6000000000000001
  0
LINE
  5
CC
100
AcDbEntity
  8
0
  6
CENTER
 62
               2
100
AcDbLine
 10
94.0
 20
2.6666191357083022
 30
0.0
 11
94.0
 21
-2.9268226311424606
 31
0.0
  0
LINE
  5
CD
100
AcDbEntity
  8
0
  6
CONTINUOUS
 62
               7
100
AcDbLine
 10
76.999996662139893
 20
6.0
 30
0.0
 11
98.999996662139893
 21
6.0
 31
0.0
  0
LINE
  5
CE
100
AcDbEntity
  8
0
  6
CONTINUOUS
 62
               7
100
AcDbLine
 10
76.999996662139893
 20
6.0
 30
0.0
 11
76.999996662139893
 21
-6.0
 31
0.0
  0
LINE
  5
CF
100
AcDbEntity
  8
0
  6
CENTER
 62
             200
100
AcDbLine
 10
67.499996662139893
 20
19.37225877199721
 30
0.0
 11
67.499996662139893
 21
-7.4200000000000017
 31
0.0
  0
LINE
  5
D0
100
AcDbEntity
  8
0
  6
CONTINUOUS
 62
               7
100
AcDbLine
 10
1.7300033708126819
 20
3.6055512754639878
 30
0.0
 11
11.269996643066406
 21
3.6055512754639878
 31
0.0
  0
LINE
  5
D1
100
AcDbEntity
  8
0
  6
CONTINUOUS
 62
               7
100
AcDbLine
 10
1.7300033708126819
 20
-3.6055512754639878
 30
0.0
 11
11.269996643066406
 21
-3.6055512754639878
 31
0.0
  0
ARC
  5
D2
100
AcDbEntity
  8
0
  6
CONTINUOUS
 62
               7
100
AcDbCircle
 10
4.6222197981933562
 20
0.0
 30
0.0
 40
4.6222197981933535
100
AcDbArc
 50
128.73506997525561
 51
231.26493015894485
  0
ARC
  5
D3
100
AcDbEntity
  8
0
  6
CONTINUOUS
 62
               7
100
AcDbCircle
 10
8.3777695235962995
 20
0.0000002221007698
 30
0.0
 40
4.6222266617064358
100
AcDbArc
 50
308.73517150279827
 51
51.264828497201734
  0
LINE
  5
D4
100
AcDbEntity
  8
0
  6
CONTINUOUS
 62
               7
100
AcDbLine
 10
78.729996218255309
 20
3.6055512754639878
 30
0.0
 11
97.269997133782653
 21
3.6055512754639878
 31
0.0
  0
LINE
  5
D5
100
AcDbEntity
  8
0
  6
CONTINUOUS
 62
               7
100
AcDbLine
 10
78.729996218255309
 20
-3.6055512754639878
 30
0.0
 11
97.269997119903564
 21
-3.6055512754639878
 31
0.0
  0
ARC
  5
D6
100
AcDbEntity
  8
0
  6
CONTINUOUS
 62
               7
100
AcDbCircle
 10
81.622222837755331
 20
0.0
 30
0.0
 40
4.6222261756154364
100
AcDbArc
 50
128.73516839114467
 51
231.26483160885533
  0
ARC
  5
D7
100
AcDbEntity
  8
0
  6
CONTINUOUS
 62
               7
100
AcDbCircle
 10
94.377770000433458
 20
0.0000002221007698
 30
0.0
 40
4.6222266617064358
100
AcDbArc
 50
308.73517150279827
 51
51.264828497201734
  0
ENDBLK
  5
D8
100
AcDbEntity
  8
0
100
AcDbBlockEnd
  0
BLOCK
  5
D9
100
AcDbEntity
  8
0
100
AcDbBlockBegin
  2
CS-PBSAS107-2
 70
               0
 10
0.0
 20
0.0
 30
0.0
  3
CS-PBSAS107-2
  1

  0
LINE
  5
DA
100
AcDbEntity
  8
0
  6
CENTER
 62
               2
100
AcDbLine
 10
-0.0000000000000142
 20
-10.115444904086356
 30
0.0
 11
0.0000000000000142
 21
19.637231920353429
 31
0.0
  0
LINE
  5
DB
100
AcDbEntity
  8
0
  6
CONTINUOUS
 62
               4
100
AcDbLine
 10
-2.0499999999999972
 20
6.2153503241307533
 30
0.0
 11
2.0499999999999972
 21
6.2153503241307533
 31
0.0
  0
LINE
  5
DC
100
AcDbEntity
  8
0
  6
CONTINUOUS
 62
               4
100
AcDbLine
 10
2.0499999999999972
 20
6.2153503241307533
 30
0.0
 11
1.0499999999999972
 21
7.2153503241307533
 31
0.0
  0
LINE
  5
DD
100
AcDbEntity
  8
0
  6
CONTINUOUS
 62
               4
100
AcDbLine
 10
-2.0499999999999972
 20
6.2153503241307533
 30
0.0
 11
-1.0499999999999972
 21
7.2153503241307533
 31
0.0
  0
LINE
  5
DE
100
AcDbEntity
  8
0
  6
CONTINUOUS
 62
               4
100
AcDbLine
 10
1.0499999999999972
 20
7.2153503241307533
 30
0.0
 11
-1.0499999999999972
 21
7.2153503241307533
 31
0.0
  0
CIRCLE
  5
DF
100
AcDbEntity
  8
0
  6
CONTINUOUS
 62
               7
100
AcDbCircle
 10
0.0000000000000142
 20
0.0153503241307433
 30
0.0
 40
6.0
  0
LINE
  5
E0
100
AcDbEntity
  8
0
  6
CONTINUOUS
 62
               7
100
AcDbLine
 10
6.0
 20
3.6209015995947311
 30
0.0
 11
6.0
 21
-3.6055512754640127
 31
0.0
  0
LINE
  5
E1
100
AcDbEntity
  8
0
  6
CONTINUOUS
 62
               4
100
AcDbLine
 10
-0.9999999999999858
 20
10.615350324130738
 30
0.0
 11
-0.9999999999999858
 21
10.315350324130755
 31
0.0
  0
LINE
  5
E2
100
AcDbEntity
  8
0
  6
CONTINUOUS
 62
               4
100
AcDbLine
 10
2.0499999999999972
 20
10.315350324130755
 30
0.0
 11
1.0499999999999972
 21
9.3153503241307547
 31
0.0
  0
LINE
  5
E3
100
AcDbEntity
  8
0
  6
CONTINUOUS
 62
               4
100
AcDbLine
 10
1.0499999999999972
 20
9.3153503241307547
 30
0.0
 11
1.0499999999999972
 21
7.2153503241307533
 31
0.0
  0
LINE
  5
E4
100
AcDbEntity
  8
0
  6
CONTINUOUS
 62
               4
100
AcDbLine
 10
1.5
 20
12.315350324130726
 30
0.0
 11
1.2000000000000028
 21
12.015350324130743
 31
0.0
  0
LINE
  5
E5
100
AcDbEntity
  8
0
  6
CONTINUOUS
 62
               4
100
AcDbLine
 10
3.25
 20
12.015350324130743
 30
0.0
 11
3.25
 21
8.5153503241307433
 31
0.0
  0
LINE
  5
E6
100
AcDbEntity
  8
0
  6
CONTINUOUS
 62
               4
100
AcDbLine
 10
1.0000000000000142
 20
10.615350324130738
 30
0.0
 11
1.0000000000000142
 21
10.315350324130755
 31
0.0
  0
LINE
  5
E7
100
AcDbEntity
  8
0
  6
CONTINUOUS
 62
               4
100
AcDbLine
 10
3.25
 20
8.1153503241307376
 30
0.0
 11
2.0499999999999972
 21
8.1153503241307376
 31
0.0
  0
LINE
  5
E8
100
AcDbEntity
  8
0
  6
CONTINUOUS
 62
               4
100
AcDbLine
 10
3.25
 20
8.5153503241307433
 30
0.0
 11
2.0499999999999972
 21
8.5153503241307433
 31
0.0
  0
LINE
  5
E9
100
AcDbEntity
  8
0
  6
CONTINUOUS
 62
               4
100
AcDbLine
 10
3.5
 20
13.715350324130746
 30
0.0
 11
3.5
 21
8.5153503241307433
 31
0.0
  0
LINE
  5
EA
100
AcDbEntity
  8
0
  6
CONTINUOUS
 62
               4
100
AcDbLine
 10
4.2999999999999972
 20
14.215350324130746
 30
0.0
 11
4.2999999999999972
 21
8.5153503241307433
 31
0.0
  0
LINE
  5
EB
100
AcDbEntity
  8
0
  6
CONTINUOUS
 62
               4
100
AcDbLine
 10
2.0600000000000023
 20
14.215350324130746
 30
0.0
 11
2.0
 21
13.515350324130743
 31
0.0
  0
LINE
  5
EC
100
AcDbEntity
  8
0
  6
CONTINUOUS
 62
               4
100
AcDbLine
 10
4.2999999999999972
 20
8.5153503241307433
 30
0.0
 11
3.5
 21
8.5153503241307433
 31
0.0
  0
LINE
  5
ED
100
AcDbEntity
  8
0
  6
CONTINUOUS
 62
               4
100
AcDbLine
 10
3.3500000000000085
 20
13.715350324130746
 30
0.0
 11
3.3500000000000085
 21
8.5153503241307433
 31
0.0
  0
LINE
  5
EE
100
AcDbEntity
  8
0
  6
CONTINUOUS
 62
               4
100
AcDbLine
 10
3.5
 20
13.715350324130746
 30
0.0
 11
3.3500000000000085
 21
13.715350324130746
 31
0.0
  0
LINE
  5
EF
100
AcDbEntity
  8
0
  6
CONTINUOUS
 62
               4
100
AcDbLine
 10
1.5
 20
16.015350324130743
 30
0.0
 11
1.5
 21
15.015350324130743
 31
0.0
  0
LINE
  5
F0
100
AcDbEntity
  8
0
  6
CONTINUOUS
 62
             200
100
AcDbLine
 10
1.230000000000004
 20
16.015350324130743
 30
0.0
 11
1.230000000000004
 21
15.015350324130743
 31
0.0
  0
LINE
  5
F1
100
AcDbEntity
  8
0
  6
CONTINUOUS
 62
               4
100
AcDbLine
 10
2.5
 20
16.515350324130743
 30
0.0
 11
2.5
 21
16.015350324130743
 31
0.0
  0
LINE
  5
F2
100
AcDbEntity
  8
0
  6
CONTINUOUS
 62
               4
100
AcDbLine
 10
1.5
 20
13.515350324130743
 30
0.0
 11
1.5
 21
12.315350324130726
 31
0.0
  0
LINE
  5
F3
100
AcDbEntity
  8
0
  6
CONTINUOUS
 62
             200
100
AcDbLine
 10
1.230000000000004
 20
13.515350324130743
 30
0.0
 11
1.230000000000004
 21
12.045350324130759
 31
0.0
  0
ARC
  5
F4
100
AcDbEntity
  8
0
  6
CONTINUOUS
 62
               4
100
AcDbCircle
 10
2.9998398445983412
 20
13.715190168729087
 30
0.0
 40
0.5001601810431999
100
AcDbArc
 50
0.01834657992753
 51
89.981653420072192
  0
ARC
  5
F5
100
AcDbEntity
  8
0
  6
CONTINUOUS
 62
               4
100
AcDbCircle
 10
3.4998616535656737
 20
14.21521197769642
 30
0.0
 40
0.8001383583945874
100
AcDbArc
 50
0.0099066202162127
 51
89.990093379784071
  0
ARC
  5
F6
100
AcDbEntity
  8
0
  6
CONTINUOUS
 62
               4
100
AcDbCircle
 10
1.4998704365679885
 20
16.515220760698732
 30
0.0
 40
1.0001295718242713
100
AcDbArc
 50
0.0074224761108777
 51
89.992577523889196
  0
LINE
  5
F7
100
AcDbEntity
  8
0
  6
CONTINUOUS
 62
               4
100
AcDbLine
 10
2.0499999999999972
 20
10.315350324130755
 30
0.0
 11
2.0499999999999972
 21
6.2153503241307533
 31
0.0
  0
LINE
  5
F8
100
AcDbEntity
  8
0
  6
CONTINUOUS
 62
               4
100
AcDbLine
 10
3.25
 20
8.1153503241307376
 30
0.0
 11
3.25
 21
6.0153503241307433
 31
0.0
  0
LINE
  5
F9
100
AcDbEntity
  8
0
  6
CONTINUOUS
 62
               4
100
AcDbLine
 10
1.0000000000000142
 20
10.615350324130738
 30
0.0
 11
-0.9999999999999858
 21
10.615350324130738
 31
0.0
  0
LINE
  5
FA
100
AcDbEntity
  8
0
  6
CONTINUOUS
 62
               4
100
AcDbLine
 10
3.3500000000000085
 20
8.5153503241307433
 30
0.0
 11
4.1478980303805031
 21
5.6387003759346541
 31
0.0
  0
LINE
  5
FB
100
AcDbEntity
  8
0
  6
CONTINUOUS
 62
               4
100
AcDbLine
 10
3.5
 20
8.5153503241307433
 30
0.0
 11
4.3412555212980664
 21
5.4912203105320074
 31
0.0
  0
LINE
  5
FC
100
AcDbEntity
  8
0
  6
CONTINUOUS
 62
               4
100
AcDbLine
 10
-2.0499999999999972
 20
10.315350324130755
 30
0.0
 11
-1.0499999999999972
 21
9.3153503241307547
 31
0.0
  0
LINE
  5
FD
100
AcDbEntity
  8
0
  6
CONTINUOUS
 62
               4
100
AcDbLine
 10
-1.0499999999999972
 20
9.3153503241307547
 30
0.0
 11
-1.0499999999999972
 21
7.2153503241307533
 31
0.0
  0
LINE
  5
FE
100
AcDbEntity
  8
0
  6
CONTINUOUS
 62
               4
100
AcDbLine
 10
-1.4999999999999858
 20
12.315350324130726
 30
0.0
 11
-1.2000000000000313
 21
12.015350324130743
 31
0.0
  0
LINE
  5
FF
100
AcDbEntity
  8
0
  6
CONTINUOUS
 62
               4
100
AcDbLine
 10
-4.3495471175048834
 20
13.649304752386868
 30
0.0
 11
-4.847194948261162
 21
13.697746847134717
 31
0.0
  0
LINE
  5
100
100
AcDbEntity
  8
0
  6
CONTINUOUS
 62
               4
100
AcDbLine
 10
-4.8300000000000267
 20
7.165350324130749
 30
0.0
 11
-4.9792943492268904
 21
7.1798829525551042
 31
0.0
  0
LINE
  5
101
100
AcDbEntity
  8
0
  6
CONTINUOUS
 62
               4
100
AcDbLine
 10
-3.4999999999999858
 20
13.715350324130746
 30
0.0
 11
-3.4999999999999858
 21
7.8153503241307547
 31
0.0
  0
LINE
  5
102
100
AcDbEntity
  8
0
  6
CONTINUOUS
 62
               4
100
AcDbLine
 10
-4.2999999999999972
 20
14.215350324130746
 30
0.0
 11
-4.2999999999999972
 21
7.8153503241307547
 31
0.0
  0
LINE
  5
103
100
AcDbEntity
  8
0
  6
CONTINUOUS
 62
               4
100
AcDbLine
 10
-2.0599999999999881
 20
14.215350324130746
 30
0.0
 11
-1.9999999999999858
 21
13.515350324130743
 31
0.0
  0
LINE
  5
104
100
AcDbEntity
  8
0
  6
CONTINUOUS
 62
               4
100
AcDbLine
 10
-3.4999999999999858
 20
7.8153503241307547
 30
0.0
 11
-4.2999999999999972
 21
7.8153503241307547
 31
0.0
  0
LINE
  5
105
100
AcDbEntity
  8
0
  6
CONTINUOUS
 62
               4
100
AcDbLine
 10
-4.2999999999999972
 20
10.015350324130743
 30
0.0
 11
-4.6816147512409856
 21
10.237958929021332
 31
0.0
  0
LINE
  5
106
100
AcDbEntity
  8
0
  6
CONTINUOUS
 62
               4
100
AcDbLine
 10
-5.8999999999999915
 20
13.315350324130755
 30
0.0
 11
-5.8999999999999915
 21
10.94535032413075
 31
0.0
  0
LINE
  5
107
100
AcDbEntity
  8
0
  6
CONTINUOUS
 62
               4
100
AcDbLine
 10
-5.1000000000000085
 20
13.315350324130755
 30
0.0
 11
-5.8999999999999915
 21
13.315350324130755
 31
0.0
  0
LINE
  5
108
100
AcDbEntity
  8
0
  6
CONTINUOUS
 62
               4
100
AcDbLine
 10
-5.1000000000000085
 20
13.315350324130755
 30
0.0
 11
-5.1000000000000085
 21
11.405350324130744
 31
0.0
  0
LINE
  5
109
100
AcDbEntity
  8
0
  6
CONTINUOUS
 62
               4
100
AcDbLine
 10
-4.2999999999999972
 20
10.94535032413075
 30
0.0
 11
-4.5967100061319996
 21
11.110189216426306
 31
0.0
  0
LINE
  5
10A
100
AcDbEntity
  8
0
  6
CONTINUOUS
 62
               4
100
AcDbLine
 10
-5.0721490645728267
 20
11.386783033845951
 30
0.0
 11
-5.1000000000000085
 21
11.405350324130744
 31
0.0
  0
LINE
  5
10B
100
AcDbEntity
  8
0
  6
CONTINUOUS
 62
               4
100
AcDbLine
 10
-5.1578917890397662
 20
10.505944146588504
 30
0.0
 11
-5.8999999999999915
 21
10.94535032413075
 31
0.0
  0
LINE
  5
10C
100
AcDbEntity
  8
0
  6
CONTINUOUS
 62
               4
100
AcDbLine
 10
-1.4999999999999858
 20
16.015350324130743
 30
0.0
 11
-1.4999999999999858
 21
15.015350324130743
 31
0.0
  0
LINE
  5
10D
100
AcDbEntity
  8
0
  6
CONTINUOUS
 62
             200
100
AcDbLine
 10
-1.230000000000004
 20
16.015350324130743
 30
0.0
 11
-1.230000000000004
 21
15.015350324130743
 31
0.0
  0
LINE
  5
10E
100
AcDbEntity
  8
0
  6
CONTINUOUS
 62
               4
100
AcDbLine
 10
-2.4999999999999858
 20
16.515350324130743
 30
0.0
 11
-2.4999999999999858
 21
16.015350324130743
 31
0.0
  0
LINE
  5
10F
100
AcDbEntity
  8
0
  6
CONTINUOUS
 62
             200
100
AcDbLine
 10
-1.230000000000004
 20
13.515350324130743
 30
0.0
 11
-1.230000000000004
 21
12.04535032413073
 31
0.0
  0
LINE
  5
110
100
AcDbEntity
  8
0
  6
CONTINUOUS
 62
               4
100
AcDbLine
 10
-1.4999999999999858
 20
13.515350324130743
 30
0.0
 11
-1.4999999999999858
 21
12.315350324130726
 31
0.0
  0
ARC
  5
111
100
AcDbEntity
  8
0
  6
CONTINUOUS
 62
               4
100
AcDbCircle
 10
-3.0076251879642228
 20
13.722975512094969
 30
0.0
 40
0.4924338524296972
100
AcDbArc
 50
89.11275687609789
 51
180.88724312390252
  0
ARC
  5
112
100
AcDbEntity
  8
0
  6
CONTINUOUS
 62
               4
100
AcDbCircle
 10
-3.5076251918623171
 20
14.222975515993063
 30
0.0
 40
0.7924114967125058
100
AcDbArc
 50
89.448647506628575
 51
180.55135249337138
  0
ARC
  5
113
100
AcDbEntity
  8
0
  6
CONTINUOUS
 62
               4
100
AcDbCircle
 10
-1.5076267191957271
 20
16.522977043326485
 30
0.0
 40
0.9924025873101658
100
AcDbArc
 50
89.559671519865446
 51
180.44032848013444
  0
LINE
  5
114
100
AcDbEntity
  8
0
  6
CONTINUOUS
 62
               4
100
AcDbLine
 10
1.5
 20
17.515350324130743
 30
0.0
 11
-1.4999999999999858
 21
17.515350324130743
 31
0.0
  0
LINE
  5
115
100
AcDbEntity
  8
0
  6
CONTINUOUS
 62
               4
100
AcDbLine
 10
3.0
 20
14.215350324130746
 30
0.0
 11
-2.9999999999999858
 21
14.215350324130746
 31
0.0
  0
LINE
  5
116
100
AcDbEntity
  8
0
  6
CONTINUOUS
 62
               4
100
AcDbLine
 10
2.0
 20
13.515350324130743
 30
0.0
 11
-1.9999999999999858
 21
13.515350324130743
 31
0.0
  0
LINE
  5
117
100
AcDbEntity
  8
0
  6
CONTINUOUS
 62
               4
100
AcDbLine
 10
3.5
 20
15.015350324130743
 30
0.0
 11
-3.4999999999999858
 21
15.015350324130743
 31
0.0
  0
LINE
  5
118
100
AcDbEntity
  8
0
  6
CONTINUOUS
 62
               4
100
AcDbLine
 10
2.5
 20
16.015350324130743
 30
0.0
 11
-2.4999999999999858
 21
16.015350324130743
 31
0.0
  0
LINE
  5
119
100
AcDbEntity
  8
0
  6
CONTINUOUS
 62
               4
100
AcDbLine
 10
3.25
 20
11.315350324130755
 30
0.0
 11
-3.2499999999999858
 21
11.315350324130755
 31
0.0
  0
LINE
  5
11A
100
AcDbEntity
  8
0
  6
CONTINUOUS
 62
               4
100
AcDbLine
 10
2.0499999999999972
 20
10.315350324130755
 30
0.0
 11
-2.0499999999999972
 21
10.315350324130755
 31
0.0
  0
LINE
  5
11B
100
AcDbEntity
  8
0
  6
CONTINUOUS
 62
               4
100
AcDbLine
 10
-2.0499999999999972
 20
10.315350324130755
 30
0.0
 11
-2.0499999999999972
 21
6.2153503241307533
 31
0.0
  0
LINE
  5
11C
100
AcDbEntity
  8
0
  6
CONTINUOUS
 62
               4
100
AcDbLine
 10
3.25
 20
12.015350324130743
 30
0.0
 11
-3.2499999999999858
 21
12.015350324130743
 31
0.0
  0
LINE
  5
11D
100
AcDbEntity
  8
0
  6
CONTINUOUS
 62
               4
100
AcDbLine
 10
-3.2499999999999858
 20
12.015350324130743
 30
0.0
 11
-3.2499999999999858
 21
6.0153503241307433
 31
0.0
  0
LINE
  5
11E
100
AcDbEntity
  8
0
  6
CONTINUOUS
 62
               4
100
AcDbLine
 10
-4.8300000000000267
 20
7.165350324130749
 30
0.0
 11
-5.0562685782396386
 21
4.8408829839923229
 31
0.0
  0
LINE
  5
11F
100
AcDbEntity
  8
0
  6
CONTINUOUS
 62
               4
100
AcDbLine
 10
-4.3495471175048834
 20
13.649304752386868
 30
0.0
 11
-5.2247245126881836
 21
4.6585677806075907
 31
0.0
  0
LINE
  5
120
100
AcDbEntity
  8
0
  6
CONTINUOUS
 62
               4
100
AcDbLine
 10
-4.847194948261162
 20
13.697746847134717
 30
0.0
 11
-5.7989030488105726
 21
3.9208064770523094
 31
0.0
  0
LINE
  5
121
100
AcDbEntity
  8
0
  6
CONTINUOUS
 62
               4
100
AcDbLine
 10
1.0499999999999972
 20
9.3153503241307547
 30
0.0
 11
-1.0499999999999972
 21
9.3153503241307547
 31
0.0
  0
CIRCLE
  5
122
100
AcDbEntity
  8
0
  6
CONTINUOUS
 62
               2
100
AcDbCircle
 10
0.0000000000000142
 20
0.0
 30
0.0
 40
1.6499999999999999
  0
CIRCLE
  5
123
100
AcDbEntity
  8
0
  6
CONTINUOUS
 62
               7
100
AcDbCircle
 10
0.0000000000000142
 20
0.0
 30
0.0
 40
2.0
  0
CIRCLE
  5
124
100
AcDbEntity
  8
0
  6
CONTINUOUS
 62
               2
100
AcDbCircle
 10
0.0000000000000142
 20
0.0
 30
0.0
 40
4.5
  0
CIRCLE
  5
125
100
AcDbEntity
  8
0
  6
CONTINUOUS
 62
               7
100
AcDbCircle
 10
0.0000000000000142
 20
0.0
 30
0.0
 40
5.0
  0
LINE
  5
126
100
AcDbEntity
  8
0
  6
CONTINUOUS
 62
               4
100
AcDbLine
 10
-3.4999999999999858
 20
-2.0207259421636934
 30
0.0
 11
-3.5000000000000142
 21
2.0207259421636934
 31
0.0
  0
LINE
  5
127
100
AcDbEntity
  8
0
  6
CONTINUOUS
 62
               4
100
AcDbLine
 10
0.0000000000000142
 20
-4.0414518843273797
 30
0.0
 11
-3.5000000000000142
 21
-2.0207259421636934
 31
0.0
  0
LINE
  5
128
100
AcDbEntity
  8
0
  6
CONTINUOUS
 62
               4
100
AcDbLine
 10
3.5
 20
-2.0207259421636934
 30
0.0
 11
0.0000000000000142
 21
-4.0414518843273868
 31
0.0
  0
LINE
  5
129
100
AcDbEntity
  8
0
  6
CONTINUOUS
 62
               4
100
AcDbLine
 10
3.5
 20
2.0207259421636934
 30
0.0
 11
3.5000000000000142
 21
-2.0207259421636934
 31
0.0
  0
LINE
  5
12A
100
AcDbEntity
  8
0
  6
CONTINUOUS
 62
               4
100
AcDbLine
 10
0.0000000000000142
 20
4.0414518843273797
 30
0.0
 11
3.5000000000000142
 21
2.0207259421636934
 31
0.0
  0
LINE
  5
12B
100
AcDbEntity
  8
0
  6
CONTINUOUS
 62
               4
100
AcDbLine
 10
-3.4999999999999858
 20
2.0207259421636863
 30
0.0
 11
0.0000000000000142
 21
4.0414518843273868
 31
0.0
  0
CIRCLE
  5
12C
100
AcDbEntity
  8
0
  6
CONTINUOUS
 62
               4
100
AcDbCircle
 10
0.0000000000000142
 20
0.0
 30
0.0
 40
3.5
  0
LINE
  5
12D
100
AcDbEntity
  8
0
  6
CONTINUOUS
 62
               7
100
AcDbLine
 10
-3.6055512754639807
 20
6.0
 30
0.0
 11
3.6055512754640091
 21
6.0
 31
0.0
  0
LINE
  5
12E
100
AcDbEntity
  8
0
  6
CONTINUOUS
 62
               7
100
AcDbLine
 10
-3.6055512754639807
 20
-6.0
 30
0.0
 11
3.6055512754640091
 21
-6.0
 31
0.0
  0
ARC
  5
12F
100
AcDbEntity
  8
0
  6
CONTINUOUS
 62
               7
100
AcDbCircle
 10
0.0000000000000142
 20
0.0
 30
0.0
 40
7.0
100
AcDbArc
 50
301.002719133874
 51
328.99728086612578
  0
ARC
  5
130
100
AcDbEntity
  8
0
  6
CONTINUOUS
 62
               7
100
AcDbCircle
 10
0.0000000000000142
 20
0.0
 30
0.0
 40
7.0
100
AcDbArc
 50
211.00271913387397
 51
238.99728086612592
  0
ARC
  5
131
100
AcDbEntity
  8
0
  6
CONTINUOUS
 62
               7
100
AcDbCircle
 10
0.0000000000000142
 20
0.0
 30
0.0
 40
7.0
100
AcDbArc
 50
121.00271913387407
 51
148.99728086612603
  0
ARC
  5
132
100
AcDbEntity
  8
0
  6
CONTINUOUS
 62
               7
100
AcDbCircle
 10
0.0000000000000142
 20
0.0
 30
0.0
 40
7.0
100
AcDbArc
 50
31.002719133874223
 51
58.997280866125969
  0
LINE
  5
133
100
AcDbEntity
  8
0
  6
CONTINUOUS
 62
               7
100
AcDbLine
 10
-6.0
 20
3.6055512754639665
 30
0.0
 11
-6.0000000000000284
 21
-3.6055512754640056
 31
0.0
  0
LINE
  5
134
100
AcDbEntity
  8
0
  6
CENTER
 62
               2
100
AcDbLine
 10
-8.3527259258066948
 20
0.0
 30
0.0
 11
8.6111437548571104
 21
0.0
 31
0.0
  0
ENDBLK
  5
135
100
AcDbEntity
  8
0
100
AcDbBlockEnd
  0
BLOCK
  5
136
100
AcDbEntity
  8
0
100
AcDbBlockBegin
  2
CS-PBSAS107-3
 70
               0
 10
0.0
 20
0.0
 30
0.0
  3
CS-PBSAS107-3
  1

  0
LINE
  5
137
100
AcDbEntity
  8
0
  6
DASHED
 62
               2
100
AcDbLine
 10
-1.5999999999999943
 20
-1.5999999999999943
 30
0.0
 11
-6.0
 21
-1.5999999999999943
 31
0.0
  0
LINE
  5
138
100
AcDbEntity
  8
0
  6
DASHED
 62
               2
100
AcDbLine
 10
-1.5999999999999943
 20
1.5999999999999943
 30
0.0
 11
-6.0
 21
1.5999999999999943
 31
0.0
  0
LINE
  5
139
100
AcDbEntity
  8
0
  6
DASHED
 62
               2
100
AcDbLine
 10
6.0
 20
1.5999999999999943
 30
0.0
 11
1.5999999999999943
 21
1.5999999999999943
 31
0.0
  0
LINE
  5
13A
100
AcDbEntity
  8
0
  6
DASHED
 62
               2
100
AcDbLine
 10
6.0
 20
-1.5999999999999943
 30
0.0
 11
1.5999999999999943
 21
-1.5999999999999943
 31
0.0
  0
ARC
  5
13B
100
AcDbEntity
  8
0
  6
CONTINUOUS
 62
               7
100
AcDbCircle
 10
0.0000000000000142
 20
0.0
 30
0.0
 40
6.0
100
AcDbArc
 50
105.46600995342064
 51
254.53399004657933
  0
LINE
  5
13C
100
AcDbEntity
  8
0
  6
CONTINUOUS
 62
               7
100
AcDbLine
 10
-1.5999999999999943
 20
-6.0
 30
0.0
 11
-1.5999999999999943
 21
6.0
 31
0.0
  0
LINE
  5
13D
100
AcDbEntity
  8
0
  6
CONTINUOUS
 62
               7
100
AcDbLine
 10
1.5999999999999943
 20
-6.0
 30
0.0
 11
1.5999999999999943
 21
6.0
 31
0.0
  0
ARC
  5
13E
100
AcDbEntity
  8
0
  6
CONTINUOUS
 62
               7
100
AcDbCircle
 10
0.0000000000000142
 20
0.0
 30
0.0
 40
6.0
100
AcDbArc
 50
285.46600995342033
 51
74.533990046579646
  0
ARC
  5
13F
100
AcDbEntity
  8
0
  6
CONTINUOUS
 62
               7
100
AcDbCircle
 10
0.0000000000000142
 20
0.0
 30
0.0
 40
7.0
100
AcDbArc
 50
121.00271913387397
 51
148.9972811777732
  0
ARC
  5
140
100
AcDbEntity
  8
0
  6
CONTINUOUS
 62
               7
100
AcDbCircle
 10
0.0000000000000142
 20
0.0
 30
0.0
 40
7.0
100
AcDbArc
 50
31.002718822226768
 51
58.997280866126033
  0
LINE
  5
141
100
AcDbEntity
  8
0
  6
CONTINUOUS
 62
               4
100
AcDbLine
 10
1.0
 20
6.3000000000000114
 30
0.0
 11
1.0
 21
6.0
 31
0.0
  0
LINE
  5
142
100
AcDbEntity
  8
0
  6
CONTINUOUS
 62
               4
100
AcDbLine
 10
-1.0
 20
6.0
 30
0.0
 11
1.0
 21
6.0
 31
0.0
  0
LINE
  5
143
100
AcDbEntity
  8
0
  6
CONTINUOUS
 62
               4
100
AcDbLine
 10
1.5
 20
12.299999999999983
 30
0.0
 11
1.2000000000000171
 21
12.0
 31
0.0
  0
LINE
  5
144
100
AcDbEntity
  8
0
  6
CONTINUOUS
 62
               4
100
AcDbLine
 10
4.3495471175048834
 20
13.633954428256125
 30
0.0
 11
4.8471949482611763
 21
13.682396523003973
 31
0.0
  0
LINE
  5
145
100
AcDbEntity
  8
0
  6
CONTINUOUS
 62
               4
100
AcDbLine
 10
4.8300000000000125
 20
7.1500000000000057
 30
0.0
 11
4.9792943492269046
 21
7.1645326284243609
 31
0.0
  0
LINE
  5
146
100
AcDbEntity
  8
0
  6
CONTINUOUS
 62
               4
100
AcDbLine
 10
1.0
 20
10.599999999999994
 30
0.0
 11
1.0
 21
10.300000000000011
 31
0.0
  0
LINE
  5
147
100
AcDbEntity
  8
0
  6
CONTINUOUS
 62
               4
100
AcDbLine
 10
3.5
 20
13.700000000000003
 30
0.0
 11
3.5
 21
7.8000000000000114
 31
0.0
  0
LINE
  5
148
100
AcDbEntity
  8
0
  6
CONTINUOUS
 62
               4
100
AcDbLine
 10
4.2999999999999972
 20
14.200000000000003
 30
0.0
 11
4.2999999999999972
 21
7.8000000000000114
 31
0.0
  0
LINE
  5
149
100
AcDbEntity
  8
0
  6
CONTINUOUS
 62
               4
100
AcDbLine
 10
2.0600000000000023
 20
14.200000000000003
 30
0.0
 11
2.0
 21
13.5
 31
0.0
  0
LINE
  5
14A
100
AcDbEntity
  8
0
  6
CONTINUOUS
 62
               4
100
AcDbLine
 10
3.5
 20
7.8000000000000114
 30
0.0
 11
4.2999999999999972
 21
7.8000000000000114
 31
0.0
  0
LINE
  5
14B
100
AcDbEntity
  8
0
  6
CONTINUOUS
 62
               4
100
AcDbLine
 10
4.2999999999999972
 20
10.0
 30
0.0
 11
4.6816147512409856
 21
10.222608604890588
 31
0.0
  0
LINE
  5
14C
100
AcDbEntity
  8
0
  6
CONTINUOUS
 62
               4
100
AcDbLine
 10
5.8999999999999915
 20
13.300000000000011
 30
0.0
 11
5.8999999999999915
 21
10.930000000000007
 31
0.0
  0
LINE
  5
14D
100
AcDbEntity
  8
0
  6
CONTINUOUS
 62
               4
100
AcDbLine
 10
5.0999999999999943
 20
13.300000000000011
 30
0.0
 11
5.8999999999999915
 21
13.300000000000011
 31
0.0
  0
LINE
  5
14E
100
AcDbEntity
  8
0
  6
CONTINUOUS
 62
               4
100
AcDbLine
 10
5.0999999999999943
 20
13.300000000000011
 30
0.0
 11
5.0999999999999943
 21
11.390000000000001
 31
0.0
  0
LINE
  5
14F
100
AcDbEntity
  8
0
  6
CONTINUOUS
 62
               4
100
AcDbLine
 10
4.2999999999999972
 20
10.930000000000007
 30
0.0
 11
4.5967100061319854
 21
11.094838892295563
 31
0.0
  0
LINE
  5
150
100
AcDbEntity
  8
0
  6
CONTINUOUS
 62
               4
100
AcDbLine
 10
5.0721490645728124
 20
11.371432709715208
 30
0.0
 11
5.0999999999999943
 21
11.390000000000001
 31
0.0
  0
LINE
  5
151
100
AcDbEntity
  8
0
  6
CONTINUOUS
 62
               4
100
AcDbLine
 10
5.1578917890397662
 20
10.490593822457761
 30
0.0
 11
5.8999999999999915
 21
10.930000000000007
 31
0.0
  0
LINE
  5
152
100
AcDbEntity
  8
0
  6
CONTINUOUS
 62
               4
100
AcDbLine
 10
1.5
 20
16.0
 30
0.0
 11
1.5
 21
15.0
 31
0.0
  0
LINE
  5
153
100
AcDbEntity
  8
0
  6
CONTINUOUS
 62
             200
100
AcDbLine
 10
1.230000000000004
 20
16.0
 30
0.0
 11
1.230000000000004
 21
15.0
 31
0.0
  0
LINE
  5
154
100
AcDbEntity
  8
0
  6
CONTINUOUS
 62
               4
100
AcDbLine
 10
2.5
 20
16.5
 30
0.0
 11
2.5
 21
16.0
 31
0.0
  0
LINE
  5
155
100
AcDbEntity
  8
0
  6
CONTINUOUS
 62
             200
100
AcDbLine
 10
1.230000000000004
 20
13.5
 30
0.0
 11
1.230000000000004
 21
12.029999999999987
 31
0.0
  0
LINE
  5
156
100
AcDbEntity
  8
0
  6
CONTINUOUS
 62
               4
100
AcDbLine
 10
1.5
 20
13.5
 30
0.0
 11
1.5
 21
12.299999999999983
 31
0.0
  0
LINE
  5
157
100
AcDbEntity
  8
0
  6
CONTINUOUS
 62
               4
100
AcDbLine
 10
1.2999999999999972
 20
9.5999999999999943
 30
0.0
 11
1.2999999999999972
 21
7.0
 31
0.0
  0
LINE
  5
158
100
AcDbEntity
  8
0
  6
CONTINUOUS
 62
               4
100
AcDbLine
 10
1.2999999999999972
 20
9.5999999999999943
 30
0.0
 11
2.0499999999999972
 21
10.300000000000011
 31
0.0
  0
ARC
  5
159
100
AcDbEntity
  8
0
  6
CONTINUOUS
 62
               4
100
AcDbCircle
 10
3.0076251879642228
 20
13.707625187964226
 30
0.0
 40
0.4924338524296972
100
AcDbArc
 50
359.11275687609748
 51
90.88724312390211
  0
ARC
  5
15A
100
AcDbEntity
  8
0
  6
CONTINUOUS
 62
               4
100
AcDbCircle
 10
3.5076251918623171
 20
14.20762519186232
 30
0.0
 40
0.7924114967125058
100
AcDbArc
 50
359.44864750662862
 51
90.551352493371425
  0
ARC
  5
15B
100
AcDbEntity
  8
0
  6
CONTINUOUS
 62
               4
100
AcDbCircle
 10
1.5076267191957271
 20
16.507626719195741
 30
0.0
 40
0.9924025873101658
100
AcDbArc
 50
359.55967151986556
 51
90.440328480134554
  0
LINE
  5
15C
100
AcDbEntity
  8
0
  6
CONTINUOUS
 62
               4
100
AcDbLine
 10
1.2999999999999972
 20
7.0
 30
0.0
 11
2.0499999999999972
 21
6.3000000000000114
 31
0.0
  0
LINE
  5
15D
100
AcDbEntity
  8
0
  6
CONTINUOUS
 62
               4
100
AcDbLine
 10
2.0499999999999972
 20
10.300000000000011
 30
0.0
 11
2.0499999999999972
 21
6.3000000000000114
 31
0.0
  0
LINE
  5
15E
100
AcDbEntity
  8
0
  6
CONTINUOUS
 62
               4
100
AcDbLine
 10
3.25
 20
12.0
 30
0.0
 11
3.25
 21
6.0
 31
0.0
  0
LINE
  5
15F
100
AcDbEntity
  8
0
  6
CONTINUOUS
 62
               4
100
AcDbLine
 10
4.8285197925977741
 20
7.1652062376045045
 30
0.0
 11
5.0546052916774897
 21
4.8426196779580053
 31
0.0
  0
LINE
  5
160
100
AcDbEntity
  8
0
  6
CONTINUOUS
 62
               4
100
AcDbLine
 10
4.3495471175048834
 20
13.633954428256125
 30
0.0
 11
5.2230472338308118
 21
4.6604482180550519
 31
0.0
  0
LINE
  5
161
100
AcDbEntity
  8
0
  6
CONTINUOUS
 62
               4
100
AcDbLine
 10
4.8471949482611763
 20
13.682396523003973
 30
0.0
 11
5.7971576518176988
 21
3.9233866951871725
 31
0.0
  0
LINE
  5
162
100
AcDbEntity
  8
0
  6
CONTINUOUS
 62
               4
100
AcDbLine
 10
-1.5
 20
12.299999999999983
 30
0.0
 11
-1.1999999999999886
 21
12.0
 31
0.0
  0
LINE
  5
163
100
AcDbEntity
  8
0
  6
CONTINUOUS
 62
               4
100
AcDbLine
 10
-3.25
 20
12.0
 30
0.0
 11
-3.25
 21
8.5
 31
0.0
  0
LINE
  5
164
100
AcDbEntity
  8
0
  6
CONTINUOUS
 62
               4
100
AcDbLine
 10
-1.0
 20
10.599999999999994
 30
0.0
 11
-1.0
 21
10.300000000000011
 31
0.0
  0
LINE
  5
165
100
AcDbEntity
  8
0
  6
CONTINUOUS
 62
               4
100
AcDbLine
 10
-3.25
 20
8.0999999999999943
 30
0.0
 11
-2.0499999999999972
 21
8.0999999999999943
 31
0.0
  0
LINE
  5
166
100
AcDbEntity
  8
0
  6
CONTINUOUS
 62
               4
100
AcDbLine
 10
-3.25
 20
8.5
 30
0.0
 11
-2.0499999999999972
 21
8.5
 31
0.0
  0
LINE
  5
167
100
AcDbEntity
  8
0
  6
CONTINUOUS
 62
               4
100
AcDbLine
 10
-2.0499999999999972
 20
10.300000000000011
 30
0.0
 11
-2.0499999999999972
 21
6.3000000000000114
 31
0.0
  0
LINE
  5
168
100
AcDbEntity
  8
0
  6
CONTINUOUS
 62
               4
100
AcDbLine
 10
-3.5
 20
13.700000000000003
 30
0.0
 11
-3.5
 21
8.5
 31
0.0
  0
LINE
  5
169
100
AcDbEntity
  8
0
  6
CONTINUOUS
 62
               4
100
AcDbLine
 10
-4.2999999999999972
 20
14.200000000000003
 30
0.0
 11
-4.2999999999999972
 21
8.5
 31
0.0
  0
LINE
  5
16A
100
AcDbEntity
  8
0
  6
CONTINUOUS
 62
               4
100
AcDbLine
 10
-2.0600000000000023
 20
14.200000000000003
 30
0.0
 11
-2.0
 21
13.5
 31
0.0
  0
LINE
  5
16B
100
AcDbEntity
  8
0
  6
CONTINUOUS
 62
               4
100
AcDbLine
 10
-4.2999999999999972
 20
8.5
 30
0.0
 11
-3.5
 21
8.5
 31
0.0
  0
LINE
  5
16C
100
AcDbEntity
  8
0
  6
CONTINUOUS
 62
               4
100
AcDbLine
 10
-3.3500000000000085
 20
13.700000000000003
 30
0.0
 11
-3.3500000000000085
 21
8.5
 31
0.0
  0
LINE
  5
16D
100
AcDbEntity
  8
0
  6
CONTINUOUS
 62
               4
100
AcDbLine
 10
-3.5
 20
13.700000000000003
 30
0.0
 11
-3.3500000000000085
 21
13.700000000000003
 31
0.0
  0
LINE
  5
16E
100
AcDbEntity
  8
0
  6
CONTINUOUS
 62
               4
100
AcDbLine
 10
-1.5
 20
16.0
 30
0.0
 11
-1.5
 21
15.0
 31
0.0
  0
LINE
  5
16F
100
AcDbEntity
  8
0
  6
CONTINUOUS
 62
             200
100
AcDbLine
 10
-1.230000000000004
 20
16.0
 30
0.0
 11
-1.230000000000004
 21
15.0
 31
0.0
  0
LINE
  5
170
100
AcDbEntity
  8
0
  6
CONTINUOUS
 62
               4
100
AcDbLine
 10
-2.5
 20
16.5
 30
0.0
 11
-2.5
 21
16.0
 31
0.0
  0
LINE
  5
171
100
AcDbEntity
  8
0
  6
CONTINUOUS
 62
               4
100
AcDbLine
 10
-1.5
 20
13.5
 30
0.0
 11
-1.5
 21
12.299999999999983
 31
0.0
  0
LINE
  5
172
100
AcDbEntity
  8
0
  6
CONTINUOUS
 62
             200
100
AcDbLine
 10
-1.230000000000004
 20
13.5
 30
0.0
 11
-1.230000000000004
 21
12.030000000000015
 31
0.0
  0
LINE
  5
173
100
AcDbEntity
  8
0
  6
CONTINUOUS
 62
               4
100
AcDbLine
 10
-1.2999999999999972
 20
9.5999999999999943
 30
0.0
 11
-1.2999999999999972
 21
7.0
 31
0.0
  0
LINE
  5
174
100
AcDbEntity
  8
0
  6
CONTINUOUS
 62
               4
100
AcDbLine
 10
-2.0499999999999972
 20
10.300000000000011
 30
0.0
 11
-1.2999999999999972
 21
9.5999999999999943
 31
0.0
  0
LINE
  5
175
100
AcDbEntity
  8
0
  6
CONTINUOUS
 62
               4
100
AcDbLine
 10
-1.2999999999999972
 20
7.0
 30
0.0
 11
-2.0499999999999972
 21
6.3000000000000114
 31
0.0
  0
ARC
  5
176
100
AcDbEntity
  8
0
  6
CONTINUOUS
 62
               4
100
AcDbCircle
 10
-2.9998398445983412
 20
13.699839844598344
 30
0.0
 40
0.5001601810431999
100
AcDbArc
 50
90.018346579927808
 51
179.98165342007246
  0
ARC
  5
177
100
AcDbEntity
  8
0
  6
CONTINUOUS
 62
               4
100
AcDbCircle
 10
-3.4998616535656737
 20
14.199861653565677
 30
0.0
 40
0.8001383583945874
100
AcDbArc
 50
90.009906620215929
 51
179.99009337978379
  0
ARC
  5
178
100
AcDbEntity
  8
0
  6
CONTINUOUS
 62
               4
100
AcDbCircle
 10
-1.4998704365679885
 20
16.499870436567988
 30
0.0
 40
1.0001295718242713
100
AcDbArc
 50
90.007422476110804
 51
179.99257752388911
  0
LINE
  5
179
100
AcDbEntity
  8
0
  6
CONTINUOUS
 62
               4
100
AcDbLine
 10
-1.2999999999999972
 20
9.5999999999999943
 30
0.0
 11
1.2999999999999972
 21
9.5999999999999943
 31
0.0
  0
LINE
  5
17A
100
AcDbEntity
  8
0
  6
CONTINUOUS
 62
               4
100
AcDbLine
 10
-1.2999999999999972
 20
7.0
 30
0.0
 11
1.2999999999999972
 21
7.0
 31
0.0
  0
LINE
  5
17B
100
AcDbEntity
  8
0
  6
CONTINUOUS
 62
               4
100
AcDbLine
 10
-1.5
 20
17.5
 30
0.0
 11
1.5
 21
17.5
 31
0.0
  0
LINE
  5
17C
100
AcDbEntity
  8
0
  6
CONTINUOUS
 62
               4
100
AcDbLine
 10
-3.0
 20
14.200000000000003
 30
0.0
 11
3.0
 21
14.200000000000003
 31
0.0
  0
LINE
  5
17D
100
AcDbEntity
  8
0
  6
CONTINUOUS
 62
               4
100
AcDbLine
 10
-2.0
 20
13.5
 30
0.0
 11
2.0
 21
13.5
 31
0.0
  0
LINE
  5
17E
100
AcDbEntity
  8
0
  6
CONTINUOUS
 62
               4
100
AcDbLine
 10
-3.5
 20
15.0
 30
0.0
 11
3.5
 21
15.0
 31
0.0
  0
LINE
  5
17F
100
AcDbEntity
  8
0
  6
CONTINUOUS
 62
               4
100
AcDbLine
 10
-2.5
 20
16.0
 30
0.0
 11
2.5
 21
16.0
 31
0.0
  0
LINE
  5
180
100
AcDbEntity
  8
0
  6
CONTINUOUS
 62
               4
100
AcDbLine
 10
-3.25
 20
8.0999999999999943
 30
0.0
 11
-3.25
 21
6.0
 31
0.0
  0
LINE
  5
181
100
AcDbEntity
  8
0
  6
CONTINUOUS
 62
               4
100
AcDbLine
 10
-3.25
 20
11.300000000000011
 30
0.0
 11
3.25
 21
11.300000000000011
 31
0.0
  0
LINE
  5
182
100
AcDbEntity
  8
0
  6
CONTINUOUS
 62
               4
100
AcDbLine
 10
-1.0
 20
6.3000000000000114
 30
0.0
 11
-1.0
 21
6.0
 31
0.0
  0
LINE
  5
183
100
AcDbEntity
  8
0
  6
CONTINUOUS
 62
               4
100
AcDbLine
 10
-1.0
 20
10.599999999999994
 30
0.0
 11
1.0
 21
10.599999999999994
 31
0.0
  0
LINE
  5
184
100
AcDbEntity
  8
0
  6
CONTINUOUS
 62
               4
100
AcDbLine
 10
-2.0499999999999972
 20
10.300000000000011
 30
0.0
 11
2.0499999999999972
 21
10.300000000000011
 31
0.0
  0
LINE
  5
185
100
AcDbEntity
  8
0
  6
CONTINUOUS
 62
               4
100
AcDbLine
 10
-2.0499999999999972
 20
6.3000000000000114
 30
0.0
 11
2.0499999999999972
 21
6.3000000000000114
 31
0.0
  0
LINE
  5
186
100
AcDbEntity
  8
0
  6
CONTINUOUS
 62
               4
100
AcDbLine
 10
-3.25
 20
12.0
 30
0.0
 11
3.25
 21
12.0
 31
0.0
  0
CIRCLE
  5
187
100
AcDbEntity
  8
0
  6
CONTINUOUS
 62
               4
100
AcDbCircle
 10
0.0
 20
8.2999999999999972
 30
0.0
 40
1.2999999999999972
  0
LINE
  5
188
100
AcDbEntity
  8
0
  6
CONTINUOUS
 62
               4
100
AcDbLine
 10
-3.3500000000000085
 20
8.5
 30
0.0
 11
-4.1425502364343458
 21
5.64263037409129
 31
0.0
  0
LINE
  5
189
100
AcDbEntity
  8
0
  6
CONTINUOUS
 62
               4
100
AcDbLine
 10
-3.5
 20
8.5
 30
0.0
 11
-4.3357830538492976
 21
5.4955423126342211
 31
0.0
  0
LINE
  5
18A
100
AcDbEntity
  8
0
  6
CONTINUOUS
 62
               7
100
AcDbLine
 10
6.0000000000000142
 20
3.6055512754639878
 30
0.0
 11
6.0000000000000142
 21
-3.6055512754639878
 31
0.0
  0
LINE
  5
18B
100
AcDbEntity
  8
0
  6
CONTINUOUS
 62
               7
100
AcDbLine
 10
-5.9999999999999858
 20
3.6055512754639949
 30
0.0
 11
-5.9999999999999858
 21
-3.6055512754639878
 31
0.0
  0
ARC
  5
18C
100
AcDbEntity
  8
0
  6
CONTINUOUS
 62
               7
100
AcDbCircle
 10
0.0000000000000142
 20
0.0
 30
0.0
 40
7.0
100
AcDbArc
 50
211.00271882222677
 51
238.99728086612603
  0
LINE
  5
18D
100
AcDbEntity
  8
0
  6
CONTINUOUS
 62
               7
100
AcDbLine
 10
-3.6055512754639665
 20
-6.0
 30
0.0
 11
3.6055512754639949
 21
-6.0
 31
0.0
  0
ARC
  5
18E
100
AcDbEntity
  8
0
  6
CONTINUOUS
 62
               7
100
AcDbCircle
 10
0.0000000000000142
 20
0.0
 30
0.0
 40
7.0
100
AcDbArc
 50
301.00271913387394
 51
328.99728117777323
  0
LINE
  5
18F
100
AcDbEntity
  8
0
  6
CONTINUOUS
 62
               7
100
AcDbLine
 10
-3.6055512754639665
 20
6.0
 30
0.0
 11
3.6055512754639949
 21
6.0
 31
0.0
  0
LINE
  5
190
100
AcDbEntity
  8
0
  6
CENTER
 62
               2
100
AcDbLine
 10
0.0
 20
-8.1864208821570195
 30
0.0
 11
0.0
 21
19.594049450774627
 31
0.0
  0
LINE
  5
191
100
AcDbEntity
  8
0
  6
CENTER
 62
               2
100
AcDbLine
 10
-8.3497556554428911
 20
0.0
 30
0.0
 11
8.3640381209366126
 21
0.0
 31
0.0
  0
ENDBLK
  5
192
100
AcDbEntity
  8
0
100
AcDbBlockEnd
  0
BLOCK
  5
193
100
AcDbEntity
  8
0
100
AcDbBlockBegin
  2
CS-PBSAS107-4
 70
               0
 10
0.0
 20
0.0
 30
0.0
  3
CS-PBSAS107-4
  1

  0
LINE
  5
194
100
AcDbEntity
  8
0
  6
CONTINUOUS
 62
               4
100
AcDbLine
 10
-2.0
 20
4.847194948261162
 30
0.0
 11
-2.0
 21
5.8644789379659841
 31
0.0
  0
LINE
  5
195
100
AcDbEntity
  8
0
  6
CONTINUOUS
 62
               4
100
AcDbLine
 10
-4.4999999783108535
 20
5.8644789379659841
 30
0.0
 11
4.5000000216891465
 21
5.8644789379659841
 31
0.0
  0
LINE
  5
196
100
AcDbEntity
  8
0
  6
CONTINUOUS
 62
               4
100
AcDbLine
 10
-2.0000000095367341
 20
5.0999999999999801
 30
0.0
 11
1.9999999904632659
 21
5.0999999999999801
 31
0.0
  0
CIRCLE
  5
197
100
AcDbEntity
  8
0
  6
CONTINUOUS
 62
               4
100
AcDbCircle
 10
-0.0008752441406159
 20
-0.0024584960937517
 30
0.0
 40
2.5
  0
LINE
  5
198
100
AcDbEntity
  8
0
  6
CONTINUOUS
 62
               4
100
AcDbLine
 10
7.0
 20
-2.0000000000000142
 30
0.0
 11
12.5
 21
-2.0000000000000142
 31
0.0
  0
LINE
  5
199
100
AcDbEntity
  8
0
  6
CONTINUOUS
 62
               4
100
AcDbLine
 10
7.0
 20
1.9999999999999858
 30
0.0
 11
12.5
 21
1.9999999999999858
 31
0.0
  0
LINE
  5
19A
100
AcDbEntity
  8
0
  6
CONTINUOUS
 62
               4
100
AcDbLine
 10
4.5
 20
-3.2500000000000142
 30
0.0
 11
7.0
 21
-3.2500000000000142
 31
0.0
  0
LINE
  5
19B
100
AcDbEntity
  8
0
  6
CONTINUOUS
 62
               4
100
AcDbLine
 10
4.5
 20
3.2499999999999858
 30
0.0
 11
7.0
 21
3.2499999999999858
 31
0.0
  0
LINE
  5
19C
100
AcDbEntity
  8
0
  6
CONTINUOUS
 62
               4
100
AcDbLine
 10
7.0
 20
-3.2500000000000142
 30
0.0
 11
7.0
 21
3.2499999999999858
 31
0.0
  0
LINE
  5
19D
100
AcDbEntity
  8
0
  6
CONTINUOUS
 62
               4
100
AcDbLine
 10
-6.9999999999999929
 20
3.2499999999999858
 30
0.0
 11
-4.5
 21
3.2499999999999858
 31
0.0
  0
LINE
  5
19E
100
AcDbEntity
  8
0
  6
CONTINUOUS
 62
               4
100
AcDbLine
 10
-6.9999999999999929
 20
-3.2500000000000142
 30
0.0
 11
-4.5
 21
-3.2500000000000142
 31
0.0
  0
LINE
  5
19F
100
AcDbEntity
  8
0
  6
CONTINUOUS
 62
               4
100
AcDbLine
 10
-12.499999999999993
 20
-1.0000000000000142
 30
0.0
 11
-11.499999999999993
 21
-2.0000000000000142
 31
0.0
  0
LINE
  5
1A0
100
AcDbEntity
  8
0
  6
CONTINUOUS
 62
               4
100
AcDbLine
 10
-12.499999999999993
 20
0.9999999999999858
 30
0.0
 11
-11.499999999999993
 21
1.9999999999999858
 31
0.0
  0
LINE
  5
1A1
100
AcDbEntity
  8
0
  6
CONTINUOUS
 62
               4
100
AcDbLine
 10
-11.499999999999993
 20
1.9999999999999858
 30
0.0
 11
-11.499999999999993
 21
-2.0000000000000142
 31
0.0
  0
LINE
  5
1A2
100
AcDbEntity
  8
0
  6
CONTINUOUS
 62
               4
100
AcDbLine
 10
-11.499999999999993
 20
1.9999999999999858
 30
0.0
 11
-6.9999999999999929
 21
1.9999999999999858
 31
0.0
  0
LINE
  5
1A3
100
AcDbEntity
  8
0
  6
CONTINUOUS
 62
               4
100
AcDbLine
 10
-11.499999999999993
 20
-2.0000000000000142
 30
0.0
 11
-6.9999999999999929
 21
-2.0000000000000142
 31
0.0
  0
LINE
  5
1A4
100
AcDbEntity
  8
0
  6
CONTINUOUS
 62
               4
100
AcDbLine
 10
-12.499999999999993
 20
0.9999999999999858
 30
0.0
 11
-12.499999999999993
 21
-1.0000000000000142
 31
0.0
  0
LINE
  5
1A5
100
AcDbEntity
  8
0
  6
CONTINUOUS
 62
               4
100
AcDbLine
 10
12.5
 20
1.9999999999999858
 30
0.0
 11
12.5
 21
-2.0000000000000142
 31
0.0
  0
LINE
  5
1A6
100
AcDbEntity
  8
0
  6
CONTINUOUS
 62
               4
100
AcDbLine
 10
1.0074334140435948
 20
-1.0025665859564157
 30
0.0
 11
-1.0625665859564126
 21
1.0574334140435582
 31
0.0
  0
LINE
  5
1A7
100
AcDbEntity
  8
0
  6
CONTINUOUS
 62
               4
100
AcDbLine
 10
-1.0625665859564126
 20
-1.062566585956418
 30
0.0
 11
1.0574334140435919
 21
1.0574334140435582
 31
0.0
  0
LINE
  5
1A8
100
AcDbEntity
  8
0
  6
CONTINUOUS
 62
               4
100
AcDbLine
 10
1.1099999999999994
 20
-1.1000000000000085
 30
0.0
 11
1.0600000000000023
 21
-1.0600000000000165
 31
0.0
  0
LINE
  5
1A9
100
AcDbEntity
  8
0
  6
CONTINUOUS
 62
               4
100
AcDbLine
 10
-4.5
 20
-5.6499999999999915
 30
0.0
 11
4.5
 21
-5.6499999999999915
 31
0.0
  0
LINE
  5
1AA
100
AcDbEntity
  8
0
  6
CONTINUOUS
 62
               4
100
AcDbLine
 10
-6.9999999999999929
 20
-3.2500000000000142
 30
0.0
 11
-6.9999999999999929
 21
3.2499999999999858
 31
0.0
  0
LINE
  5
1AB
100
AcDbEntity
  8
0
  6
CONTINUOUS
 62
               4
100
AcDbLine
 10
-4.5000000095367341
 20
-4.3000000000000256
 30
0.0
 11
4.5
 21
-4.3000000000000256
 31
0.0
  0
LINE
  5
1AC
100
AcDbEntity
  8
0
  6
CONTINUOUS
 62
               4
100
AcDbLine
 10
-4.5000000095367341
 20
4.3000366885747923
 30
0.0
 11
4.5
 21
4.3000366885747923
 31
0.0
  0
LINE
  5
1AD
100
AcDbEntity
  8
0
  6
CONTINUOUS
 62
               4
100
AcDbLine
 10
12.5
 20
1.9999999999999858
 30
0.0
 11
15.5
 21
1.2999999999999687
 31
0.0
  0
LINE
  5
1AE
100
AcDbEntity
  8
0
  6
CONTINUOUS
 62
               4
100
AcDbLine
 10
15.499999990463266
 20
1.2999999999999687
 30
0.0
 11
20.436999077164955
 21
1.2999999999999687
 31
0.0
  0
LINE
  5
1AF
100
AcDbEntity
  8
0
  6
CONTINUOUS
 62
               4
100
AcDbLine
 10
15.499999990463266
 20
-1.3000000000000256
 30
0.0
 11
17.836999077164961
 21
-1.3000000000000256
 31
0.0
  0
LINE
  5
1B0
100
AcDbEntity
  8
0
  6
CONTINUOUS
 62
               4
100
AcDbLine
 10
12.5
 20
-2.0000000000000142
 30
0.0
 11
15.499999990463266
 21
-1.3000000000000256
 31
0.0
  0
LINE
  5
1B1
100
AcDbEntity
  8
0
  6
CONTINUOUS
 62
             200
100
AcDbLine
 10
20.436999077164955
 20
1.2999999999999687
 30
0.0
 11
17.836999077164961
 21
-1.3000000000000256
 31
0.0
  0
LINE
  5
1B2
100
AcDbEntity
  8
0
  6
CONTINUOUS
 62
               4
100
AcDbLine
 10
-4.4999999783108535
 20
4.847194948261162
 30
0.0
 11
4.5000000216891465
 21
4.847194948261162
 31
0.0
  0
LINE
  5
1B3
100
AcDbEntity
  8
0
  6
CONTINUOUS
 62
               4
100
AcDbLine
 10
-4.5
 20
-5.6499999999999915
 30
0.0
 11
-4.5
 21
5.8644789379659841
 31
0.0
  0
LINE
  5
1B4
100
AcDbEntity
  8
0
  6
CONTINUOUS
 62
               4
100
AcDbLine
 10
4.5
 20
-5.6499999999999915
 30
0.0
 11
4.5
 21
5.8644789379659841
 31
0.0
  0
LINE
  5
1B5
100
AcDbEntity
  8
0
  6
CONTINUOUS
 62
               4
100
AcDbLine
 10
2.0
 20
5.8644789379659841
 30
0.0
 11
2.0
 21
4.847194948261162
 31
0.0
  0
LINE
  5
1B6
100
AcDbEntity
  8
0
  6
CENTER
 62
             200
100
AcDbLine
 10
0.0
 20
7.2999999999999972
 30
0.0
 11
0.0
 21
-7.4200000000000017
 31
0.0
  0
LINE
  5
1B7
100
AcDbEntity
  8
0
  6
CENTER
 62
             200
100
AcDbLine
 10
-14.634076711158585
 20
-0.0000000000000142
 30
0.0
 11
21.671576029108593
 21
-0.0000000000000142
 31
0.0
  0
LINE
  5
1B8
100
AcDbEntity
  8
0
  6
CONTINUOUS
 62
               4
100
AcDbLine
 10
15.499999990463266
 20
1.2999999999999687
 30
0.0
 11
15.499999990463266
 21
-1.3000000000000256
 31
0.0
  0
ENDBLK
  5
1B9
100
AcDbEntity
  8
0
100
AcDbBlockEnd
  0
BLOCK
  5
1BA
100
AcDbEntity
  8
0
100
AcDbBlockBegin
  2
CS-PBSAS107-5
 70
               0
 10
0.0
 20
0.0
 30
0.0
  3
CS-PBSAS107-5
  1

  0
LINE
  5
1BB
100
AcDbEntity
  8
0
  6
CONTINUOUS
 62
               4
100
AcDbLine
 10
-6.0
 20
-12.000000000000014
 30
0.0
 11
-6.0
 21
-21.000000000000014
 31
0.0
  0
LINE
  5
1BC
100
AcDbEntity
  8
0
  6
CONTINUOUS
 62
               4
100
AcDbLine
 10
6.0
 20
-12.000000000000014
 30
0.0
 11
6.0
 21
-21.000000000000014
 31
0.0
  0
LINE
  5
1BD
100
AcDbEntity
  8
0
  6
CENTER
 62
             200
100
AcDbLine
 10
0.0
 20
8.4734704606480236
 30
0.0
 11
0.0
 21
-32.000000000000014
 31
0.0
  0
LINE
  5
1BE
100
AcDbEntity
  8
0
  6
CONTINUOUS
 62
               4
100
AcDbLine
 10
1.5500000000000114
 20
-12.000000000000014
 30
0.0
 11
6.0
 21
-12.000000000000014
 31
0.0
  0
LINE
  5
1BF
100
AcDbEntity
  8
0
  6
CENTER
 62
             200
100
AcDbLine
 10
-4.5500000000000114
 20
0.0
 30
0.0
 11
4.5500000000000114
 21
0.0
 31
0.0
  0
LINE
  5
1C0
100
AcDbEntity
  8
0
  6
CONTINUOUS
 62
               4
100
AcDbLine
 10
-1.5500000000000114
 20
7.0
 30
0.0
 11
1.5500000000000114
 21
7.0
 31
0.0
  0
LINE
  5
1C1
100
AcDbEntity
  8
0
  6
CONTINUOUS
 62
               4
100
AcDbLine
 10
1.5500000000000114
 20
7.0
 30
0.0
 11
1.5500000000000114
 21
-12.000000000000014
 31
0.0
  0
LINE
  5
1C2
100
AcDbEntity
  8
0
  6
CONTINUOUS
 62
               4
100
AcDbLine
 10
-1.5500000000000114
 20
7.0
 30
0.0
 11
-1.5500000000000114
 21
-12.000000000000014
 31
0.0
  0
LINE
  5
1C3
100
AcDbEntity
  8
0
  6
CONTINUOUS
 62
               4
100
AcDbLine
 10
-1.5500000000000114
 20
-12.000000000000014
 30
0.0
 11
-6.0
 21
-12.000000000000014
 31
0.0
  0
LINE
  5
1C4
100
AcDbEntity
  8
0
  6
CONTINUOUS
 62
               4
100
AcDbLine
 10
-1.5500000000000114
 20
5.3900000000000006
 30
0.0
 11
1.5500000000000114
 21
5.3900000000000006
 31
0.0
  0
LINE
  5
1C5
100
AcDbEntity
  8
0
  6
CENTER
 62
             200
100
AcDbLine
 10
15.100000000000023
 20
-24.000000000000014
 30
0.0
 11
15.100000000000023
 21
-32.000000000000014
 31
0.0
  0
LINE
  5
1C6
100
AcDbEntity
  8
0
  6
CENTER
 62
             200
100
AcDbLine
 10
-15.100000000000023
 20
-24.000000000000014
 30
0.0
 11
-15.100000000000023
 21
-32.000000000000014
 31
0.0
  0
LINE
  5
1C7
100
AcDbEntity
  8
0
  6
CONTINUOUS
 62
               4
100
AcDbLine
 10
10.0
 20
-27.000000000000014
 30
0.0
 11
20.0
 21
-27.000000000000014
 31
0.0
  0
LINE
  5
1C8
100
AcDbEntity
  8
0
  6
CONTINUOUS
 62
               4
100
AcDbLine
 10
20.0
 20
-27.000000000000014
 30
0.0
 11
20.0
 21
-29.000000000000014
 31
0.0
  0
LINE
  5
1C9
100
AcDbEntity
  8
0
  6
CONTINUOUS
 62
               4
100
AcDbLine
 10
9.0
 20
-24.000000000000014
 30
0.0
 11
9.0
 21
-26.000000000000014
 31
0.0
  0
LINE
  5
1CA
100
AcDbEntity
  8
0
  6
CONTINUOUS
 62
               4
100
AcDbLine
 10
7.0
 20
-24.000000000000014
 30
0.0
 11
7.0
 21
-26.000000000000014
 31
0.0
  0
LINE
  5
1CB
100
AcDbEntity
  8
0
  6
CONTINUOUS
 62
               4
100
AcDbLine
 10
10.0
 20
-29.000000000000014
 30
0.0
 11
20.0
 21
-29.000000000000014
 31
0.0
  0
LINE
  5
1CC
100
AcDbEntity
  8
0
  6
CONTINUOUS
 62
               4
100
AcDbLine
 10
-6.0
 20
-21.000000000000014
 30
0.0
 11
6.0
 21
-21.000000000000014
 31
0.0
  0
LINE
  5
1CD
100
AcDbEntity
  8
0
  6
CONTINUOUS
 62
               4
100
AcDbLine
 10
-6.0
 20
-23.000000000000014
 30
0.0
 11
6.0
 21
-23.000000000000014
 31
0.0
  0
LINE
  5
1CE
100
AcDbEntity
  8
0
  6
CONTINUOUS
 62
               4
100
AcDbLine
 10
-9.0
 20
-24.000000000000014
 30
0.0
 11
-9.0
 21
-26.000000000000014
 31
0.0
  0
LINE
  5
1CF
100
AcDbEntity
  8
0
  6
CONTINUOUS
 62
               4
100
AcDbLine
 10
-10.0
 20
-27.000000000000014
 30
0.0
 11
-20.0
 21
-27.000000000000014
 31
0.0
  0
LINE
  5
1D0
100
AcDbEntity
  8
0
  6
CONTINUOUS
 62
               4
100
AcDbLine
 10
-20.0
 20
-27.000000000000014
 30
0.0
 11
-20.0
 21
-29.000000000000014
 31
0.0
  0
LINE
  5
1D1
100
AcDbEntity
  8
0
  6
CONTINUOUS
 62
               4
100
AcDbLine
 10
-10.0
 20
-29.000000000000014
 30
0.0
 11
-20.0
 21
-29.000000000000014
 31
0.0
  0
LINE
  5
1D2
100
AcDbEntity
  8
0
  6
CONTINUOUS
 62
               4
100
AcDbLine
 10
-7.0
 20
-24.000000000000014
 30
0.0
 11
-7.0
 21
-26.000000000000014
 31
0.0
  0
LINE
  5
1D3
100
AcDbEntity
  8
0
  6
CONTINUOUS
 62
               4
100
AcDbLine
 10
-4.1000000000000227
 20
-29.000000000000014
 30
0.0
 11
4.1000000000000227
 21
-29.000000000000014
 31
0.0
  0
LINE
  5
1D4
100
AcDbEntity
  8
0
  6
CONTINUOUS
 62
               4
100
AcDbLine
 10
-4.1000000000000227
 20
-23.000000000000014
 30
0.0
 11
-4.1000000000000227
 21
-29.000000000000014
 31
0.0
  0
LINE
  5
1D5
100
AcDbEntity
  8
0
  6
CONTINUOUS
 62
               4
100
AcDbLine
 10
4.1000000000000227
 20
-23.000000000000014
 30
0.0
 11
4.1000000000000227
 21
-29.000000000000014
 31
0.0
  0
LINE
  5
1D6
100
AcDbEntity
  8
0
  6
CONTINUOUS
 62
               4
100
AcDbLine
 10
-4.1000000000000227
 20
-24.000000000000014
 30
0.0
 11
4.1000000000000227
 21
-24.000000000000014
 31
0.0
  0
ARC
  5
1D7
100
AcDbEntity
  8
0
  6
CONTINUOUS
 62
               4
100
AcDbCircle
 10
-10.0
 20
-26.000000000000014
 30
0.0
 40
3.0
100
AcDbArc
 50
270.0
 51
0.0
  0
ARC
  5
1D8
100
AcDbEntity
  8
0
  6
CONTINUOUS
 62
               4
100
AcDbCircle
 10
-10.0
 20
-26.000000000000014
 30
0.0
 40
1.0
100
AcDbArc
 50
270.0
 51
0.0
  0
ARC
  5
1D9
100
AcDbEntity
  8
0
  6
CONTINUOUS
 62
               4
100
AcDbCircle
 10
-6.0
 20
-24.000000000000014
 30
0.0
 40
1.0
100
AcDbArc
 50
90.0
 51
180.0
  0
ARC
  5
1DA
100
AcDbEntity
  8
0
  6
CONTINUOUS
 62
               4
100
AcDbCircle
 10
10.0
 20
-26.000000000000014
 30
0.0
 40
1.0
100
AcDbArc
 50
180.0
 51
270.0
  0
ARC
  5
1DB
100
AcDbEntity
  8
0
  6
CONTINUOUS
 62
               4
100
AcDbCircle
 10
-6.0
 20
-24.000000000000014
 30
0.0
 40
3.0
100
AcDbArc
 50
90.0
 51
180.0
  0
ARC
  5
1DC
100
AcDbEntity
  8
0
  6
CONTINUOUS
 62
               4
100
AcDbCircle
 10
6.0
 20
-24.000000000000014
 30
0.0
 40
1.0
100
AcDbArc
 50
0.0
 51
90.0
  0
ARC
  5
1DD
100
AcDbEntity
  8
0
  6
CONTINUOUS
 62
               4
100
AcDbCircle
 10
6.0
 20
-24.000000000000014
 30
0.0
 40
3.0
100
AcDbArc
 50
0.0
 51
90.0
  0
ARC
  5
1DE
100
AcDbEntity
  8
0
  6
CONTINUOUS
 62
               4
100
AcDbCircle
 10
10.0
 20
-26.000000000000014
 30
0.0
 40
3.0
100
AcDbArc
 50
180.0
 51
270.0
  0
ENDBLK
  5
1DF
100
AcDbEntity
  8
0
100
AcDbBlockEnd
  0
BLOCK
  5
1E0
100
AcDbEntity
  8
0
100
AcDbBlockBegin
  2
CS-PBSAS107-6
 70
               0
 10
0.0
 20
0.0
 30
0.0
  3
CS-PBSAS107-6
  1

  0
LINE
  5
1E1
100
AcDbEntity
  8
0
  6
CONTINUOUS
 62
               4
100
AcDbLine
 10
-6.0
 20
5.3900000000000006
 30
0.0
 11
-6.0
 21
-21.0
 31
0.0
  0
LINE
  5
1E2
100
AcDbEntity
  8
0
  6
CONTINUOUS
 62
               4
100
AcDbLine
 10
6.0
 20
5.3900000000000006
 30
0.0
 11
6.0
 21
-21.0
 31
0.0
  0
LINE
  5
1E3
100
AcDbEntity
  8
0
  6
CENTER
 62
             200
100
AcDbLine
 10
0.0
 20
8.468470269913162
 30
0.0
 11
0.0
 21
-32.0
 31
0.0
  0
LINE
  5
1E4
100
AcDbEntity
  8
0
  6
CENTER
 62
             200
100
AcDbLine
 10
-9.0
 20
0.0
 30
0.0
 11
9.0
 21
0.0
 31
0.0
  0
LINE
  5
1E5
100
AcDbEntity
  8
0
  6
CONTINUOUS
 62
               4
100
AcDbLine
 10
-6.0
 20
-12.0
 30
0.0
 11
6.0
 21
-12.0
 31
0.0
  0
CIRCLE
  5
1E6
100
AcDbEntity
  8
0
  6
CONTINUOUS
 62
               4
100
AcDbCircle
 10
0.0
 20
0.0
 30
0.0
 40
1.6499996185302734
  0
ARC
  5
1E7
100
AcDbEntity
  8
0
  6
CONTINUOUS
 62
               4
100
AcDbCircle
 10
0.0
 20
-5.0000019073486328
 30
0.0
 40
11.998005652386912
100
AcDbArc
 50
59.994501226470106
 51
120.00549877352991
  0
LINE
  5
1E8
100
AcDbEntity
  8
0
  6
CENTER
 62
             200
100
AcDbLine
 10
-6.0
 20
-24.0
 30
0.0
 11
-6.0
 21
-32.0
 31
0.0
  0
LINE
  5
1E9
100
AcDbEntity
  8
0
  6
CENTER
 62
             200
100
AcDbLine
 10
6.0
 20
-24.0
 30
0.0
 11
6.0
 21
-32.0
 31
0.0
  0
LINE
  5
1EA
100
AcDbEntity
  8
0
  6
CONTINUOUS
 62
               4
100
AcDbLine
 10
-11.0
 20
-21.0
 30
0.0
 11
11.0
 21
-21.0
 31
0.0
  0
LINE
  5
1EB
100
AcDbEntity
  8
0
  6
CONTINUOUS
 62
               4
100
AcDbLine
 10
-11.0
 20
-29.0
 30
0.0
 11
11.0
 21
-29.0
 31
0.0
  0
LINE
  5
1EC
100
AcDbEntity
  8
0
  6
CONTINUOUS
 62
               4
100
AcDbLine
 10
11.0
 20
-21.0
 30
0.0
 11
11.0
 21
-29.0
 31
0.0
  0
LINE
  5
1ED
100
AcDbEntity
  8
0
  6
CONTINUOUS
 62
               4
100
AcDbLine
 10
3.9000000000000341
 20
-27.0
 30
0.0
 11
3.9000000000000341
 21
-29.0
 31
0.0
  0
LINE
  5
1EE
100
AcDbEntity
  8
0
  6
CONTINUOUS
 62
               4
100
AcDbLine
 10
8.0999999999999659
 20
-27.0
 30
0.0
 11
8.0999999999999659
 21
-29.0
 31
0.0
  0
LINE
  5
1EF
100
AcDbEntity
  8
0
  6
CONTINUOUS
 62
               4
100
AcDbLine
 10
-11.0
 20
-27.0
 30
0.0
 11
11.0
 21
-27.0
 31
0.0
  0
LINE
  5
1F0
100
AcDbEntity
  8
0
  6
CONTINUOUS
 62
               4
100
AcDbLine
 10
-11.0
 20
-21.0
 30
0.0
 11
-11.0
 21
-29.0
 31
0.0
  0
LINE
  5
1F1
100
AcDbEntity
  8
0
  6
CONTINUOUS
 62
               4
100
AcDbLine
 10
-8.0999999999999659
 20
-27.0
 30
0.0
 11
-8.0999999999999659
 21
-29.0
 31
0.0
  0
LINE
  5
1F2
100
AcDbEntity
  8
0
  6
CONTINUOUS
 62
               4
100
AcDbLine
 10
-3.9000000000000341
 20
-27.0
 30
0.0
 11
-3.9000000000000341
 21
-29.0
 31
0.0
  0
ENDBLK
  5
1F3
100
AcDbEntity
  8
0
100
AcDbBlockEnd
  0
BLOCK
  5
1F4
100
AcDbEntity
  8
0
100
AcDbBlockBegin
  2
CS-PBSAS107-7
 70
               0
 10
0.0
 20
0.0
 30
0.0
  3
CS-PBSAS107-7
  1

  0
LINE
  5
1F5
100
AcDbEntity
  8
0
  6
CONTINUOUS
 62
               4
100
AcDbLine
 10
-20.0
 20
11.0
 30
0.0
 11
-20.0
 21
8.0999999999999943
 31
0.0
  0
LINE
  5
1F6
100
AcDbEntity
  8
0
  6
CONTINUOUS
 62
               4
100
AcDbLine
 10
-9.0
 20
11.0
 30
0.0
 11
-9.0
 21
-11.0
 31
0.0
  0
LINE
  5
1F7
100
AcDbEntity
  8
0
  6
CONTINUOUS
 62
               4
100
AcDbLine
 10
-6.0
 20
6.0
 30
0.0
 11
-6.0
 21
-6.0
 31
0.0
  0
LINE
  5
1F8
100
AcDbEntity
  8
0
  6
CENTER
 62
             200
100
AcDbLine
 10
0.0
 20
11.707540342590434
 30
0.0
 11
0.0
 21
-11.917438474206492
 31
0.0
  0
LINE
  5
1F9
100
AcDbEntity
  8
0
  6
CONTINUOUS
 62
               4
100
AcDbLine
 10
6.0
 20
6.0
 30
0.0
 11
6.0
 21
-6.0
 31
0.0
  0
LINE
  5
1FA
100
AcDbEntity
  8
0
  6
CONTINUOUS
 62
               4
100
AcDbLine
 10
9.0
 20
11.0
 30
0.0
 11
9.0
 21
-11.0
 31
0.0
  0
LINE
  5
1FB
100
AcDbEntity
  8
0
  6
CONTINUOUS
 62
               4
100
AcDbLine
 10
20.0
 20
11.0
 30
0.0
 11
20.0
 21
8.0999999999999943
 31
0.0
  0
LINE
  5
1FC
100
AcDbEntity
  8
0
  6
CENTER
 62
             200
100
AcDbLine
 10
23.0
 20
0.0
 30
0.0
 11
-23.0
 21
0.0
 31
0.0
  0
LINE
  5
1FD
100
AcDbEntity
  8
0
  6
CONTINUOUS
 62
               4
100
AcDbLine
 10
6.0
 20
-6.0
 30
0.0
 11
-6.0
 21
-6.0
 31
0.0
  0
LINE
  5
1FE
100
AcDbEntity
  8
0
  6
CONTINUOUS
 62
               4
100
AcDbLine
 10
20.0
 20
-11.0
 30
0.0
 11
-20.0
 21
-11.0
 31
0.0
  0
LINE
  5
1FF
100
AcDbEntity
  8
0
  6
CONTINUOUS
 62
               4
100
AcDbLine
 10
6.0
 20
6.0
 30
0.0
 11
-6.0
 21
6.0
 31
0.0
  0
LINE
  5
200
100
AcDbEntity
  8
0
  6
CONTINUOUS
 62
               4
100
AcDbLine
 10
20.0
 20
11.0
 30
0.0
 11
-20.0
 21
11.0
 31
0.0
  0
LINE
  5
201
100
AcDbEntity
  8
0
  6
CONTINUOUS
 62
               4
100
AcDbLine
 10
20.0
 20
8.0999999999999943
 30
0.0
 11
15.100000000000023
 21
8.0999999999999943
 31
0.0
  0
LINE
  5
202
100
AcDbEntity
  8
0
  6
CONTINUOUS
 62
               4
100
AcDbLine
 10
20.0
 20
3.9000000000000057
 30
0.0
 11
15.100000000000023
 21
3.9000000000000057
 31
0.0
  0
LINE
  5
203
100
AcDbEntity
  8
0
  6
CONTINUOUS
 62
               4
100
AcDbLine
 10
20.0
 20
-3.9000000000000057
 30
0.0
 11
15.100000000000023
 21
-3.9000000000000057
 31
0.0
  0
LINE
  5
204
100
AcDbEntity
  8
0
  6
CONTINUOUS
 62
               4
100
AcDbLine
 10
20.0
 20
-8.0999999999999943
 30
0.0
 11
15.100000000000023
 21
-8.0999999999999943
 31
0.0
  0
LINE
  5
205
100
AcDbEntity
  8
0
  6
CONTINUOUS
 62
               4
100
AcDbLine
 10
1.5500000000000114
 20
6.0
 30
0.0
 11
1.5500000000000114
 21
-6.0
 31
0.0
  0
LINE
  5
206
100
AcDbEntity
  8
0
  6
CONTINUOUS
 62
               4
100
AcDbLine
 10
-1.5500000000000114
 20
6.0
 30
0.0
 11
-1.5500000000000114
 21
-6.0
 31
0.0
  0
LINE
  5
207
100
AcDbEntity
  8
0
  6
CENTER
 62
             200
100
AcDbLine
 10
23.0
 20
6.0
 30
0.0
 11
10.0
 21
6.0
 31
0.0
  0
LINE
  5
208
100
AcDbEntity
  8
0
  6
CENTER
 62
             200
100
AcDbLine
 10
23.0
 20
-6.0
 30
0.0
 11
10.0
 21
-6.0
 31
0.0
  0
LINE
  5
209
100
AcDbEntity
  8
0
  6
CONTINUOUS
 62
               4
100
AcDbLine
 10
-15.100000000000023
 20
8.0999999999999943
 30
0.0
 11
-20.0
 21
8.0999999999999943
 31
0.0
  0
LINE
  5
20A
100
AcDbEntity
  8
0
  6
CONTINUOUS
 62
               4
100
AcDbLine
 10
-15.100000000000023
 20
3.9000000000000057
 30
0.0
 11
-20.0
 21
3.9000000000000057
 31
0.0
  0
LINE
  5
20B
100
AcDbEntity
  8
0
  6
CONTINUOUS
 62
               4
100
AcDbLine
 10
-15.100000000000023
 20
-3.9000000000000057
 30
0.0
 11
-20.0
 21
-3.9000000000000057
 31
0.0
  0
LINE
  5
20C
100
AcDbEntity
  8
0
  6
CONTINUOUS
 62
               4
100
AcDbLine
 10
-15.100000000000023
 20
-8.0999999999999943
 30
0.0
 11
-20.0
 21
-8.0999999999999943
 31
0.0
  0
LINE
  5
20D
100
AcDbEntity
  8
0
  6
CONTINUOUS
 62
               4
100
AcDbLine
 10
20.0
 20
3.7400000000000091
 30
0.0
 11
20.0
 21
-3.9000000000000057
 31
0.0
  0
LINE
  5
20E
100
AcDbEntity
  8
0
  6
CONTINUOUS
 62
               4
100
AcDbLine
 10
20.0
 20
-8.0999999999999943
 30
0.0
 11
20.0
 21
-11.0
 31
0.0
  0
LINE
  5
20F
100
AcDbEntity
  8
0
  6
CONTINUOUS
 62
               4
100
AcDbLine
 10
-20.0
 20
3.9000000000000057
 30
0.0
 11
-20.0
 21
-3.9000000000000057
 31
0.0
  0
LINE
  5
210
100
AcDbEntity
  8
0
  6
CONTINUOUS
 62
               4
100
AcDbLine
 10
-20.0
 20
-8.0999999999999943
 30
0.0
 11
-20.0
 21
-11.0
 31
0.0
  0
LINE
  5
211
100
AcDbEntity
  8
0
  6
CENTER
 62
             200
100
AcDbLine
 10
15.100000000000023
 20
11.890679713263282
 30
0.0
 11
15.100000000000023
 21
-11.917438474206492
 31
0.0
  0
LINE
  5
212
100
AcDbEntity
  8
0
  6
CENTER
 62
             200
100
AcDbLine
 10
-15.100000000000023
 20
11.707540342590434
 30
0.0
 11
-15.100000000000023
 21
-11.917438474206492
 31
0.0
  0
LINE
  5
213
100
AcDbEntity
  8
0
  6
CENTER
 62
             200
100
AcDbLine
 10
-10.0
 20
6.0
 30
0.0
 11
-23.0
 21
6.0
 31
0.0
  0
LINE
  5
214
100
AcDbEntity
  8
0
  6
CENTER
 62
             200
100
AcDbLine
 10
-10.0
 20
-6.0
 30
0.0
 11
-23.0
 21
-6.0
 31
0.0
  0
ARC
  5
215
100
AcDbEntity
  8
0
  6
CONTINUOUS
 62
               4
100
AcDbCircle
 10
15.100000000000023
 20
-6.0
 30
0.0
 40
2.1000000000005539
100
AcDbArc
 50
90.0
 51
270.0
  0
ARC
  5
216
100
AcDbEntity
  8
0
  6
CONTINUOUS
 62
               4
100
AcDbCircle
 10
-15.100000000000023
 20
-6.0
 30
0.0
 40
2.1000000000005539
100
AcDbArc
 50
270.0
 51
90.0
  0
ARC
  5
217
100
AcDbEntity
  8
0
  6
CONTINUOUS
 62
               4
100
AcDbCircle
 10
-15.100000000000023
 20
6.0
 30
0.0
 40
2.1000000000005539
100
AcDbArc
 50
270.0
 51
90.0
  0
ARC
  5
218
100
AcDbEntity
  8
0
  6
CONTINUOUS
 62
               4
100
AcDbCircle
 10
15.100000000000023
 20
6.0
 30
0.0
 40
2.1000000000005539
100
AcDbArc
 50
90.0
 51
270.0
  0
ENDBLK
  5
219
100
AcDbEntity
  8
0
100
AcDbBlockEnd
  0
BLOCK
  5
21A
100
AcDbEntity
  8
0
100
AcDbBlockBegin
  2
CS-PBSAS107-8
 70
               0
 10
0.0
 20
0.0
 30
0.0
  3
CS-PBSAS107-8
  1

  0
LINE
  5
21B
100
AcDbEntity
  8
0
  6
CONTINUOUS
 62
               4
100
AcDbLine
 10
-4.0
 20
-2.5
 30
0.0
 11
-4.0
 21
-4.0
 31
0.0
  0
LINE
  5
21C
100
AcDbEntity
  8
0
  6
CONTINUOUS
 62
               4
100
AcDbLine
 10
-12.0
 20
-2.5
 30
0.0
 11
-4.0
 21
-2.5
 31
0.0
  0
LINE
  5
21D
100
AcDbEntity
  8
0
  6
CONTINUOUS
 62
               4
100
AcDbLine
 10
-12.0
 20
2.5
 30
0.0
 11
-4.0
 21
2.5
 31
0.0
  0
LINE
  5
21E
100
AcDbEntity
  8
0
  6
CONTINUOUS
 62
               4
100
AcDbLine
 10
-4.0
 20
4.0
 30
0.0
 11
-4.0
 21
2.5
 31
0.0
  0
LINE
  5
21F
100
AcDbEntity
  8
0
  6
CENTER
 62
             200
100
AcDbLine
 10
0.0
 20
3.0786992440868559
 30
0.0
 11
0.0
 21
-3.228286042339505
 31
0.0
  0
LINE
  5
220
100
AcDbEntity
  8
0
  6
CONTINUOUS
 62
               4
100
AcDbLine
 10
-4.0
 20
-4.0
 30
0.0
 11
1.0
 21
-4.0
 31
0.0
  0
LINE
  5
221
100
AcDbEntity
  8
0
  6
CONTINUOUS
 62
               4
100
AcDbLine
 10
-4.0
 20
4.0
 30
0.0
 11
1.0
 21
4.0
 31
0.0
  0
CIRCLE
  5
222
100
AcDbEntity
  8
0
  6
CONTINUOUS
 62
               4
100
AcDbCircle
 10
0.0
 20
0.0
 30
0.0
 40
1.1000000000000001
  0
CIRCLE
  5
223
100
AcDbEntity
  8
0
  6
CONTINUOUS
 62
               4
100
AcDbCircle
 10
0.0
 20
0.0
 30
0.0
 40
1.5999994277954102
  0
LINE
  5
224
100
AcDbEntity
  8
0
  6
CONTINUOUS
 62
               4
100
AcDbLine
 10
-17.0
 20
-6.5
 30
0.0
 11
-12.0
 21
-6.5
 31
0.0
  0
LINE
  5
225
100
AcDbEntity
  8
0
  6
CONTINUOUS
 62
               4
100
AcDbLine
 10
-12.0
 20
6.2299999999999969
 30
0.0
 11
-12.0
 21
-6.5
 31
0.0
  0
LINE
  5
226
100
AcDbEntity
  8
0
  6
CONTINUOUS
 62
               4
100
AcDbLine
 10
-17.0
 20
6.2299999999999969
 30
0.0
 11
-17.0
 21
-6.5
 31
0.0
  0
LINE
  5
227
100
AcDbEntity
  8
0
  6
CONTINUOUS
 62
               4
100
AcDbLine
 10
-17.0
 20
4.3299999999999983
 30
0.0
 11
-12.0
 21
4.3299999999999983
 31
0.0
  0
LINE
  5
228
100
AcDbEntity
  8
0
  6
CONTINUOUS
 62
               4
100
AcDbLine
 10
-17.0
 20
6.2299999999999969
 30
0.0
 11
-12.0
 21
6.2299999999999969
 31
0.0
  0
LINE
  5
229
100
AcDbEntity
  8
0
  6
CONTINUOUS
 62
               4
100
AcDbLine
 10
-17.0
 20
5.8699999999999974
 30
0.0
 11
-12.0
 21
5.8699999999999974
 31
0.0
  0
LINE
  5
22A
100
AcDbEntity
  8
0
  6
CENTER
 62
             200
100
AcDbLine
 10
-18.983309395099724
 20
0.0
 30
0.0
 11
6.8575010509302246
 21
0.0
 31
0.0
  0
ARC
  5
22B
100
AcDbEntity
  8
0
  6
CONTINUOUS
 62
               4
100
AcDbCircle
 10
1.0
 20
0.0
 30
0.0
 40
4.0
100
AcDbArc
 50
270.0
 51
90.0
  0
ENDBLK
  5
22C
100
AcDbEntity
  8
0
100
AcDbBlockEnd
  0
BLOCK
  5
22D
100
AcDbEntity
  8
0
100
AcDbBlockBegin
  2
CS-PBSAS107-9
 70
               0
 10
0.0
 20
0.0
 30
0.0
  3
CS-PBSAS107-9
  1

  0
LINE
  5
22E
100
AcDbEntity
  8
0
  6
CENTER
 62
             200
100
AcDbLine
 10
-9.5805948092072128
 20
0.0
 30
0.0
 11
9.2194898706226525
 21
0.0
 31
0.0
  0
LINE
  5
22F
100
AcDbEntity
  8
0
  6
CONTINUOUS
 62
               4
100
AcDbLine
 10
6.0999999999999943
 20
-4.0
 30
0.0
 11
6.5
 21
-4.0
 31
0.0
  0
LINE
  5
230
100
AcDbEntity
  8
0
  6
CENTER
 62
             200
100
AcDbLine
 10
0.0
 20
5.9810893733533135
 30
0.0
 11
0.0
 21
-9.4109379724709257
 31
0.0
  0
LINE
  5
231
100
AcDbEntity
  8
0
  6
CONTINUOUS
 62
               4
100
AcDbLine
 10
-6.3999999999999915
 20
1.5999999999999943
 30
0.0
 11
-6.3999999999999915
 21
-1.6000000000000014
 31
0.0
  0
LINE
  5
232
100
AcDbEntity
  8
0
  6
CONTINUOUS
 62
               4
100
AcDbLine
 10
-6.3999999999999915
 20
1.5999999999999943
 30
0.0
 11
-6.8999999999999915
 21
1.0999999999999943
 31
0.0
  0
LINE
  5
233
100
AcDbEntity
  8
0
  6
CONTINUOUS
 62
               4
100
AcDbLine
 10
-6.8999999999999915
 20
1.0999999999999943
 30
0.0
 11
-6.8999999999999915
 21
-1.1000000000000014
 31
0.0
  0
LINE
  5
234
100
AcDbEntity
  8
0
  6
CONTINUOUS
 62
               4
100
AcDbLine
 10
-6.3999999999999915
 20
-1.6000000000000014
 30
0.0
 11
-6.8999999999999915
 21
-1.1000000000000014
 31
0.0
  0
LINE
  5
235
100
AcDbEntity
  8
0
  6
CONTINUOUS
 62
               4
100
AcDbLine
 10
-6.3999999999999915
 20
-1.6000000000000014
 30
0.0
 11
6.0999999999999943
 21
-1.6000000000000014
 31
0.0
  0
LINE
  5
236
100
AcDbEntity
  8
0
  6
CONTINUOUS
 62
               4
100
AcDbLine
 10
-6.3999999999999915
 20
1.5999999999999943
 30
0.0
 11
6.0999999999999943
 21
1.5999999999999943
 31
0.0
  0
ARC
  5
237
100
AcDbEntity
  8
0
  6
CONTINUOUS
 62
               4
100
AcDbCircle
 10
-0.002735057575876
 20
0.0000100707134578
 30
0.0
 40
7.000874196583025
100
AcDbArc
 50
147.74479784773214
 51
171.12391743792213
  0
ARC
  5
238
100
AcDbEntity
  8
0
  6
CONTINUOUS
 62
               4
100
AcDbCircle
 10
0.0002552540635179
 20
0.0050799906304277
 30
0.0
 40
7.0046941657040938
100
AcDbArc
 50
188.91256310004908
 51
330.55268760426463
  0
ARC
  5
239
100
AcDbEntity
  8
0
  6
CONTINUOUS
 62
               4
100
AcDbCircle
 10
-0.0101982153680211
 20
-0.0359479684658908
 30
0.0
 40
6.996931014651727
100
AcDbArc
 50
338.50291990090858
 51
352.08047229972584
  0
ARC
  5
23A
100
AcDbEntity
  8
0
  6
CONTINUOUS
 62
               4
100
AcDbCircle
 10
-0.0027330348411567
 20
-0.0050395173714293
 30
0.0
 40
7.4990310526901842
100
AcDbArc
 50
330.12832758476617
 51
352.37559761934853
  0
LINE
  5
23B
100
AcDbEntity
  8
0
  6
CONTINUOUS
 62
               4
100
AcDbLine
 10
6.5
 20
-1.0
 30
0.0
 11
7.5999999999999943
 21
-1.0
 31
0.0
  0
LINE
  5
23C
100
AcDbEntity
  8
0
  6
CONTINUOUS
 62
               4
100
AcDbLine
 10
7.5999999999999943
 20
1.0
 30
0.0
 11
7.5999999999999943
 21
-1.0
 31
0.0
  0
LINE
  5
23D
100
AcDbEntity
  8
0
  6
CONTINUOUS
 62
               4
100
AcDbLine
 10
6.5
 20
1.0
 30
0.0
 11
7.5999999999999943
 21
1.0
 31
0.0
  0
ARC
  5
23E
100
AcDbEntity
  8
0
  6
CONTINUOUS
 62
               4
100
AcDbCircle
 10
0.0003175039101251
 20
0.00607491921037
 30
0.0
 40
7.4958701335420024
100
AcDbArc
 50
7.6196518013611891
 51
29.876422994524123
  0
LINE
  5
23F
100
AcDbEntity
  8
0
  6
CONTINUOUS
 62
               4
100
AcDbLine
 10
6.0999999999999943
 20
4.0
 30
0.0
 11
6.5
 21
4.0
 31
0.0
  0
ARC
  5
240
100
AcDbEntity
  8
0
  6
CONTINUOUS
 62
               4
100
AcDbCircle
 10
6.7988562003259574
 20
4.2132708420480753
 30
0.0
 40
0.5059974947027468
100
AcDbArc
 50
135.1703083923415
 51
204.92843823175536
  0
ARC
  5
241
100
AcDbEntity
  8
0
  6
CONTINUOUS
 62
               4
100
AcDbCircle
 10
6.7995939125581231
 20
4.2162657335299656
 30
0.0
 40
0.9993825286363811
100
AcDbArc
 50
135.23754643233201
 51
225.57089724819798
  0
ARC
  5
242
100
AcDbEntity
  8
0
  6
CONTINUOUS
 62
               4
100
AcDbCircle
 10
-0.0076925327049366
 20
0.0366057101649417
 30
0.0
 40
6.9943586114369731
100
AcDbArc
 50
7.9170191499576781
 51
21.499588649407951
  0
LINE
  5
243
100
AcDbEntity
  8
0
  6
CONTINUOUS
 62
               4
100
AcDbLine
 10
6.5
 20
4.0
 30
0.0
 11
6.5
 21
-4.0
 31
0.0
  0
LINE
  5
244
100
AcDbEntity
  8
0
  6
CONTINUOUS
 62
               4
100
AcDbLine
 10
6.0900000000000034
 20
4.9200000000000017
 30
0.0
 11
7.3900000000000148
 21
6.2299999999999969
 31
0.0
  0
LINE
  5
245
100
AcDbEntity
  8
0
  6
CONTINUOUS
 62
               4
100
AcDbLine
 10
7.3900000000000148
 20
6.2299999999999969
 30
0.0
 11
7.7400000000000091
 21
5.8699999999999974
 31
0.0
  0
LINE
  5
246
100
AcDbEntity
  8
0
  6
CONTINUOUS
 62
               4
100
AcDbLine
 10
6.4399999999999977
 20
4.5700000000000003
 30
0.0
 11
7.7400000000000091
 21
5.8699999999999974
 31
0.0
  0
ARC
  5
247
100
AcDbEntity
  8
0
  6
CONTINUOUS
 62
               4
100
AcDbCircle
 10
-0.0007071123983451
 20
0.0058686201626159
 30
0.0
 40
7.5001033384362605
100
AcDbArc
 50
148.27270291879321
 51
327.71653066503984
  0
ARC
  5
248
100
AcDbEntity
  8
0
  6
CONTINUOUS
 62
               4
100
AcDbCircle
 10
-6.7975730239924701
 20
4.2107837775618933
 30
0.0
 40
0.9947842851449724
100
AcDbArc
 50
328.43172102196314
 51
45.474193914384522
  0
ARC
  5
249
100
AcDbEntity
  8
0
  6
CONTINUOUS
 62
               4
100
AcDbCircle
 10
-6.7983034763796582
 20
4.2167238010539023
 30
0.0
 40
0.4961042071984109
100
AcDbArc
 50
327.47710057138283
 51
45.406099627287155
  0
LINE
  5
24A
100
AcDbEntity
  8
0
  6
CONTINUOUS
 62
               4
100
AcDbLine
 10
-7.3999999999999915
 20
6.2299999999999969
 30
0.0
 11
-7.75
 21
5.8699999999999974
 31
0.0
  0
LINE
  5
24B
100
AcDbEntity
  8
0
  6
CONTINUOUS
 62
               4
100
AcDbLine
 10
-7.3999999999999915
 20
6.2299999999999969
 30
0.0
 11
-6.0999999999999943
 21
4.9200000000000017
 31
0.0
  0
LINE
  5
24C
100
AcDbEntity
  8
0
  6
CONTINUOUS
 62
               4
100
AcDbLine
 10
-7.75
 20
5.8699999999999974
 30
0.0
 11
-6.4499999999999886
 21
4.5700000000000003
 31
0.0
  0
LINE
  5
24D
100
AcDbEntity
  8
0
  6
CONTINUOUS
 62
               4
100
AcDbLine
 10
6.0999999999999943
 20
4.0
 30
0.0
 11
6.0999999999999943
 21
-4.0
 31
0.0
  0
ENDBLK
  5
24E
100
AcDbEntity
  8
0
100
AcDbBlockEnd
  0
ENDSEC
  0
SECTION
  2
ENTITIES
  0
INSERT
  5
24F
100
AcDbEntity
  8
0
  6
ByBlock
100
AcDbBlockReference
  2
CS-PBSAS107-9
 10
85.614959245374507
 20
-46.861089921226807
 30
0.0
  0
INSERT
  5
250
100
AcDbEntity
  8
0
  6
ByBlock
100
AcDbBlockReference
  2
CS-PBSAS107-8
 10
48.331538224866705
 20
-46.861089921226807
 30
0.0
  0
INSERT
  5
251
100
AcDbEntity
  8
0
  6
ByBlock
100
AcDbBlockReference
  2
CS-PBSAS107-7
 10
-51.290786131531576
 20
-33.780170082940899
 30
0.0
  0
INSERT
  5
252
100
AcDbEntity
  8
0
  6
ByBlock
100
AcDbBlockReference
  2
CS-PBSAS107-6
 10
-92.290786131531576
 20
-58.275164170160139
 30
0.0
  0
INSERT
  5
253
100
AcDbEntity
  8
0
  6
ByBlock
100
AcDbBlockReference
  2
CS-PBSAS107-5
 10
-51.290786131531576
 20
-58.280164360895
 30
0.0
  0
INSERT
  5
254
100
AcDbEntity
  8
0
  6
ByBlock
100
AcDbBlockReference
  2
CS-PBSAS107-4
 10
-13.471362268730164
 20
64.321963437094155
 30
0.0
  0
INSERT
  5
255
100
AcDbEntity
  8
0
  6
ByBlock
100
AcDbBlockReference
  2
CS-PBSAS107-3
 10
90.276042340769436
 20
23.949704665096945
 30
0.0
  0
INSERT
  5
256
100
AcDbEntity
  8
0
  6
ByBlock
100
AcDbBlockReference
  2
CS-PBSAS107-2
 10
-94.336595466574892
 20
23.949704665096938
 30
0.0
  0
INSERT
  5
257
100
AcDbEntity
  8
0
  6
ByBlock
100
AcDbBlockReference
  2
CS-PBSAS107-1
 10
-40.966212822964934
 20
23.949704665096945
 30
0.0
 50
359.99999987146026
  0
MTEXT
  5
258
100
AcDbEntity
  8
0
  6
CONTINUOUS
 62
               7
100
AcDbMText
 10
-73.479160626729325
 20
-16.800003051757812
 30
0.0
 40
3.2000000476837158
 41
0.0
 71
               4
 72
               1
  1
\A1;-7C
  0
MTEXT
  5
259
100
AcDbEntity
  8
0
  6
CONTINUOUS
 62
               7
100
AcDbMText
 10
66.495839397112533
 20
-16.800003051757812
 30
0.0
 40
3.2000000476837158
 41
0.0
 71
               4
 72
               1
  1
\A1;-7
  0
LINE
  5
25A
100
AcDbEntity
  8
0
  6
CONTINUOUS
 62
               7
100
AcDbLine
 10
-0.024993896484375
 20
-14.800003051757812
 30
0.0
 11
-0.024993896484375
 21
-94.800003051757812
 31
0.0
  0
LINE
  5
25B
100
AcDbEntity
  8
0
  6
CONTINUOUS
 62
               7
100
AcDbLine
 10
-138.39999389648437
 20
-18.800003051757813
 30
0.0
 11
138.35000610351562
 21
-18.800003051757813
 31
0.0
  0
LINE
  5
25C
100
AcDbEntity
  8
0
  6
CONTINUOUS
 62
               7
100
AcDbLine
 10
-138.39999389648437
 20
-14.800003051757812
 30
0.0
 11
138.35000610351562
 21
-14.800003051757812
 31
0.0
  0
MTEXT
  5
25D
100
AcDbEntity
  8
0
  6
CONTINUOUS
 62
               3
100
AcDbMText
 10
-10.692445991278525
 20
48.144009862703477
 30
0.0
 40
3.2000000476837158
 41
0.0
 71
               4
 72
               1
  1
\W1.065;\A1;STRETCH LINE
  0
LINE
  5
25E
100
AcDbEntity
  8
0
  6
CONTINUOUS
 62
               7
100
AcDbLine
 10
-133.39999389648437
 20
-9.8000030517578125
 30
0.0
 11
7.8000061035156136
 21
-9.8000030517578125
 31
0.0
  0
LINE
  5
25F
100
AcDbEntity
  8
0
  6
CONTINUOUS
 62
               7
100
AcDbLine
 10
-133.39999389648437
 20
-9.8000030517578125
 30
0.0
 11
-133.39999389648437
 21
2.1999969482421875
 31
0.0
  0
LINE
  5
260
100
AcDbEntity
  8
0
  6
CONTINUOUS
 62
               7
100
AcDbLine
 10
-133.39999389648437
 20
-3.8000030517578125
 30
0.0
 11
7.8000061035156136
 21
-3.8000030517578125
 31
0.0
  0
LINE
  5
261
100
AcDbEntity
  8
0
  6
CONTINUOUS
 62
               7
100
AcDbLine
 10
-107.39999389648437
 20
-9.8000030517578125
 30
0.0
 11
-107.39999389648437
 21
2.1999969482421875
 31
0.0
  0
LINE
  5
262
100
AcDbEntity
  8
0
  6
CONTINUOUS
 62
               7
100
AcDbLine
 10
-97.799993896484381
 20
-9.8000030517578125
 30
0.0
 11
-97.799993896484381
 21
2.1999969482421875
 31
0.0
  0
LINE
  5
263
100
AcDbEntity
  8
0
  6
CONTINUOUS
 62
               7
100
AcDbLine
 10
-133.39999389648437
 20
2.1999969482421875
 30
0.0
 11
7.8000061035156136
 21
2.1999969482421875
 31
0.0
  0
MTEXT
  5
264
100
AcDbEntity
  8
0
  6
CONTINUOUS
 62
               7
100
AcDbMText
 10
-103.66666057904561
 20
-0.8000030517578125
 30
0.0
 40
3.2000000476837158
 41
0.0
 71
               4
 72
               1
  1
\A1;5
  0
LINE
  5
265
100
AcDbEntity
  8
0
  6
CONTINUOUS
 62
               7
100
AcDbLine
 10
-88.199993896484386
 20
-9.8000030517578125
 30
0.0
 11
-88.199993896484386
 21
2.1999969482421875
 31
0.0
  0
MTEXT
  5
266
100
AcDbEntity
  8
0
  6
CONTINUOUS
 62
               7
100
AcDbMText
 10
-95.48888282246061
 20
-0.8000030517578125
 30
0.0
 40
3.2000000476837158
 41
0.0
 71
               4
 72
               1
  1
\W1.333;\A1;10
  0
LINE
  5
267
100
AcDbEntity
  8
0
  6
CONTINUOUS
 62
               7
100
AcDbLine
 10
-78.599993896484392
 20
-9.8000030517578125
 30
0.0
 11
-78.599993896484392
 21
2.1999969482421875
 31
0.0
  0
MTEXT
  5
268
100
AcDbEntity
  8
0
  6
CONTINUOUS
 62
               7
100
AcDbMText
 10
-85.959993942260752
 20
-0.8000030517578125
 30
0.0
 40
3.2000000476837158
 41
0.0
 71
               4
 72
               1
  1
\W1.200;\A1;15
  0
LINE
  5
269
100
AcDbEntity
  8
0
  6
CONTINUOUS
 62
               7
100
AcDbLine
 10
-68.999993896484398
 20
-9.8000030517578125
 30
0.0
 11
-68.999993896484398
 21
2.1999969482421875
 31
0.0
  0
MTEXT
  5
26A
100
AcDbEntity
  8
0
  6
CONTINUOUS
 62
               7
100
AcDbMText
 10
-76.418175747374875
 20
-0.8000030517578125
 30
0.0
 40
3.2000000476837158
 41
0.0
 71
               4
 72
               1
  1
\W1.091;\A1;20
  0
LINE
  5
26B
100
AcDbEntity
  8
0
  6
CONTINUOUS
 62
               7
100
AcDbLine
 10
-59.399993896484389
 20
-9.8000030517578125
 30
0.0
 11
-59.399993896484389
 21
2.1999969482421875
 31
0.0
  0
MTEXT
  5
26C
100
AcDbEntity
  8
0
  6
CONTINUOUS
 62
               7
100
AcDbMText
 10
-66.866660602887478
 20
-0.8000030517578125
 30
0.0
 40
3.2000000476837158
 41
0.0
 71
               4
 72
               1
  1
\A1;25
  0
LINE
  5
26D
100
AcDbEntity
  8
0
  6
CONTINUOUS
 62
               7
100
AcDbLine
 10
-49.799993896484388
 20
-9.8000030517578125
 30
0.0
 11
-49.799993896484388
 21
2.1999969482421875
 31
0.0
  0
MTEXT
  5
26E
100
AcDbEntity
  8
0
  6
CONTINUOUS
 62
               7
100
AcDbMText
 10
-57.218175747374872
 20
-0.8000030517578125
 30
0.0
 40
3.2000000476837158
 41
0.0
 71
               4
 72
               1
  1
\W1.091;\A1;30
  0
LINE
  5
26F
100
AcDbEntity
  8
0
  6
CONTINUOUS
 62
               7
100
AcDbLine
 10
-40.199993896484386
 20
-9.8000030517578125
 30
0.0
 11
-40.199993896484386
 21
2.1999969482421875
 31
0.0
  0
MTEXT
  5
270
100
AcDbEntity
  8
0
  6
CONTINUOUS
 62
               7
100
AcDbMText
 10
-47.666660602887482
 20
-0.8000030517578125
 30
0.0
 40
3.2000000476837158
 41
0.0
 71
               4
 72
               1
  1
\A1;35
  0
LINE
  5
271
100
AcDbEntity
  8
0
  6
CONTINUOUS
 62
               7
100
AcDbLine
 10
-30.599993896484385
 20
-9.8000030517578125
 30
0.0
 11
-30.599993896484385
 21
2.1999969482421875
 31
0.0
  0
MTEXT
  5
272
100
AcDbEntity
  8
0
  6
CONTINUOUS
 62
               7
100
AcDbMText
 10
-38.018175747374869
 20
-0.8000030517578125
 30
0.0
 40
3.2000000476837158
 41
0.0
 71
               4
 72
               1
  1
\W1.091;\A1;40
  0
LINE
  5
273
100
AcDbEntity
  8
0
  6
CONTINUOUS
 62
               7
100
AcDbLine
 10
-20.999993896484384
 20
-9.8000030517578125
 30
0.0
 11
-20.999993896484384
 21
2.1999969482421875
 31
0.0
  0
MTEXT
  5
274
100
AcDbEntity
  8
0
  6
CONTINUOUS
 62
               7
100
AcDbMText
 10
-28.466660602887476
 20
-0.8000030517578125
 30
0.0
 40
3.2000000476837158
 41
0.0
 71
               4
 72
               1
  1
\A1;45
  0
LINE
  5
275
100
AcDbEntity
  8
0
  6
CONTINUOUS
 62
               7
100
AcDbLine
 10
-11.399993896484386
 20
-9.8000030517578125
 30
0.0
 11
-11.399993896484386
 21
2.1999969482421875
 31
0.0
  0
MTEXT
  5
276
100
AcDbEntity
  8
0
  6
CONTINUOUS
 62
               7
100
AcDbMText
 10
-18.81817574737487
 20
-0.8000030517578125
 30
0.0
 40
3.2000000476837158
 41
0.0
 71
               4
 72
               1
  1
\W1.091;\A1;50
  0
LINE
  5
277
100
AcDbEntity
  8
0
  6
CONTINUOUS
 62
               7
100
AcDbLine
 10
-1.799993896484386
 20
-9.8000030517578125
 30
0.0
 11
-1.799993896484386
 21
2.1999969482421875
 31
0.0
  0
MTEXT
  5
278
100
AcDbEntity
  8
0
  6
CONTINUOUS
 62
               7
100
AcDbMText
 10
-9.2666606028874821
 20
-0.8000030517578125
 30
0.0
 40
3.2000000476837158
 41
0.0
 71
               4
 72
               1
  1
\A1;55
  0
LINE
  5
279
100
AcDbEntity
  8
0
  6
CONTINUOUS
 62
               7
100
AcDbLine
 10
7.8000061035156136
 20
-9.8000030517578125
 30
0.0
 11
7.8000061035156136
 21
2.1999969482421875
 31
0.0
  0
MTEXT
  5
27A
100
AcDbEntity
  8
0
  6
CONTINUOUS
 62
               7
100
AcDbMText
 10
0.3818242526251304
 20
-0.8000030517578125
 30
0.0
 40
3.2000000476837158
 41
0.0
 71
               4
 72
               1
  1
\W1.091;\A1;60
  0
MTEXT
  5
27B
100
AcDbEntity
  8
0
  6
CONTINUOUS
 62
               7
100
AcDbMText
 10
-1.5336875525963669
 20
4.7615767562125342
 30
0.0
 40
3.2000000476837158
 41
0.0
 71
               4
 72
               1
  1
\W1.200;\A1;(mm)
  0
MTEXT
  5
27C
100
AcDbEntity
  8
0
  6
CONTINUOUS
 62
               7
100
AcDbMText
 10
-129.46666069825491
 20
-0.8000030517578125
 30
0.0
 40
3.2000000476837158
 41
0.0
 71
               4
 72
               1
  1
\A1;STROKE
  0
MTEXT
  5
27D
100
AcDbEntity
  8
0
  6
CONTINUOUS
 62
               7
100
AcDbMText
 10
-131.06666072209677
 20
-6.8000030517578125
 30
0.0
 40
3.2000000476837158
 41
0.0
 71
               4
 72
               1
  1
\A1;STRETCH
  0
MTEXT
  5
27E
100
AcDbEntity
  8
0
  6
CONTINUOUS
 62
               7
100
AcDbMText
 10
-106.86666062672933
 20
-6.8000030517578125
 30
0.0
 40
3.2000000476837158
 41
0.0
 71
               4
 72
               1
  1
\A1;-25
  0
MTEXT
  5
27F
100
AcDbEntity
  8
0
  6
CONTINUOUS
 62
               7
100
AcDbMText
 10
-97.235288073282348
 20
-6.8000030517578125
 30
0.0
 40
3.2000000476837158
 41
0.0
 71
               4
 72
               1
  1
\W1.059;\A1;-20
  0
MTEXT
  5
280
100
AcDbEntity
  8
0
  6
CONTINUOUS
 62
               7
100
AcDbMText
 10
-87.599993963539617
 20
-6.8000030517578125
 30
0.0
 40
3.2000000476837158
 41
0.0
 71
               4
 72
               1
  1
\W1.125;\A1;-15
  0
MTEXT
  5
281
100
AcDbEntity
  8
0
  6
CONTINUOUS
 62
               7
100
AcDbMText
 10
-76.466660602887487
 20
-6.8000030517578125
 30
0.0
 40
3.2000000476837158
 41
0.0
 71
               4
 72
               1
  1
\A1;-5
  0
MTEXT
  5
282
100
AcDbEntity
  8
0
  6
CONTINUOUS
 62
               7
100
AcDbMText
 10
-65.159993895530718
 20
-6.8000030517578125
 30
0.0
 40
3.2000000476837158
 41
0.0
 71
               4
 72
               1
  1
\W1.200;\A1;0
  0
MTEXT
  5
283
100
AcDbEntity
  8
0
  6
CONTINUOUS
 62
               7
100
AcDbMText
 10
-55.666660579045633
 20
-6.8000030517578125
 30
0.0
 40
3.2000000476837158
 41
0.0
 71
               4
 72
               1
  1
\A1;5
  0
MTEXT
  5
284
100
AcDbEntity
  8
0
  6
CONTINUOUS
 62
               7
100
AcDbMText
 10
-47.618175747374863
 20
-6.8000030517578125
 30
0.0
 40
3.2000000476837158
 41
0.0
 71
               4
 72
               1
  1
\W1.091;\A1;20
  0
MTEXT
  5
285
100
AcDbEntity
  8
0
  6
CONTINUOUS
 62
               7
100
AcDbMText
 10
-38.066660602887488
 20
-6.8000030517578125
 30
0.0
 40
3.2000000476837158
 41
0.0
 71
               4
 72
               1
  1
\A1;25
  0
MTEXT
  5
286
100
AcDbEntity
  8
0
  6
CONTINUOUS
 62
               7
100
AcDbMText
 10
-28.418175747374864
 20
-6.8000030517578125
 30
0.0
 40
3.2000000476837158
 41
0.0
 71
               4
 72
               1
  1
\W1.091;\A1;30
  0
MTEXT
  5
287
100
AcDbEntity
  8
0
  6
CONTINUOUS
 62
               7
100
AcDbMText
 10
-18.866660602887482
 20
-6.8000030517578125
 30
0.0
 40
3.2000000476837158
 41
0.0
 71
               4
 72
               1
  1
\A1;35
  0
MTEXT
  5
288
100
AcDbEntity
  8
0
  6
CONTINUOUS
 62
               7
100
AcDbMText
 10
-9.2181757473748682
 20
-6.8000030517578125
 30
0.0
 40
3.2000000476837158
 41
0.0
 71
               4
 72
               1
  1
\W1.091;\A1;40
  0
MTEXT
  5
289
100
AcDbEntity
  8
0
  6
CONTINUOUS
 62
               7
100
AcDbMText
 10
0.3333393971125165
 20
-6.8000030517578125
 30
0.0
 40
3.2000000476837158
 41
0.0
 71
               4
 72
               1
  1
\A1;45
  0
MTEXT
  5
28A
100
AcDbEntity
  8
0
  6
CONTINUOUS
 62
               7
100
AcDbMText
 10
-81.062969922840452
 20
5.7350981593257018
 30
0.0
 40
3.2000000476837158
 41
0.0
 71
               4
 72
               1
  1
\W1.065;\A1;STRETCH LIST
  0
LINE
  5
28B
100
AcDbEntity
  8
0
  6
CONTINUOUS
 62
               7
100
AcDbLine
 10
-138.39999389648437
 20
94.5
 30
0.0
 11
138.35000610351562
 21
94.5
 31
0.0
  0
LINE
  5
28C
100
AcDbEntity
  8
0
  6
CONTINUOUS
 62
               7
100
AcDbLine
 10
138.35000610351562
 20
94.5
 30
0.0
 11
138.35000610351562
 21
-94.800003051757812
 31
0.0
  0
LINE
  5
28D
100
AcDbEntity
  8
0
  6
CONTINUOUS
 62
               7
100
AcDbLine
 10
-138.39999389648437
 20
-94.800003051757812
 30
0.0
 11
138.35000610351562
 21
-94.800003051757812
 31
0.0
  0
LINE
  5
28E
100
AcDbEntity
  8
0
  6
CONTINUOUS
 62
               7
100
AcDbLine
 10
-138.39999389648437
 20
94.5
 30
0.0
 11
-138.39999389648437
 21
-94.800003051757812
 31
0.0
  0
LINE
  5
28F
100
AcDbEntity
  8
0
  6
CONTINUOUS
 62
               7
100
AcDbLine
 10
73.350006103515625
 20
-84.800003051757813
 30
0.0
 11
138.35000610351562
 21
-84.800003051757813
 31
0.0
  0
LINE
  5
290
100
AcDbEntity
  8
0
  6
CONTINUOUS
 62
               7
100
AcDbLine
 10
-138.39999389648437
 20
84.5
 30
0.0
 11
-73.399993896484375
 21
84.5
 31
0.0
  0
LINE
  5
291
100
AcDbEntity
  8
0
  6
CONTINUOUS
 62
               7
100
AcDbLine
 10
73.350006103515625
 20
84.5
 30
0.0
 11
138.35000610351562
 21
84.5
 31
0.0
  0
LINE
  5
292
100
AcDbEntity
  8
0
  6
CONTINUOUS
 62
               7
100
AcDbLine
 10
73.350006103515625
 20
-84.800003051757813
 30
0.0
 11
73.350006103515625
 21
-94.800003051757812
 31
0.0
  0
LINE
  5
293
100
AcDbEntity
  8
0
  6
CONTINUOUS
 62
               7
100
AcDbLine
 10
73.350006103515625
 20
94.5
 30
0.0
 11
73.350006103515625
 21
84.5
 31
0.0
  0
LINE
  5
294
100
AcDbEntity
  8
0
  6
CONTINUOUS
 62
               7
100
AcDbLine
 10
-73.399993896484375
 20
94.5
 30
0.0
 11
-73.399993896484375
 21
84.5
 31
0.0
  0
MTEXT
  5
295
100
AcDbEntity
  8
0
  6
CONTINUOUS
 62
               7
100
AcDbMText
 10
77.440523342735503
 20
-89.800003051757812
 30
0.0
 40
4.5
 41
0.0
 71
               4
 72
               1
  1
\W1.121;\A1;KOGANEI CORP.
  0
MTEXT
  5
296
100
AcDbEntity
  8
0
  6
CONTINUOUS
 62
               7
100
AcDbMText
 10
93.73085788106853
 20
89.5
 30
0.0
 40
3.1999998092651367
 41
0.0
 71
               4
 72
               1
  1
\W1.277;\A1;Ver. 1.2
  0
MTEXT
  5
297
100
AcDbEntity
  8
0
  6
CONTINUOUS
 62
               7
100
AcDbMText
 10
-129.33924483662557
 20
91.099999904632568
 30
0.0
 40
3.1999998092651367
 41
0.0
 71
               1
 72
               1
  1
\W1.051;\A1;CS-PEN CYLINDER
  0
MTEXT
  5
298
100
AcDbEntity
  8
0
  6
CONTINUOUS
 62
               7
100
AcDbMText
 10
-129.42445434463869
 20
74.5
 30
0.0
 40
3.2000000476837158
 41
0.0
 71
               4
 72
               1
  1
\W1.079;\A1;MODEL:CS-PBSAS10*ST(25)-7
  0
ENDSEC
  0
SECTION
  2
OBJECTS
  0
DICTIONARY
  5
19
100
AcDbDictionary
  3
ACAD_GROUP
350
1A
  3
ACAD_MLINESTYLE
350
1B
  0
DICTIONARY
  5
1A
102
{ACAD_REACTORS
330
19
102
}
100
AcDbDictionary
  0
DICTIONARY
  5
1B
102
{ACAD_REACTORS
330
19
102
}
100
AcDbDictionary
  3
STANDARD
350
1C
  0
MLINESTYLE
  5
1C
102
{ACAD_REACTORS
330
1B
102
}
100
AcDbMlineStyle
  2
Standard
 70
               0
  3

 62
               0
 51
90.0
 52
90.0
 71
               2
 49
0.5
 62
             256
  6
ByLayer
 49
-0.5
 62
             256
  6
ByLayer
  0
ENDSEC
  0
EOF
