  0
SECTION
  2
HEADER
  9
$ACADVER
  1
AC1012
  9
$DWGCODEPAGE
  3
dos932
  9
$INSBASE
 10
0.0
 20
0.0
 30
0.0
  9
$EXTMIN
 10
-138.39999389648437
 20
-94.800003051757812
 30
0.0
  9
$EXTMAX
 10
138.35000610351562
 20
94.5
 30
0.0
  9
$LIMMIN
 10
-138.39999389648437
 20
-94.800003051757812
  9
$LIMMAX
 10
138.35000610351562
 20
94.5
  9
$ORTHOMODE
 70
               0
  9
$REGENMODE
 70
               1
  9
$FILLMODE
 70
               1
  9
$QTEXTMODE
 70
               0
  9
$MIRRTEXT
 70
               1
  9
$DRAGMODE
 70
               2
  9
$LTSCALE
 40
1.0
  9
$OSMODE
 70
               0
  9
$ATTMODE
 70
               1
  9
$TEXTSIZE
 40
3.2000000476837158
  9
$TRACEWID
 40
0.05
  9
$TEXTSTYLE
  7
MX_NOTE_STANDARD
  9
$CLAYER
  8
0
  9
$CELTYPE
  6
CONTINUOUS
  9
$CECOLOR
 62
             256
  9
$CELTSCALE
 40
1.0
  9
$DELOBJ
 70
               1
  9
$DISPSILH
 70
               0
  9
$DIMSCALE
 40
1.0
  9
$DIMASZ
 40
2.5
  9
$DIMEXO
 40
1.5
  9
$DIMDLI
 40
3.75
  9
$DIMRND
 40
0.0
  9
$DIMDLE
 40
0.0
  9
$DIMEXE
 40
1.5
  9
$DIMTP
 40
0.0
  9
$DIMTM
 40
0.0
  9
$DIMTXT
 40
3.2000000476837158
  9
$DIMCEN
 40
2.5
  9
$DIMTSZ
 40
0.0
  9
$DIMTOL
 70
               0
  9
$DIMLIM
 70
               0
  9
$DIMTIH
 70
               0
  9
$DIMTOH
 70
               0
  9
$DIMSE1
 70
               0
  9
$DIMSE2
 70
               0
  9
$DIMTAD
 70
               1
  9
$DIMZIN
 70
               8
  9
$DIMBLK
  1

  9
$DIMASO
 70
               1
  9
$DIMSHO
 70
               1
  9
$DIMPOST
  1

  9
$DIMAPOST
  1

  9
$DIMALT
 70
               0
  9
$DIMALTD
 70
               4
  9
$DIMALTF
 40
0.03937007874016
  9
$DIMLFAC
 40
1.0
  9
$DIMTOFL
 70
               1
  9
$DIMTVP
 40
0.0
  9
$DIMTIX
 70
               0
  9
$DIMSOXD
 70
               0
  9
$DIMSAH
 70
               0
  9
$DIMBLK1
  1

  9
$DIMBLK2
  1

  9
$DIMSTYLE
  2
MXDIMSTYLE
  9
$DIMCLRD
 70
               0
  9
$DIMCLRE
 70
               0
  9
$DIMCLRT
 70
               0
  9
$DIMTFAC
 40
1.0
  9
$DIMGAP
 40
1.0
  9
$DIMJUST
 70
               0
  9
$DIMSD1
 70
               0
  9
$DIMSD2
 70
               0
  9
$DIMTOLJ
 70
               1
  9
$DIMTZIN
 70
               0
  9
$DIMALTZ
 70
               0
  9
$DIMALTTZ
 70
               0
  9
$DIMFIT
 70
               3
  9
$DIMUPT
 70
               1
  9
$DIMUNIT
 70
               2
  9
$DIMDEC
 70
               4
  9
$DIMTDEC
 70
               4
  9
$DIMALTU
 70
               2
  9
$DIMALTTD
 70
               4
  9
$DIMTXSTY
  7
MX_NOTE_STANDARD
  9
$DIMAUNIT
 70
               0
  9
$LUNITS
 70
               2
  9
$LUPREC
 70
               4
  9
$SKETCHINC
 40
0.1
  9
$FILLETRAD
 40
0.0
  9
$AUNITS
 70
               0
  9
$AUPREC
 70
               0
  9
$MENU
  1
acad
  9
$ELEVATION
 40
0.0
  9
$PELEVATION
 40
0.0
  9
$THICKNESS
 40
0.0
  9
$LIMCHECK
 70
               0
  9
$BLIPMODE
 70
               1
  9
$CHAMFERA
 40
0.0
  9
$CHAMFERB
 40
0.0
  9
$CHAMFERC
 40
0.0
  9
$CHAMFERD
 40
0.0
  9
$SKPOLY
 70
               0
  9
$TDCREATE
 40
2453388.406203704
  9
$TDUPDATE
 40
2453388.406203704
  9
$TDINDWG
 40
0.0000000000
  9
$TDUSRTIMER
 40
0.0000000000
  9
$USRTIMER
 70
               1
  9
$ANGBASE
 50
0.0
  9
$ANGDIR
 70
               0
  9
$PDMODE
 70
               0
  9
$PDSIZE
 40
0.0
  9
$PLINEWID
 40
0.0
  9
$COORDS
 70
               1
  9
$SPLFRAME
 70
               0
  9
$SPLINETYPE
 70
               6
  9
$SPLINESEGS
 70
               8
  9
$ATTDIA
 70
               0
  9
$ATTREQ
 70
               1
  9
$HANDLING
 70
               1
  9
$HANDSEED
  5
2FA
  9
$SURFTAB1
 70
               6
  9
$SURFTAB2
 70
               6
  9
$SURFTYPE
 70
               6
  9
$SURFU
 70
               6
  9
$SURFV
 70
               6
  9
$UCSNAME
  2

  9
$UCSORG
 10
0.0
 20
0.0
 30
0.0
  9
$UCSXDIR
 10
1.0
 20
0.0
 30
0.0
  9
$UCSYDIR
 10
0.0
 20
1.0
 30
0.0
  9
$PUCSNAME
  2

  9
$PUCSORG
 10
0.0
 20
0.0
 30
0.0
  9
$PUCSXDIR
 10
1.0
 20
0.0
 30
0.0
  9
$PUCSYDIR
 10
0.0
 20
1.0
 30
0.0
  9
$USERI1
 70
               0
  9
$USERI2
 70
               0
  9
$USERI3
 70
               0
  9
$USERI4
 70
               0
  9
$USERI5
 70
               0
  9
$USERR1
 40
0.0
  9
$USERR2
 40
0.0
  9
$USERR3
 40
0.0
  9
$USERR4
 40
0.0
  9
$USERR5
 40
0.0
  9
$WORLDVIEW
 70
               1
  9
$SHADEDGE
 70
               3
  9
$SHADEDIF
 70
              70
  9
$TILEMODE
 70
               1
  9
$MAXACTVP
 70
              16
  9
$PINSBASE
 10
0.0
 20
0.0
 30
0.0
  9
$PLIMCHECK
 70
               0
  9
$PEXTMIN
 10
1.0000000000000000E+20
 20
1.0000000000000000E+20
 30
1.0000000000000000E+20
  9
$PEXTMAX
 10
-1.0000000000000000E+20
 20
-1.0000000000000000E+20
 30
-1.0000000000000000E+20
  9
$PLIMMIN
 10
0.0
 20
0.0
  9
$PLIMMAX
 10
12.0
 20
9.0
  9
$UNITMODE
 70
               0
  9
$VISRETAIN
 70
               0
  9
$PLINEGEN
 70
               1
  9
$PSLTSCALE
 70
               0
  9
$TREEDEPTH
 70
            3020
  9
$PICKSTYLE
 70
               1
  9
$CMLSTYLE
  2
Standard
  9
$CMLJUST
 70
               0
  9
$CMLSCALE
 40
1.0
  9
$SAVEIMAGES
 70
               0
  0
ENDSEC
  0
SECTION
  2
CLASSES
  0
CLASS
  1
LWPOLYLINE
  2
AcDbPolyline
  3
"AutoCAD"
 90
        0
280
               0
281
               1
  0
CLASS
  1
IMAGE
  2
AcDbRasterImage
  3
ISM
 90
      127
280
               0
281
               1
  0
CLASS
  1
OLE2FRAME
  2
AcDbOle2Frame
  3
""
 90
        0
280
               0
281
               1
  0
CLASS
  1
HATCH
  2
AcDbHatch
  3
"ACAD_SEDONA"
 90
        0
280
               0
281
               1
  0
CLASS
  1
DICTIONARYVAR
  2
AcDbDictionaryVar
  3
"AutoCAD"
 90
        0
280
               0
281
               0
  0
CLASS
  1
RASTERVARIABLES
  2
AcDbRasterVariables
  3
ISM
 90
        0
280
               0
281
               0
  0
CLASS
  1
IMAGEDEF
  2
AcDbRasterImageDef
  3
ISM
 90
        0
280
               0
281
               0
  0
CLASS
  1
IMAGEDEF_REACTOR
  2
AcDbRasterImageDefReactor
  3
ISM
 90
        1
280
               0
281
               0
  0
CLASS
  1
IDBUFFER
  2
AcDbIdBuffer
  3
"Acad"
 90
        0
280
               0
281
               0
  0
CLASS
  1
SPATIAL_FILTER
  2
AcDbSpatialFilter
  3
"Acad"
 90
        0
280
               0
281
               0
  0
CLASS
  1
XRECORD
  2
AcDbXrecord
  3
"<Built In>"
 90
        0
280
               0
281
               0
  0
CLASS
  1
SORTENTSTABLE
  2
AcDbSortentsTable
  3
"AutoCAD"
 90
        0
280
               0
281
               0
  0
CLASS
  1
LAYER_INDEX
  2
AcDbLayerIndex
  3
"Acad"
 90
        0
280
               0
281
               0
  0
CLASS
  1
SPATIAL_INDEX
  2
AcDbSpatialIndex
  3
"Acad"
 90
        0
280
               0
281
               0
  0
CLASS
  1
OBJECT_PTR
  2
CAseDLPNTableRecord
  3
"ASE-LPNTableRecord"
 90
        1
280
               0
281
               0
  0
CLASS
  1
LAYOUT
  2
AcDbLayout
  3
"AutoCAD 2000"
 90
        1
280
               0
281
               0
  0
CLASS
  1
PLOTSETTINGS
  2
AcDbPlotSettings
  3
"AutoCAD 2000"
 90
        1
280
               0
281
               0
  0
CLASS
  1
ACDBDICTIONARYWDFLT
  2
AcDbDictionaryWithDefault
  3
"AutoCAD 2000"
 90
        1
280
               0
281
               0
  0
CLASS
  1
ACDBPLACEHOLDER
  2
AcDbPlaceHolder
  3
"AutoCAD 2000"
 90
        1
280
               0
281
               0
  0
ENDSEC
  0
SECTION
  2
TABLES
  0
TABLE
  2
VPORT
  5
7
100
AcDbSymbolTable
 70
               1
  0
VPORT
  5
15
100
AcDbSymbolTableRecord
100
AcDbViewportTableRecord
  2
*ACTIVE
 70
               0
 10
0.0
 20
0.0
 11
1.0
 21
1.0
 12
-0.024993896484375
 22
-0.1500015258789063
 13
0.0
 23
0.0
 14
1.0
 24
1.0
 15
0.0
 25
0.0
 16
0.0
 26
0.0
 36
1.0
 17
0.0
 27
0.0
 37
0.0
 40
191.1930030822754
 41
1.7320508075688772
 42
50.0
 43
0.0
 44
0.0
 50
0.0
 51
0.0
 71
               0
 72
             100
 73
               1
 74
               1
 75
               0
 76
               0
 77
               0
 78
               0
  0
ENDTAB
  0
TABLE
  2
LTYPE
  5
4
100
AcDbSymbolTable
 70
               6
  0
LTYPE
  5
11
100
AcDbSymbolTableRecord
100
AcDbLinetypeTableRecord
  2
BYBLOCK
 70
              64
  3

 72
              65
 73
               0
 40
0.0
  0
LTYPE
  5
12
100
AcDbSymbolTableRecord
100
AcDbLinetypeTableRecord
  2
BYLAYER
 70
              64
  3

 72
              65
 73
               0
 40
0.0
  0
LTYPE
  5
13
100
AcDbSymbolTableRecord
100
AcDbLinetypeTableRecord
  2
CONTINUOUS
 70
              64
  3
Solid line
 72
              65
 73
               0
 40
0.0
  0
LTYPE
  5
2F
100
AcDbSymbolTableRecord
100
AcDbLinetypeTableRecord
  2
DASHED
 70
              64
  3
Dashed __ __ __ __ __ __ __ __ __ __ __ __ __ _
 72
              65
 73
               2
 40
4.0
 49
2.0
 74
               0
 49
-2.0
 74
               0
  0
LTYPE
  5
4D
100
AcDbSymbolTableRecord
100
AcDbLinetypeTableRecord
  2
CENTER
 70
              64
  3
Center ____ _ ____ _ ____ _ ____ _ ____ _ ____
 72
              65
 73
               4
 40
26.0
 49
20.0
 74
               0
 49
-2.0
 74
               0
 49
2.0
 74
               0
 49
-2.0
 74
               0
  0
LTYPE
  5
E8
100
AcDbSymbolTableRecord
100
AcDbLinetypeTableRecord
  2
PHANTOM
 70
              64
  3
Phantom ______  __  __  ______  __  __  ______
 72
              65
 73
               6
 40
30.0
 49
20.0
 74
               0
 49
-2.0
 74
               0
 49
2.0
 74
               0
 49
-2.0
 74
               0
 49
2.0
 74
               0
 49
-2.0
 74
               0
  0
ENDTAB
  0
TABLE
  2
LAYER
  5
2
100
AcDbSymbolTable
 70
               2
  0
LAYER
  5
14
100
AcDbSymbolTableRecord
100
AcDbLayerTableRecord
  2
0
 70
               0
 62
               7
  6
CONTINUOUS
  0
LAYER
  5
1D
100
AcDbSymbolTableRecord
100
AcDbLayerTableRecord
  2
DEFPOINTS
 70
               0
 62
               7
  6
CONTINUOUS
  0
ENDTAB
  0
TABLE
  2
STYLE
  5
3
100
AcDbSymbolTable
 70
               1
  0
STYLE
  5
17
100
AcDbSymbolTableRecord
100
AcDbTextStyleTableRecord
  2
MX_NOTE_STANDARD
 70
               0
 40
0.0
 41
1.0
 50
0.0
 71
               0
 42
3.2000000476837158
  3
txt.shx
  4
extfont.shx
  0
ENDTAB
  0
TABLE
  2
VIEW
  5
5
100
AcDbSymbolTable
 70
               0
  0
ENDTAB
  0
TABLE
  2
UCS
  5
6
100
AcDbSymbolTable
 70
               0
  0
ENDTAB
  0
TABLE
  2
APPID
  5
8
100
AcDbSymbolTable
 70
               1
  0
APPID
  5
16
100
AcDbSymbolTableRecord
100
AcDbRegAppTableRecord
  2
ACAD
 70
               0
  0
ENDTAB
  0
TABLE
  2
DIMSTYLE
  5
9
100
AcDbSymbolTable
 70
               1
  0
DIMSTYLE
105
18
100
AcDbSymbolTableRecord
100
AcDbDimStyleTableRecord
  2
MXDIMSTYLE
 70
               0
  3

  4

  5

  6

  7

 40
1.0
 41
2.5
 42
1.5
 43
3.75
 44
1.5
 45
0.0
 46
0.0
 47
0.0
 48
0.0
 71
               0
 72
               0
 73
               0
 74
               0
 75
               0
 76
               0
 77
               1
 78
               8
140
3.2000000476837158
141
2.5
142
0.0
143
0.03937007874016
144
1.0
145
0.0
146
1.0
147
1.0
170
               0
171
               4
172
               1
173
               0
174
               0
175
               0
176
               0
177
               0
178
               0
270
               2
271
               4
272
               4
273
               2
274
               4
275
               0
280
               0
281
               0
282
               0
283
               1
284
               0
285
               0
286
               0
287
               3
288
               1
340
17
  0
ENDTAB
  0
TABLE
  2
BLOCK_RECORD
  5
1
100
AcDbSymbolTable
 70
              14
  0
BLOCK_RECORD
  5
A
100
AcDbSymbolTableRecord
100
AcDbBlockTableRecord
  2
*MODEL_SPACE
  0
BLOCK_RECORD
  5
B
100
AcDbSymbolTableRecord
100
AcDbBlockTableRecord
  2
*PAPER_SPACE
  0
BLOCK_RECORD
  5
1E
100
AcDbSymbolTableRecord
100
AcDbBlockTableRecord
  2
CS-PBSAS16-1
  0
BLOCK_RECORD
  5
1F
100
AcDbSymbolTableRecord
100
AcDbBlockTableRecord
  2
CS-PBSAS16-2
  0
BLOCK_RECORD
  5
20
100
AcDbSymbolTableRecord
100
AcDbBlockTableRecord
  2
CS-PBSAS16-3
  0
BLOCK_RECORD
  5
21
100
AcDbSymbolTableRecord
100
AcDbBlockTableRecord
  2
CS-PBSAS16-4
  0
BLOCK_RECORD
  5
22
100
AcDbSymbolTableRecord
100
AcDbBlockTableRecord
  2
CS-PBSAS16-5
  0
BLOCK_RECORD
  5
23
100
AcDbSymbolTableRecord
100
AcDbBlockTableRecord
  2
CS-PBSAS16-6
  0
BLOCK_RECORD
  5
24
100
AcDbSymbolTableRecord
100
AcDbBlockTableRecord
  2
CS-PBSAS16-7
  0
BLOCK_RECORD
  5
25
100
AcDbSymbolTableRecord
100
AcDbBlockTableRecord
  2
CS-PBSAS16-8
  0
BLOCK_RECORD
  5
26
100
AcDbSymbolTableRecord
100
AcDbBlockTableRecord
  2
CS-PBSAS16-9
  0
BLOCK_RECORD
  5
27
100
AcDbSymbolTableRecord
100
AcDbBlockTableRecord
  2
CS-PBSAS16-10
  0
BLOCK_RECORD
  5
28
100
AcDbSymbolTableRecord
100
AcDbBlockTableRecord
  2
CS-PBSAS16-11
  0
BLOCK_RECORD
  5
29
100
AcDbSymbolTableRecord
100
AcDbBlockTableRecord
  2
CS-PBSAS16-12
  0
BLOCK_RECORD
  5
2A
100
AcDbSymbolTableRecord
100
AcDbBlockTableRecord
  2
CS-PBSAS16-13
  0
BLOCK_RECORD
  5
2B
100
AcDbSymbolTableRecord
100
AcDbBlockTableRecord
  2
CS-PBSAS16-14
  0
ENDTAB
  0
ENDSEC
  0
SECTION
  2
BLOCKS
  0
BLOCK
  5
D
100
AcDbEntity
  8
0
100
AcDbBlockBegin
  2
*MODEL_SPACE
 70
               0
 10
0.0
 20
0.0
 30
0.0
  3
*MODEL_SPACE
  1

  0
ENDBLK
  5
E
100
AcDbEntity
  8
0
100
AcDbBlockEnd
  0
BLOCK
  5
F
100
AcDbEntity
 67
               1
  8
0
100
AcDbBlockBegin
  2
*PAPER_SPACE
 70
               0
 10
0.0
 20
0.0
 30
0.0
  3
*PAPER_SPACE
  1

  0
ENDBLK
  5
10
100
AcDbEntity
 67
               1
  8
0
100
AcDbBlockEnd
  0
BLOCK
  5
2C
100
AcDbEntity
  8
0
100
AcDbBlockBegin
  2
CS-PBSAS16-1
 70
               0
 10
0.0
 20
0.0
 30
0.0
  3
CS-PBSAS16-1
  1

  0
LINE
  5
2D
100
AcDbEntity
  8
0
  6
CONTINUOUS
 62
               2
100
AcDbLine
 10
-27.932999361094897
 20
-2.0669968593042185
 30
0.0
 11
-24.03305235621557
 21
-2.0669966928090915
 31
0.0
  0
LINE
  5
2E
100
AcDbEntity
  8
0
  6
CONTINUOUS
 62
               2
100
AcDbLine
 10
-20.033052356215574
 20
-2.0669965220425368
 30
0.0
 11
-13.000001819106206
 21
-2.0669962217900988
 31
0.0
  0
LINE
  5
30
100
AcDbEntity
  8
0
  6
DASHED
 62
               2
100
AcDbLine
 10
9.066998092650179
 20
8.5000038664535111
 30
0.0
 11
9.0669983061083652
 21
3.5000038664535182
 31
0.0
  0
LINE
  5
31
100
AcDbEntity
  8
0
  6
DASHED
 62
               2
100
AcDbLine
 10
4.9329980926501822
 20
8.5000036899662845
 30
0.0
 11
4.9329983061083684
 21
3.5000036899662845
 31
0.0
  0
LINE
  5
32
100
AcDbEntity
  8
0
  6
DASHED
 62
             200
100
AcDbLine
 10
83.500000106727896
 20
-2.4999962217900986
 30
0.0
 11
78.500000106727896
 21
-2.4999964352482777
 31
0.0
  0
LINE
  5
33
100
AcDbEntity
  8
0
  6
DASHED
 62
             200
100
AcDbLine
 10
83.500000088242416
 20
-2.0669962217900917
 30
0.0
 11
78.500000088242416
 21
-2.066996435248285
 31
0.0
  0
LINE
  5
34
100
AcDbEntity
  8
0
  6
DASHED
 62
             200
100
AcDbLine
 10
83.499999911755168
 20
2.0670037782099016
 30
0.0
 11
78.499999911755197
 21
2.0670035647517153
 31
0.0
  0
LINE
  5
35
100
AcDbEntity
  8
0
  6
DASHED
 62
             200
100
AcDbLine
 10
83.499999893269688
 20
2.5000037782099014
 30
0.0
 11
78.499999893269717
 21
2.5000035647517151
 31
0.0
  0
LINE
  5
36
100
AcDbEntity
  8
0
  6
CONTINUOUS
 62
               2
100
AcDbLine
 10
-20.033052532702804
 20
2.0670034779574564
 30
0.0
 11
-13.000001995593435
 21
2.0670037782099016
 31
0.0
  0
LINE
  5
37
100
AcDbEntity
  8
0
  6
CONTINUOUS
 62
               2
100
AcDbLine
 10
-27.932978295964112
 20
2.0670031406966913
 30
0.0
 11
-24.033052532702801
 21
2.0670033071909089
 31
0.0
  0
ARC
  5
38
100
AcDbEntity
  8
0
  6
CONTINUOUS
 62
               7
100
AcDbCircle
 10
5.4821376800525243
 20
0.0000037782099014
 30
0.0
 40
6.0178585052490234
100
AcDbArc
 50
315.16978017505448
 51
0.0
  0
ARC
  5
39
100
AcDbEntity
  8
0
  6
CONTINUOUS
 62
               7
100
AcDbCircle
 10
6.0178585052478368
 20
0.0000037782099014
 30
0.0
 40
6.0178585052490234
100
AcDbArc
 50
179.99996402782131
 51
224.83018385276679
  0
ARC
  5
3A
100
AcDbEntity
  8
0
  6
CONTINUOUS
 62
               4
100
AcDbCircle
 10
-21.524538040162319
 20
-3.3857803709600205
 30
0.0
 40
1.4914833307266235
100
AcDbArc
 50
0.0
 51
48.335773435319517
  0
ARC
  5
3B
100
AcDbEntity
  8
0
  6
CONTINUOUS
 62
               4
100
AcDbCircle
 10
-25.443048477174038
 20
0.0000037782099014
 30
0.0
 40
5.409996509552002
100
AcDbArc
 50
335.17289074440731
 51
0.0
  0
ARC
  5
3C
100
AcDbEntity
  8
0
  6
CONTINUOUS
 62
               4
100
AcDbCircle
 10
-21.524538040162319
 20
3.3857841126825576
 30
0.0
 40
1.4914833307266235
100
AcDbArc
 50
311.66422656468046
 51
0.0
  0
ARC
  5
3D
100
AcDbEntity
  8
0
  6
CONTINUOUS
 62
               4
100
AcDbCircle
 10
-25.443048477174038
 20
0.0000037782099014
 30
0.0
 40
5.409996509552002
100
AcDbArc
 50
0.0
 51
24.82710925559271
  0
ARC
  5
3E
100
AcDbEntity
  8
0
  6
CONTINUOUS
 62
               4
100
AcDbCircle
 10
-22.541566848756069
 20
3.3857841126825576
 30
0.0
 40
1.4914833307266235
100
AcDbArc
 50
131.6641905925018
 51
179.99996402782131
  0
ARC
  5
3F
100
AcDbEntity
  8
0
  6
CONTINUOUS
 62
               4
100
AcDbCircle
 10
-22.541566848756069
 20
3.3857841126825576
 30
0.0
 40
1.4914833307266235
100
AcDbArc
 50
179.99997768819966
 51
228.33575112351917
  0
ARC
  5
40
100
AcDbEntity
  8
0
  6
CONTINUOUS
 62
               4
100
AcDbCircle
 10
-22.541566848756069
 20
-3.3857803709600205
 30
0.0
 40
1.4914833307266235
100
AcDbArc
 50
179.99997768819966
 51
228.33575112351917
  0
ARC
  5
41
100
AcDbEntity
  8
0
  6
CONTINUOUS
 62
               4
100
AcDbCircle
 10
-22.541566848756069
 20
-3.3857803709600205
 30
0.0
 40
1.4914833307266235
100
AcDbArc
 50
131.6641905925018
 51
179.99996402782131
  0
ARC
  5
42
100
AcDbEntity
  8
0
  6
CONTINUOUS
 62
               4
100
AcDbCircle
 10
-18.623056411744351
 20
0.0000037782099014
 30
0.0
 40
5.409996509552002
100
AcDbArc
 50
179.99997768819966
 51
204.82708694379235
  0
ARC
  5
43
100
AcDbEntity
  8
0
  6
CONTINUOUS
 62
               4
100
AcDbCircle
 10
-18.623056411744351
 20
0.0000037782099014
 30
0.0
 40
5.409996509552002
100
AcDbArc
 50
155.17285477222862
 51
179.99996402782131
  0
ARC
  5
44
100
AcDbEntity
  8
0
  6
CONTINUOUS
 62
               4
100
AcDbCircle
 10
-21.524538040162319
 20
-3.3857803709600205
 30
0.0
 40
1.4914833307266235
100
AcDbArc
 50
311.66422656468046
 51
0.0
  0
ARC
  5
45
100
AcDbEntity
  8
0
  6
CONTINUOUS
 62
               4
100
AcDbCircle
 10
-21.524538040162319
 20
3.3857841126825576
 30
0.0
 40
1.4914833307266235
100
AcDbArc
 50
0.0
 51
48.335773435319517
  0
LINE
  5
46
100
AcDbEntity
  8
0
  6
DASHED
 62
               2
100
AcDbLine
 10
4.4999980926501806
 20
8.5000037782099014
 30
0.0
 11
4.4999980926501806
 21
2.8000039689447647
 31
0.0
  0
LINE
  5
47
100
AcDbEntity
  8
0
  6
CONTINUOUS
 62
               7
100
AcDbLine
 10
9.7499980926501806
 20
-4.242637670764708
 30
0.0
 11
9.7499980926501806
 21
-8.4999981291387314
 31
0.0
  0
LINE
  5
48
100
AcDbEntity
  8
0
  6
CONTINUOUS
 62
               7
100
AcDbLine
 10
1.7499980926501806
 20
-4.242637670764708
 30
0.0
 11
1.7499980926501806
 21
-8.4999981291387314
 31
0.0
  0
LINE
  5
49
100
AcDbEntity
  8
0
  6
CONTINUOUS
 62
               4
100
AcDbLine
 10
83.000000478682239
 20
-8.4999966349262479
 30
0.0
 11
83.500000040098428
 21
-7.9999951347529361
 31
0.0
  0
LINE
  5
4A
100
AcDbEntity
  8
0
  6
CONTINUOUS
 62
               4
100
AcDbLine
 10
82.999999779029082
 20
8.5000041196666487
 30
0.0
 11
83.499999635474268
 21
8.000004263221463
 31
0.0
  0
LINE
  5
4B
100
AcDbEntity
  8
0
  6
CONTINUOUS
 62
               4
100
AcDbLine
 10
82.999999523161648
 20
8.5000037782099014
 30
0.0
 11
82.999999523161648
 21
-8.4999981291387314
 31
0.0
  0
LINE
  5
4C
100
AcDbEntity
  8
0
  6
CONTINUOUS
 62
               4
100
AcDbLine
 10
83.499999999998806
 20
8.0000037782099014
 30
0.0
 11
83.499999999998806
 21
-7.9999962217900986
 31
0.0
  0
LINE
  5
4E
100
AcDbEntity
  8
0
  6
CENTER
 62
               2
100
AcDbLine
 10
6.9999980926501806
 20
10.260478609075761
 30
0.0
 11
6.9999980926501806
 21
1.1057291609976616
 31
0.0
  0
LINE
  5
4F
100
AcDbEntity
  8
0
  6
DASHED
 62
               2
100
AcDbLine
 10
9.4999980926501806
 20
8.5000037782099014
 30
0.0
 11
9.4999980926501806
 21
2.8000039689447647
 31
0.0
  0
LINE
  5
50
100
AcDbEntity
  8
0
  6
CONTINUOUS
 62
               7
100
AcDbLine
 10
-1.5000019073498194
 20
6.0000037782099014
 30
0.0
 11
-1.5000019073498194
 21
-5.9999981291387314
 31
0.0
  0
LINE
  5
51
100
AcDbEntity
  8
0
  6
CONTINUOUS
 62
               7
100
AcDbLine
 10
-8.0000019073498194
 20
4.9999903731536222
 30
0.0
 11
-8.0000019073498194
 21
-4.9999895460698838
 31
0.0
  0
LINE
  5
52
100
AcDbEntity
  8
0
  6
CONTINUOUS
 62
               4
100
AcDbLine
 10
-23.533052444459194
 20
-2.2715607054326767
 30
0.0
 11
-20.533052444459194
 21
-2.2715607054326767
 31
0.0
  0
LINE
  5
53
100
AcDbEntity
  8
0
  6
CONTINUOUS
 62
               4
100
AcDbLine
 10
-23.533052444459194
 20
2.2715644471552139
 30
0.0
 11
-20.533052444459194
 21
2.2715644471552139
 31
0.0
  0
LINE
  5
54
100
AcDbEntity
  8
0
  6
CONTINUOUS
 62
               7
100
AcDbLine
 10
-1.9684696197521632
 20
-5.9999981291387314
 30
0.0
 11
-0.0000019073498194
 21
-5.9999981291387314
 31
0.0
  0
LINE
  5
55
100
AcDbEntity
  8
0
  6
CONTINUOUS
 62
               2
100
AcDbLine
 10
-1.9684696197521632
 20
-5.4584962217900985
 30
0.0
 11
-1.5000019073498194
 21
-5.4584962217900985
 31
0.0
  0
LINE
  5
56
100
AcDbEntity
  8
0
  6
CONTINUOUS
 62
               7
100
AcDbLine
 10
-20.033052444459194
 20
-2.4999981291387314
 30
0.0
 11
-8.0000019073498194
 21
-2.4999981291387314
 31
0.0
  0
LINE
  5
57
100
AcDbEntity
  8
0
  6
CONTINUOUS
 62
               4
100
AcDbLine
 10
-23.533052444459194
 20
4.5000037782099014
 30
0.0
 11
-20.533052444459194
 21
4.5000037782099014
 31
0.0
  0
LINE
  5
58
100
AcDbEntity
  8
0
  6
CONTINUOUS
 62
               4
100
AcDbLine
 10
-23.533052444459194
 20
-4.4999981291387314
 30
0.0
 11
-20.533060073853726
 21
-4.4999981291387314
 31
0.0
  0
LINE
  5
59
100
AcDbEntity
  8
0
  6
CONTINUOUS
 62
               4
100
AcDbLine
 10
-20.033052444459194
 20
3.3857841126825576
 30
0.0
 11
-20.033052444459194
 21
-3.3857803709600205
 31
0.0
  0
LINE
  5
5A
100
AcDbEntity
  8
0
  6
CONTINUOUS
 62
               4
100
AcDbLine
 10
-24.033052444459194
 20
3.3857841126825576
 30
0.0
 11
-24.033052444459194
 21
-3.3857803709600205
 31
0.0
  0
LINE
  5
5B
100
AcDbEntity
  8
0
  6
CONTINUOUS
 62
               7
100
AcDbLine
 10
-27.500001907349819
 20
2.4999999635126358
 30
0.0
 11
-27.500001907349819
 21
-2.5000000364873642
 31
0.0
  0
LINE
  5
5C
100
AcDbEntity
  8
0
  6
CONTINUOUS
 62
               7
100
AcDbLine
 10
-27.999994797545291
 20
-2.0000008735833319
 30
0.0
 11
-27.499994266750541
 21
-2.5000014043780823
 31
0.0
  0
LINE
  5
5D
100
AcDbEntity
  8
0
  6
CONTINUOUS
 62
               7
100
AcDbLine
 10
-27.999992100147033
 20
1.9999898857833784
 30
0.0
 11
-27.499996964148799
 21
2.4999850217816117
 31
0.0
  0
LINE
  5
5E
100
AcDbEntity
  8
0
  6
CONTINUOUS
 62
               7
100
AcDbLine
 10
-13.000001907349819
 20
2.5000037782099014
 30
0.0
 11
-13.000001907349819
 21
-2.4999981291387314
 31
0.0
  0
LINE
  5
5F
100
AcDbEntity
  8
0
  6
CONTINUOUS
 62
               7
100
AcDbLine
 10
-28.000001907349819
 20
2.0000037782099014
 30
0.0
 11
-28.000001907349819
 21
-1.9999962217900986
 31
0.0
  0
LINE
  5
60
100
AcDbEntity
  8
0
  6
CONTINUOUS
 62
               7
100
AcDbLine
 10
-27.500001907349819
 20
-2.4999981291387314
 30
0.0
 11
-24.033052444459194
 21
-2.4999981291387314
 31
0.0
  0
LINE
  5
61
100
AcDbEntity
  8
0
  6
CONTINUOUS
 62
               7
100
AcDbLine
 10
-27.500001907349819
 20
2.5000037782099014
 30
0.0
 11
-24.033052444459194
 21
2.5000037782099014
 31
0.0
  0
LINE
  5
62
100
AcDbEntity
  8
0
  6
CONTINUOUS
 62
               7
100
AcDbLine
 10
1.7499980926501806
 20
-4.242637670764708
 30
0.0
 11
9.7499980926501806
 21
-4.242637670764708
 31
0.0
  0
LINE
  5
63
100
AcDbEntity
  8
0
  6
CONTINUOUS
 62
               7
100
AcDbLine
 10
-6.9999790191662257
 20
6.0000037782099014
 30
0.0
 11
-6.9999790191662257
 21
-5.9999962217900986
 31
0.0
  0
LINE
  5
64
100
AcDbEntity
  8
0
  6
CONTINUOUS
 62
               7
100
AcDbLine
 10
-0.0000019073498194
 20
-8.4999981291387314
 30
0.0
 11
22.999998092650181
 21
-8.4999981291387314
 31
0.0
  0
LINE
  5
65
100
AcDbEntity
  8
0
  6
CONTINUOUS
 62
               4
100
AcDbLine
 10
77.499999999998806
 20
8.5000037782099014
 30
0.0
 11
77.499999999998806
 21
-8.4999981291387314
 31
0.0
  0
LINE
  5
66
100
AcDbEntity
  8
0
  6
CONTINUOUS
 62
               7
100
AcDbLine
 10
-0.0000019073498194
 20
8.5000037782099014
 30
0.0
 11
-0.0000019073498194
 21
-8.4999981291387314
 31
0.0
  0
LINE
  5
67
100
AcDbEntity
  8
0
  6
CONTINUOUS
 62
               2
100
AcDbLine
 10
-7.5414709502920312
 20
5.4585037782099013
 30
0.0
 11
-5.9684696197521632
 21
5.4585037782099013
 31
0.0
  0
LINE
  5
68
100
AcDbEntity
  8
0
  6
CONTINUOUS
 62
               2
100
AcDbLine
 10
-7.5414921919100459
 20
-5.4584962217900985
 30
0.0
 11
-5.9684696197521632
 21
-5.4584962217900985
 31
0.0
  0
LINE
  5
69
100
AcDbEntity
  8
0
  6
CONTINUOUS
 62
               7
100
AcDbLine
 10
-7.9999951449413444
 20
-4.9999932687588
 30
0.0
 11
-6.9999940833518437
 21
-5.9999943303483008
 31
0.0
  0
LINE
  5
6A
100
AcDbEntity
  8
0
  6
CONTINUOUS
 62
               7
100
AcDbLine
 10
-7.9999843553483103
 20
4.9999903731536222
 30
0.0
 11
-6.9999832937588096
 21
5.9999914347431229
 31
0.0
  0
LINE
  5
6B
100
AcDbEntity
  8
0
  6
CONTINUOUS
 62
               7
100
AcDbLine
 10
11.499998092650181
 20
8.5000037782099014
 30
0.0
 11
11.499998092650181
 21
-8.4999981291387314
 31
0.0
  0
LINE
  5
6C
100
AcDbEntity
  8
0
  6
CONTINUOUS
 62
               7
100
AcDbLine
 10
-7.0000019073498194
 20
6.0000037782099014
 30
0.0
 11
-5.9684696197521632
 21
6.0000037782099014
 31
0.0
  0
LINE
  5
6D
100
AcDbEntity
  8
0
  6
CONTINUOUS
 62
               7
100
AcDbLine
 10
-7.0000019073498194
 20
-5.9999981291387314
 30
0.0
 11
-5.9684696197521632
 21
-5.9999981291387314
 31
0.0
  0
LINE
  5
6E
100
AcDbEntity
  8
0
  6
CONTINUOUS
 62
               7
100
AcDbLine
 10
-0.0000019073498194
 20
8.5000037782099014
 30
0.0
 11
20.499998092650181
 21
8.5000037782099014
 31
0.0
  0
LINE
  5
6F
100
AcDbEntity
  8
0
  6
CONTINUOUS
 62
               2
100
AcDbLine
 10
-1.9684696197521632
 20
5.4585037782099013
 30
0.0
 11
-1.5000019073498194
 21
5.4585037782099013
 31
0.0
  0
LINE
  5
70
100
AcDbEntity
  8
0
  6
CONTINUOUS
 62
               7
100
AcDbLine
 10
-20.033052444459194
 20
2.5000056855585342
 30
0.0
 11
-8.0000019073498194
 21
2.5000056855585342
 31
0.0
  0
LINE
  5
71
100
AcDbEntity
  8
0
  6
CONTINUOUS
 62
               7
100
AcDbLine
 10
-1.9684696197521632
 20
6.0000037782099014
 30
0.0
 11
-0.0000019073498194
 21
6.0000037782099014
 31
0.0
  0
ARC
  5
72
100
AcDbEntity
  8
0
  6
CONTINUOUS
 62
               7
100
AcDbCircle
 10
5.4821376800525243
 20
0.0000037782099014
 30
0.0
 40
6.0178585052490234
100
AcDbArc
 50
0.0
 51
44.830219824945495
  0
ARC
  5
73
100
AcDbEntity
  8
0
  6
CONTINUOUS
 62
               7
100
AcDbCircle
 10
6.0178585052478368
 20
0.0000037782099014
 30
0.0
 40
6.0178585052490234
100
AcDbArc
 50
135.16981614723321
 51
180.00003597217869
  0
LINE
  5
74
100
AcDbEntity
  8
0
  6
CONTINUOUS
 62
               7
100
AcDbLine
 10
9.7499980926501806
 20
4.2426452271845108
 30
0.0
 11
9.7499980926501806
 21
8.5000056855585342
 31
0.0
  0
LINE
  5
75
100
AcDbEntity
  8
0
  6
CONTINUOUS
 62
               7
100
AcDbLine
 10
1.7499980926501806
 20
4.2426452271845108
 30
0.0
 11
1.7499980926501806
 21
8.5000056855585342
 31
0.0
  0
LINE
  5
76
100
AcDbEntity
  8
0
  6
CONTINUOUS
 62
               7
100
AcDbLine
 10
1.7499980926501806
 20
4.2426452271845108
 30
0.0
 11
9.7499959865852794
 21
4.2426452271845108
 31
0.0
  0
LINE
  5
77
100
AcDbEntity
  8
0
  6
CENTER
 62
               2
100
AcDbLine
 10
-31.252467804516662
 20
0.0000037782099014
 30
0.0
 11
86.132359058022701
 21
0.0000037782099014
 31
0.0
  0
LINE
  5
78
100
AcDbEntity
  8
0
  6
CENTER
 62
             200
100
AcDbLine
 10
27.499998092650181
 20
22.200970857373399
 30
0.0
 11
27.499998092650181
 21
-9.7346553154433124
 31
0.0
  0
LINE
  5
79
100
AcDbEntity
  8
0
  6
CONTINUOUS
 62
               4
100
AcDbLine
 10
20.499998092650181
 20
11.100003778209924
 30
0.0
 11
20.499998092650181
 21
8.0318859666804414
 31
0.0
  0
LINE
  5
7A
100
AcDbEntity
  8
0
  6
CONTINUOUS
 62
               4
100
AcDbLine
 10
34.499998092650181
 20
11.100003778209924
 30
0.0
 11
34.499998092650181
 21
8.0318859666804414
 31
0.0
  0
LINE
  5
7B
100
AcDbEntity
  8
0
  6
CONTINUOUS
 62
               4
100
AcDbLine
 10
31.999998092650181
 20
11.20000377820989
 30
0.0
 11
31.999998092650181
 21
-8.6499808686176607
 31
0.0
  0
LINE
  5
7C
100
AcDbEntity
  8
0
  6
CONTINUOUS
 62
               4
100
AcDbLine
 10
22.999998092650181
 20
11.20000377820989
 30
0.0
 11
22.999998092650181
 21
-8.6499808686176607
 31
0.0
  0
LINE
  5
7D
100
AcDbEntity
  8
0
  6
CONTINUOUS
 62
               4
100
AcDbLine
 10
24.999998092650181
 20
19.500003778209894
 30
0.0
 11
24.999998092650181
 21
19.000003778209894
 31
0.0
  0
LINE
  5
7E
100
AcDbEntity
  8
0
  6
CONTINUOUS
 62
               4
100
AcDbLine
 10
29.999998092650181
 20
19.500003778209894
 30
0.0
 11
29.999998092650181
 21
19.000003778209894
 31
0.0
  0
LINE
  5
7F
100
AcDbEntity
  8
0
  6
CONTINUOUS
 62
               4
100
AcDbLine
 10
22.999998092650181
 20
18.000003778209894
 30
0.0
 11
31.999998092650181
 21
18.000003778209894
 31
0.0
  0
LINE
  5
80
100
AcDbEntity
  8
0
  6
CONTINUOUS
 62
               4
100
AcDbLine
 10
24.999998092650181
 20
19.000003778209894
 30
0.0
 11
29.999998092650181
 21
19.000003778209894
 31
0.0
  0
LINE
  5
81
100
AcDbEntity
  8
0
  6
CONTINUOUS
 62
               4
100
AcDbLine
 10
25.999998092650181
 20
20.500003778209894
 30
0.0
 11
28.999998092650181
 21
20.500003778209894
 31
0.0
  0
LINE
  5
82
100
AcDbEntity
  8
0
  6
CONTINUOUS
 62
               4
100
AcDbLine
 10
28.999998092650181
 20
19.000003778209894
 30
0.0
 11
28.999998092650181
 21
18.000003778209894
 31
0.0
  0
LINE
  5
83
100
AcDbEntity
  8
0
  6
CONTINUOUS
 62
               4
100
AcDbLine
 10
25.999998092650181
 20
19.000003778209894
 30
0.0
 11
25.999998092650181
 21
18.000003778209894
 31
0.0
  0
LINE
  5
84
100
AcDbEntity
  8
0
  6
CONTINUOUS
 62
             200
100
AcDbLine
 10
28.729998092650185
 20
19.000003778209894
 30
0.0
 11
28.729998092650185
 21
18.000003778209894
 31
0.0
  0
LINE
  5
85
100
AcDbEntity
  8
0
  6
CONTINUOUS
 62
             200
100
AcDbLine
 10
26.269998092650177
 20
19.000003778209894
 30
0.0
 11
26.269998092650177
 21
18.000003778209894
 31
0.0
  0
ARC
  5
86
100
AcDbEntity
  8
0
  6
CONTINUOUS
 62
               4
100
AcDbCircle
 10
26.000789579433736
 20
19.499212291426339
 30
0.0
 40
1.0007917997614517
100
AcDbArc
 50
90.04531297816014
 51
179.95468702183987
  0
ARC
  5
87
100
AcDbEntity
  8
0
  6
CONTINUOUS
 62
               4
100
AcDbCircle
 10
28.99833243628445
 20
19.498338121844164
 30
0.0
 40
1.0016670412635778
100
AcDbArc
 50
0.0952762943444108
 51
89.904723705655996
  0
LINE
  5
88
100
AcDbEntity
  8
0
  6
CONTINUOUS
 62
               4
100
AcDbLine
 10
42.999998083113432
 20
12.600003778209896
 30
0.0
 11
47.936997169815129
 21
12.600003778209896
 31
0.0
  0
LINE
  5
89
100
AcDbEntity
  8
0
  6
CONTINUOUS
 62
               4
100
AcDbLine
 10
42.999998092650173
 20
12.600003778209896
 30
0.0
 11
42.999998092650173
 21
10.000003778209901
 31
0.0
  0
LINE
  5
8A
100
AcDbEntity
  8
0
  6
CONTINUOUS
 62
               4
100
AcDbLine
 10
42.999998083113432
 20
10.000003778209901
 30
0.0
 11
45.336997169815128
 21
10.000003778209901
 31
0.0
  0
LINE
  5
8B
100
AcDbEntity
  8
0
  6
CONTINUOUS
 62
             200
100
AcDbLine
 10
47.936997169815129
 20
12.600003778209896
 30
0.0
 11
45.336997169815128
 21
10.000003778209901
 31
0.0
  0
LINE
  5
8C
100
AcDbEntity
  8
0
  6
CONTINUOUS
 62
               4
100
AcDbLine
 10
39.999998092650173
 20
13.300003778209913
 30
0.0
 11
39.999998092650173
 21
9.3000037782099128
 31
0.0
  0
LINE
  5
8D
100
AcDbEntity
  8
0
  6
CONTINUOUS
 62
               4
100
AcDbLine
 10
39.999998092650173
 20
9.3000037782099128
 30
0.0
 11
42.999998083113432
 21
10.000003778209901
 31
0.0
  0
LINE
  5
8E
100
AcDbEntity
  8
0
  6
CONTINUOUS
 62
               4
100
AcDbLine
 10
39.999998092650173
 20
13.300003778209913
 30
0.0
 11
42.999998092650173
 21
12.600003778209896
 31
0.0
  0
LINE
  5
8F
100
AcDbEntity
  8
0
  6
CONTINUOUS
 62
               4
100
AcDbLine
 10
15.999998092650181
 20
13.300003778209913
 30
0.0
 11
15.999998092650181
 21
9.3000037782099128
 31
0.0
  0
LINE
  5
90
100
AcDbEntity
  8
0
  6
CONTINUOUS
 62
               4
100
AcDbLine
 10
14.999998092650181
 20
10.300003778209913
 30
0.0
 11
15.999998092650181
 21
9.3000037782099128
 31
0.0
  0
LINE
  5
91
100
AcDbEntity
  8
0
  6
CONTINUOUS
 62
               4
100
AcDbLine
 10
15.999998092650181
 20
13.300003778209913
 30
0.0
 11
20.499998092650181
 21
13.300003778209913
 31
0.0
  0
LINE
  5
92
100
AcDbEntity
  8
0
  6
CONTINUOUS
 62
               4
100
AcDbLine
 10
15.999998092650181
 20
9.3000037782099128
 30
0.0
 11
20.499998092650181
 21
9.3000037782099128
 31
0.0
  0
LINE
  5
93
100
AcDbEntity
  8
0
  6
CONTINUOUS
 62
               4
100
AcDbLine
 10
14.999998092650181
 20
12.300003778209913
 30
0.0
 11
14.999998092650181
 21
10.300003778209913
 31
0.0
  0
LINE
  5
94
100
AcDbEntity
  8
0
  6
CONTINUOUS
 62
               4
100
AcDbLine
 10
14.999998092650181
 20
12.300003778209913
 30
0.0
 11
15.999998092650181
 21
13.300003778209913
 31
0.0
  0
LINE
  5
95
100
AcDbEntity
  8
0
  6
CONTINUOUS
 62
               4
100
AcDbLine
 10
20.499998092650181
 20
14.300003778209906
 30
0.0
 11
20.499998092650181
 21
11.500003778209901
 31
0.0
  0
LINE
  5
96
100
AcDbEntity
  8
0
  6
CONTINUOUS
 62
               4
100
AcDbLine
 10
34.499998092650181
 20
14.300003778209906
 30
0.0
 11
34.499998092650181
 21
11.500003778209901
 31
0.0
  0
LINE
  5
97
100
AcDbEntity
  8
0
  6
CONTINUOUS
 62
               4
100
AcDbLine
 10
20.499998083113432
 20
14.300003778209906
 30
0.0
 11
22.999998092650181
 21
14.300003778209906
 31
0.0
  0
LINE
  5
98
100
AcDbEntity
  8
0
  6
CONTINUOUS
 62
               4
100
AcDbLine
 10
20.499998083113432
 20
11.500003778209901
 30
0.0
 11
22.999998092650181
 21
11.500003778209901
 31
0.0
  0
LINE
  5
99
100
AcDbEntity
  8
0
  6
CONTINUOUS
 62
               4
100
AcDbLine
 10
20.499998083113432
 20
11.100003778209924
 30
0.0
 11
22.999998092650181
 21
11.100003778209924
 31
0.0
  0
LINE
  5
9A
100
AcDbEntity
  8
0
  6
CONTINUOUS
 62
               4
100
AcDbLine
 10
31.999998092650181
 20
14.300003778209906
 30
0.0
 11
34.499998092650181
 21
14.300003778209906
 31
0.0
  0
LINE
  5
9B
100
AcDbEntity
  8
0
  6
CONTINUOUS
 62
               4
100
AcDbLine
 10
31.999998092650181
 20
11.500003778209901
 30
0.0
 11
34.499998092650181
 21
11.500003778209901
 31
0.0
  0
LINE
  5
9C
100
AcDbEntity
  8
0
  6
CONTINUOUS
 62
               4
100
AcDbLine
 10
31.999998092650181
 20
11.100003778209924
 30
0.0
 11
34.499998092650181
 21
11.100003778209924
 31
0.0
  0
LINE
  5
9D
100
AcDbEntity
  8
0
  6
CONTINUOUS
 62
               4
100
AcDbLine
 10
22.999998092650181
 20
11.500003778209901
 30
0.0
 11
31.999998092650181
 21
11.500003778209901
 31
0.0
  0
LINE
  5
9E
100
AcDbEntity
  8
0
  6
CONTINUOUS
 62
               4
100
AcDbLine
 10
34.499998092650181
 20
9.3000037782099128
 30
0.0
 11
39.999998092650173
 21
9.3000037782099128
 31
0.0
  0
LINE
  5
9F
100
AcDbEntity
  8
0
  6
CONTINUOUS
 62
               4
100
AcDbLine
 10
34.499998092650181
 20
13.300003778209913
 30
0.0
 11
39.999998092650173
 21
13.300003778209913
 31
0.0
  0
LINE
  5
A0
100
AcDbEntity
  8
0
  6
CONTINUOUS
 62
               4
100
AcDbLine
 10
31.999998092650181
 20
11.20000377820989
 30
0.0
 11
31.999998092650181
 21
18.000003778209894
 31
0.0
  0
LINE
  5
A1
100
AcDbEntity
  8
0
  6
CONTINUOUS
 62
               4
100
AcDbLine
 10
22.999998092650181
 20
11.20000377820989
 30
0.0
 11
22.999998092650181
 21
18.000003778209894
 31
0.0
  0
LINE
  5
A2
100
AcDbEntity
  8
0
  6
CONTINUOUS
 62
               4
100
AcDbLine
 10
20.499998114339327
 20
8.0318859666804414
 30
0.0
 11
22.999998114339327
 21
8.0318859666804414
 31
0.0
  0
LINE
  5
A3
100
AcDbEntity
  8
0
  6
CONTINUOUS
 62
               4
100
AcDbLine
 10
34.499998070961034
 20
8.0318859666804414
 30
0.0
 11
31.999998070961034
 21
8.0318859666804414
 31
0.0
  0
LINE
  5
A4
100
AcDbEntity
  8
0
  6
CONTINUOUS
 62
               4
100
AcDbLine
 10
22.999998083113432
 20
-8.6499808686176607
 30
0.0
 11
31.999998092650181
 21
-8.6499808686176607
 31
0.0
  0
LINE
  5
A5
100
AcDbEntity
  8
0
  6
CONTINUOUS
 62
               7
100
AcDbLine
 10
34.499998092650181
 20
8.5000037782099014
 30
0.0
 11
59.999999999998813
 21
8.5000037782099014
 31
0.0
  0
LINE
  5
A6
100
AcDbEntity
  8
0
  6
CONTINUOUS
 62
               7
100
AcDbLine
 10
31.999998092650181
 20
-8.4999981291387314
 30
0.0
 11
62.49999998043392
 21
-8.4999981291387314
 31
0.0
  0
LINE
  5
A7
100
AcDbEntity
  8
0
  6
CONTINUOUS
 62
               7
100
AcDbLine
 10
71.499999980433927
 20
-8.4999981291387314
 30
0.0
 11
77.499999999998806
 21
-8.4999981291387314
 31
0.0
  0
LINE
  5
A8
100
AcDbEntity
  8
0
  6
CENTER
 62
             200
100
AcDbLine
 10
66.999999999998806
 20
22.200970857373399
 30
0.0
 11
66.999999999998806
 21
-9.7346553154433124
 31
0.0
  0
LINE
  5
A9
100
AcDbEntity
  8
0
  6
CONTINUOUS
 62
               4
100
AcDbLine
 10
59.999999999998813
 20
11.100003778209924
 30
0.0
 11
59.999999999998813
 21
8.0318859666804414
 31
0.0
  0
LINE
  5
AA
100
AcDbEntity
  8
0
  6
CONTINUOUS
 62
               4
100
AcDbLine
 10
73.999999999998806
 20
11.100003778209924
 30
0.0
 11
73.999999999998806
 21
8.0318859666804414
 31
0.0
  0
LINE
  5
AB
100
AcDbEntity
  8
0
  6
CONTINUOUS
 62
               4
100
AcDbLine
 10
71.499999999998806
 20
11.20000377820989
 30
0.0
 11
71.499999999998806
 21
-8.6499808686176607
 31
0.0
  0
LINE
  5
AC
100
AcDbEntity
  8
0
  6
CONTINUOUS
 62
               4
100
AcDbLine
 10
62.499999999998813
 20
11.20000377820989
 30
0.0
 11
62.499999999998813
 21
-8.6499808686176607
 31
0.0
  0
LINE
  5
AD
100
AcDbEntity
  8
0
  6
CONTINUOUS
 62
               4
100
AcDbLine
 10
62.499999999998813
 20
11.20000377820989
 30
0.0
 11
62.499999999998813
 21
18.000003778209894
 31
0.0
  0
LINE
  5
AE
100
AcDbEntity
  8
0
  6
CONTINUOUS
 62
               4
100
AcDbLine
 10
71.499999999998806
 20
11.20000377820989
 30
0.0
 11
71.499999999998806
 21
18.000003778209894
 31
0.0
  0
LINE
  5
AF
100
AcDbEntity
  8
0
  6
CONTINUOUS
 62
               4
100
AcDbLine
 10
73.999999999998806
 20
13.300003778209913
 30
0.0
 11
79.499999999998806
 21
13.300003778209913
 31
0.0
  0
LINE
  5
B0
100
AcDbEntity
  8
0
  6
CONTINUOUS
 62
               4
100
AcDbLine
 10
73.999999999998806
 20
9.3000037782099128
 30
0.0
 11
79.499999999998806
 21
9.3000037782099128
 31
0.0
  0
LINE
  5
B1
100
AcDbEntity
  8
0
  6
CONTINUOUS
 62
               4
100
AcDbLine
 10
62.499999999998813
 20
11.500003778209901
 30
0.0
 11
71.499999999998806
 21
11.500003778209901
 31
0.0
  0
LINE
  5
B2
100
AcDbEntity
  8
0
  6
CONTINUOUS
 62
               4
100
AcDbLine
 10
71.499999999998806
 20
11.100003778209924
 30
0.0
 11
73.999999999998806
 21
11.100003778209924
 31
0.0
  0
LINE
  5
B3
100
AcDbEntity
  8
0
  6
CONTINUOUS
 62
               4
100
AcDbLine
 10
71.499999999998806
 20
11.500003778209901
 30
0.0
 11
73.999999999998806
 21
11.500003778209901
 31
0.0
  0
LINE
  5
B4
100
AcDbEntity
  8
0
  6
CONTINUOUS
 62
               4
100
AcDbLine
 10
71.499999999998806
 20
14.300003778209906
 30
0.0
 11
73.999999999998806
 21
14.300003778209906
 31
0.0
  0
LINE
  5
B5
100
AcDbEntity
  8
0
  6
CONTINUOUS
 62
               4
100
AcDbLine
 10
59.999999990462065
 20
11.100003778209924
 30
0.0
 11
62.499999999998813
 21
11.100003778209924
 31
0.0
  0
LINE
  5
B6
100
AcDbEntity
  8
0
  6
CONTINUOUS
 62
               4
100
AcDbLine
 10
59.999999990462065
 20
11.500003778209901
 30
0.0
 11
62.499999999998813
 21
11.500003778209901
 31
0.0
  0
LINE
  5
B7
100
AcDbEntity
  8
0
  6
CONTINUOUS
 62
               4
100
AcDbLine
 10
59.999999990462065
 20
14.300003778209906
 30
0.0
 11
62.499999999998813
 21
14.300003778209906
 31
0.0
  0
LINE
  5
B8
100
AcDbEntity
  8
0
  6
CONTINUOUS
 62
               4
100
AcDbLine
 10
73.999999999998806
 20
14.300003778209906
 30
0.0
 11
73.999999999998806
 21
11.500003778209901
 31
0.0
  0
LINE
  5
B9
100
AcDbEntity
  8
0
  6
CONTINUOUS
 62
               4
100
AcDbLine
 10
59.999999999998813
 20
14.300003778209906
 30
0.0
 11
59.999999999998813
 21
11.500003778209901
 31
0.0
  0
LINE
  5
BA
100
AcDbEntity
  8
0
  6
CONTINUOUS
 62
               4
100
AcDbLine
 10
54.499999999998813
 20
12.300003778209913
 30
0.0
 11
55.499999999998813
 21
13.300003778209913
 31
0.0
  0
LINE
  5
BB
100
AcDbEntity
  8
0
  6
CONTINUOUS
 62
               4
100
AcDbLine
 10
54.499999999998813
 20
12.300003778209913
 30
0.0
 11
54.499999999998813
 21
10.300003778209913
 31
0.0
  0
LINE
  5
BC
100
AcDbEntity
  8
0
  6
CONTINUOUS
 62
               4
100
AcDbLine
 10
55.499999999998813
 20
9.3000037782099128
 30
0.0
 11
59.999999999998813
 21
9.3000037782099128
 31
0.0
  0
LINE
  5
BD
100
AcDbEntity
  8
0
  6
CONTINUOUS
 62
               4
100
AcDbLine
 10
55.499999999998813
 20
13.300003778209913
 30
0.0
 11
59.999999999998813
 21
13.300003778209913
 31
0.0
  0
LINE
  5
BE
100
AcDbEntity
  8
0
  6
CONTINUOUS
 62
               4
100
AcDbLine
 10
54.499999999998813
 20
10.300003778209913
 30
0.0
 11
55.499999999998813
 21
9.3000037782099128
 31
0.0
  0
LINE
  5
BF
100
AcDbEntity
  8
0
  6
CONTINUOUS
 62
               4
100
AcDbLine
 10
55.499999999998813
 20
13.300003778209913
 30
0.0
 11
55.499999999998813
 21
9.3000037782099128
 31
0.0
  0
LINE
  5
C0
100
AcDbEntity
  8
0
  6
CONTINUOUS
 62
               4
100
AcDbLine
 10
79.499999999998806
 20
13.300003778209913
 30
0.0
 11
82.499999999998806
 21
12.600003778209896
 31
0.0
  0
LINE
  5
C1
100
AcDbEntity
  8
0
  6
CONTINUOUS
 62
               4
100
AcDbLine
 10
79.499999999998806
 20
9.3000037782099128
 30
0.0
 11
82.499999990462072
 21
10.000003778209901
 31
0.0
  0
LINE
  5
C2
100
AcDbEntity
  8
0
  6
CONTINUOUS
 62
               4
100
AcDbLine
 10
79.499999999998806
 20
13.300003778209913
 30
0.0
 11
79.499999999998806
 21
9.3000037782099128
 31
0.0
  0
LINE
  5
C3
100
AcDbEntity
  8
0
  6
CONTINUOUS
 62
             200
100
AcDbLine
 10
87.436999077163762
 20
12.600003778209896
 30
0.0
 11
84.836999077163767
 21
10.000003778209901
 31
0.0
  0
LINE
  5
C4
100
AcDbEntity
  8
0
  6
CONTINUOUS
 62
               4
100
AcDbLine
 10
82.499999990462072
 20
10.000003778209901
 30
0.0
 11
84.836999077163767
 21
10.000003778209901
 31
0.0
  0
LINE
  5
C5
100
AcDbEntity
  8
0
  6
CONTINUOUS
 62
               4
100
AcDbLine
 10
82.499999999998806
 20
12.600003778209896
 30
0.0
 11
82.499999999998806
 21
10.000003778209901
 31
0.0
  0
LINE
  5
C6
100
AcDbEntity
  8
0
  6
CONTINUOUS
 62
               4
100
AcDbLine
 10
82.499999990462072
 20
12.600003778209896
 30
0.0
 11
87.436999077163762
 21
12.600003778209896
 31
0.0
  0
ARC
  5
C7
100
AcDbEntity
  8
0
  6
CONTINUOUS
 62
               4
100
AcDbCircle
 10
68.498334343633076
 20
19.498338121844164
 30
0.0
 40
1.0016670412635778
100
AcDbArc
 50
0.0952762943444108
 51
89.904723705655996
  0
ARC
  5
C8
100
AcDbEntity
  8
0
  6
CONTINUOUS
 62
               4
100
AcDbCircle
 10
65.500791486782362
 20
19.499212291426339
 30
0.0
 40
1.0007917997614517
100
AcDbArc
 50
90.04531297816014
 51
179.95468702183987
  0
LINE
  5
C9
100
AcDbEntity
  8
0
  6
CONTINUOUS
 62
             200
100
AcDbLine
 10
65.769999999998817
 20
19.000003778209894
 30
0.0
 11
65.769999999998817
 21
18.000003778209894
 31
0.0
  0
LINE
  5
CA
100
AcDbEntity
  8
0
  6
CONTINUOUS
 62
             200
100
AcDbLine
 10
68.229999999998824
 20
19.000003778209894
 30
0.0
 11
68.229999999998824
 21
18.000003778209894
 31
0.0
  0
LINE
  5
CB
100
AcDbEntity
  8
0
  6
CONTINUOUS
 62
               4
100
AcDbLine
 10
65.499999999998806
 20
19.000003778209894
 30
0.0
 11
65.499999999998806
 21
18.000003778209894
 31
0.0
  0
LINE
  5
CC
100
AcDbEntity
  8
0
  6
CONTINUOUS
 62
               4
100
AcDbLine
 10
68.499999999998806
 20
19.000003778209894
 30
0.0
 11
68.499999999998806
 21
18.000003778209894
 31
0.0
  0
LINE
  5
CD
100
AcDbEntity
  8
0
  6
CONTINUOUS
 62
               4
100
AcDbLine
 10
65.499999999998806
 20
20.500003778209894
 30
0.0
 11
68.499999999998806
 21
20.500003778209894
 31
0.0
  0
LINE
  5
CE
100
AcDbEntity
  8
0
  6
CONTINUOUS
 62
               4
100
AcDbLine
 10
64.499999999998806
 20
19.000003778209894
 30
0.0
 11
69.499999999998806
 21
19.000003778209894
 31
0.0
  0
LINE
  5
CF
100
AcDbEntity
  8
0
  6
CONTINUOUS
 62
               4
100
AcDbLine
 10
62.499999999998813
 20
18.000003778209894
 30
0.0
 11
71.499999999998806
 21
18.000003778209894
 31
0.0
  0
LINE
  5
D0
100
AcDbEntity
  8
0
  6
CONTINUOUS
 62
               4
100
AcDbLine
 10
69.499999999998806
 20
19.500003778209894
 30
0.0
 11
69.499999999998806
 21
19.000003778209894
 31
0.0
  0
LINE
  5
D1
100
AcDbEntity
  8
0
  6
CONTINUOUS
 62
               4
100
AcDbLine
 10
64.499999999998806
 20
19.500003778209894
 30
0.0
 11
64.499999999998806
 21
19.000003778209894
 31
0.0
  0
LINE
  5
D2
100
AcDbEntity
  8
0
  6
CONTINUOUS
 62
               4
100
AcDbLine
 10
60.00000002168796
 20
8.0318859666804414
 30
0.0
 11
62.50000002168796
 21
8.0318859666804414
 31
0.0
  0
LINE
  5
D3
100
AcDbEntity
  8
0
  6
CONTINUOUS
 62
               4
100
AcDbLine
 10
73.99999997830966
 20
8.0318859666804414
 30
0.0
 11
71.49999997830966
 21
8.0318859666804414
 31
0.0
  0
LINE
  5
D4
100
AcDbEntity
  8
0
  6
CONTINUOUS
 62
               4
100
AcDbLine
 10
62.499999990462065
 20
-8.6499808686176607
 30
0.0
 11
71.499999999998806
 21
-8.6499808686176607
 31
0.0
  0
LINE
  5
D5
100
AcDbEntity
  8
0
  6
CONTINUOUS
 62
               7
100
AcDbLine
 10
73.999999999998806
 20
8.5000037782099014
 30
0.0
 11
77.499999999998806
 21
8.5000037782099014
 31
0.0
  0
LINE
  5
D6
100
AcDbEntity
  8
0
  6
CONTINUOUS
 62
               4
100
AcDbLine
 10
77.499999999998806
 20
8.5000037782099014
 30
0.0
 11
82.999999999998806
 21
8.5000037782099014
 31
0.0
  0
LINE
  5
D7
100
AcDbEntity
  8
0
  6
CONTINUOUS
 62
               4
100
AcDbLine
 10
77.499999999998806
 20
-8.4999981291387314
 30
0.0
 11
82.999999999998806
 21
-8.4999981291387314
 31
0.0
  0
LINE
  5
D8
100
AcDbEntity
  8
0
  6
CONTINUOUS
 62
               4
100
AcDbLine
 10
-5.6161285968666377
 20
9.814958346391002
 30
0.0
 11
-2.3208106334074614
 21
9.814958346391002
 31
0.0
  0
LINE
  5
D9
100
AcDbEntity
  8
0
  6
CONTINUOUS
 62
               4
100
AcDbLine
 10
-5.6161286039704734
 20
-4.9074734572138965
 30
0.0
 11
-2.320810656105941
 21
-4.9074734572138965
 31
0.0
  0
LINE
  5
DA
100
AcDbEntity
  8
0
  6
CONTINUOUS
 62
               4
100
AcDbLine
 10
-5.9684696300382072
 20
8.5000036832127392
 30
0.0
 11
-5.6161286188716346
 21
9.8149582620892346
 31
0.0
  0
LINE
  5
DB
100
AcDbEntity
  8
0
  6
CONTINUOUS
 62
               4
100
AcDbLine
 10
-2.3208106339910515
 20
9.8149583463910091
 30
0.0
 11
-1.9684696197521632
 21
8.5000037812814071
 31
0.0
  0
ARC
  5
DC
100
AcDbEntity
  8
0
  6
CONTINUOUS
 62
               4
100
AcDbCircle
 10
2.7517435263533017
 20
7.3612197042244816
 30
0.0
 40
8.7202131461054666
100
AcDbArc
 50
163.65710671427286
 51
196.34289327259339
  0
ARC
  5
DD
100
AcDbEntity
  8
0
  6
CONTINUOUS
 62
               4
100
AcDbCircle
 10
-10.688682277283824
 20
7.3612197042244816
 30
0.0
 40
8.7202126575316594
100
AcDbArc
 50
343.65710578608292
 51
16.342894171951418
  0
LINE
  5
DE
100
AcDbEntity
  8
0
  6
CONTINUOUS
 62
               4
100
AcDbLine
 10
-5.9684696197521632
 20
8.5000037216007769
 30
0.0
 11
-5.9684696197521632
 21
-8.4999961909716149
 31
0.0
  0
LINE
  5
DF
100
AcDbEntity
  8
0
  6
CONTINUOUS
 62
               4
100
AcDbLine
 10
-1.9684696197521632
 20
8.5000037812814071
 30
0.0
 11
-1.9684696197521632
 21
-8.4999962254193235
 31
0.0
  0
ARC
  5
E0
100
AcDbEntity
  8
0
  6
CONTINUOUS
 62
               4
100
AcDbCircle
 10
2.7517435263533017
 20
-7.3612121478046788
 30
0.0
 40
8.7202131461054666
100
AcDbArc
 50
163.65710672740661
 51
196.34289328572714
  0
ARC
  5
E1
100
AcDbEntity
  8
0
  6
CONTINUOUS
 62
               4
100
AcDbCircle
 10
-10.688682277283824
 20
-7.3612121478046788
 30
0.0
 40
8.7202126575316594
100
AcDbArc
 50
343.6571058280486
 51
16.342894213917081
  0
LINE
  5
E2
100
AcDbEntity
  8
0
  6
CONTINUOUS
 62
               4
100
AcDbLine
 10
-2.3208106339910515
 20
-9.8149507899712063
 30
0.0
 11
-1.9684696197521632
 21
-8.4999962248616043
 31
0.0
  0
LINE
  5
E3
100
AcDbEntity
  8
0
  6
CONTINUOUS
 62
               4
100
AcDbLine
 10
-5.9684696300382072
 20
-8.4999961267929365
 30
0.0
 11
-5.6161286188716346
 21
-9.8149507056694318
 31
0.0
  0
LINE
  5
E4
100
AcDbEntity
  8
0
  6
CONTINUOUS
 62
               4
100
AcDbLine
 10
-5.6161285968666377
 20
-9.8149507899711992
 30
0.0
 11
-2.3208106334074614
 21
-9.8149507899711992
 31
0.0
  0
LINE
  5
E5
100
AcDbEntity
  8
0
  6
CONTINUOUS
 62
               4
100
AcDbLine
 10
-5.6161286039704734
 20
4.9074810620579541
 30
0.0
 11
-2.320810656105941
 21
4.9074810620579541
 31
0.0
  0
ARC
  5
E6
100
AcDbEntity
  8
0
  6
CONTINUOUS
 62
               4
100
AcDbCircle
 10
28.383871097010626
 20
0.0000038024220288
 30
0.0
 40
34.352340716762789
100
AcDbArc
 50
171.78678927402217
 51
188.21321072936118
  0
ARC
  5
E7
100
AcDbEntity
  8
0
  6
CONTINUOUS
 62
               4
100
AcDbCircle
 10
-36.320808351361613
 20
0.0000038024220288
 30
0.0
 40
34.35233873160945
100
AcDbArc
 50
351.7867887961192
 51
8.2132112038808298
  0
LINE
  5
E9
100
AcDbEntity
  8
0
  6
PHANTOM
 62
               3
100
AcDbLine
 10
51.015192216469707
 20
22.200970857373399
 30
0.0
 11
51.015192216469707
 21
-15.611832528190945
 31
0.0
  0
ENDBLK
  5
EA
100
AcDbEntity
  8
0
100
AcDbBlockEnd
  0
BLOCK
  5
EB
100
AcDbEntity
  8
0
100
AcDbBlockBegin
  2
CS-PBSAS16-2
 70
               0
 10
0.0
 20
0.0
 30
0.0
  3
CS-PBSAS16-2
  1

  0
CIRCLE
  5
EC
100
AcDbEntity
  8
0
  6
CONTINUOUS
 62
               2
100
AcDbCircle
 10
0.0
 20
0.0
 30
0.0
 40
2.0670000000000002
  0
CIRCLE
  5
ED
100
AcDbEntity
  8
0
  6
CONTINUOUS
 62
               2
100
AcDbCircle
 10
0.0
 20
0.0
 30
0.0
 40
5.4584999999999999
  0
LINE
  5
EE
100
AcDbEntity
  8
0
  6
CENTER
 62
               2
100
AcDbLine
 10
-11.92265251720697
 20
0.0
 30
0.0
 11
12.547631305129087
 21
0.0
 31
0.0
  0
LINE
  5
EF
100
AcDbEntity
  8
0
  6
CENTER
 62
               2
100
AcDbLine
 10
0.0
 20
24.321191714274619
 30
0.0
 11
0.0
 21
-12.561488203706432
 31
0.0
  0
LINE
  5
F0
100
AcDbEntity
  8
0
  6
CONTINUOUS
 62
               4
100
AcDbLine
 10
8.5
 20
4.9074772881118207
 30
0.0
 11
8.5
 21
-4.9074772881118207
 31
0.0
  0
LINE
  5
F1
100
AcDbEntity
  8
0
  6
CONTINUOUS
 62
               4
100
AcDbLine
 10
0.0
 20
9.8149545762236414
 30
0.0
 11
8.5
 21
4.9074772881118207
 31
0.0
  0
LINE
  5
F2
100
AcDbEntity
  8
0
  6
CONTINUOUS
 62
               4
100
AcDbLine
 10
-8.5
 20
4.9074772881118207
 30
0.0
 11
0.0
 21
9.8149545762236414
 31
0.0
  0
LINE
  5
F3
100
AcDbEntity
  8
0
  6
CONTINUOUS
 62
               4
100
AcDbLine
 10
-8.5
 20
-4.9074772881118172
 30
0.0
 11
-8.5
 21
4.9074772881118207
 31
0.0
  0
LINE
  5
F4
100
AcDbEntity
  8
0
  6
CONTINUOUS
 62
               4
100
AcDbLine
 10
0.0
 20
-9.8149545762236379
 30
0.0
 11
-8.5
 21
-4.9074772881118172
 31
0.0
  0
LINE
  5
F5
100
AcDbEntity
  8
0
  6
CONTINUOUS
 62
               4
100
AcDbLine
 10
8.5
 20
-4.9074772881118207
 30
0.0
 11
0.0
 21
-9.8149545762236379
 31
0.0
  0
CIRCLE
  5
F6
100
AcDbEntity
  8
0
  6
CONTINUOUS
 62
               4
100
AcDbCircle
 10
0.0
 20
0.0
 30
0.0
 40
8.5
  0
ARC
  5
F7
100
AcDbEntity
  8
0
  6
CONTINUOUS
 62
               7
100
AcDbCircle
 10
0.0
 20
0.0
 30
0.0
 40
9.5
100
AcDbArc
 50
116.52535201660972
 51
146.52535201660965
  0
LINE
  5
F8
100
AcDbEntity
  8
0
  6
CONTINUOUS
 62
               7
100
AcDbLine
 10
-4.242640687119291
 20
8.5
 30
0.0
 11
-2.2775681356645521
 21
8.5
 31
0.0
  0
LINE
  5
F9
100
AcDbEntity
  8
0
  6
CONTINUOUS
 62
               7
100
AcDbLine
 10
4.242640687119291
 20
8.5
 30
0.0
 11
2.2775681356645521
 21
8.5
 31
0.0
  0
ARC
  5
FA
100
AcDbEntity
  8
0
  6
CONTINUOUS
 62
               7
100
AcDbCircle
 10
0.0
 20
0.0
 30
0.0
 40
9.5
100
AcDbArc
 50
33.474647983390341
 51
63.474647983390284
  0
LINE
  5
FB
100
AcDbEntity
  8
0
  6
CONTINUOUS
 62
               7
100
AcDbLine
 10
-4.242640687119291
 20
-8.5
 30
0.0
 11
-2.2775681356645521
 21
-8.5
 31
0.0
  0
ARC
  5
FC
100
AcDbEntity
  8
0
  6
CONTINUOUS
 62
               7
100
AcDbCircle
 10
0.0
 20
0.0
 30
0.0
 40
9.5
100
AcDbArc
 50
213.47464798339035
 51
243.4746479833903
  0
LINE
  5
FD
100
AcDbEntity
  8
0
  6
CONTINUOUS
 62
               7
100
AcDbLine
 10
4.242640687119291
 20
-8.5
 30
0.0
 11
2.2775681356645521
 21
-8.5
 31
0.0
  0
ARC
  5
FE
100
AcDbEntity
  8
0
  6
CONTINUOUS
 62
               7
100
AcDbCircle
 10
0.0
 20
0.0
 30
0.0
 40
9.5
100
AcDbArc
 50
296.5253520166097
 51
326.52535201660965
  0
LINE
  5
FF
100
AcDbEntity
  8
0
  6
CONTINUOUS
 62
               4
100
AcDbLine
 10
4.0
 20
2.3094010767585047
 30
0.0
 11
4.0
 21
-2.3094010767585047
 31
0.0
  0
LINE
  5
100
100
AcDbEntity
  8
0
  6
CONTINUOUS
 62
               4
100
AcDbLine
 10
0.0
 20
4.6188021535170094
 30
0.0
 11
4.0
 21
2.3094010767585047
 31
0.0
  0
LINE
  5
101
100
AcDbEntity
  8
0
  6
CONTINUOUS
 62
               4
100
AcDbLine
 10
-4.0
 20
2.3094010767585047
 30
0.0
 11
0.0
 21
4.6188021535170094
 31
0.0
  0
LINE
  5
102
100
AcDbEntity
  8
0
  6
CONTINUOUS
 62
               4
100
AcDbLine
 10
-4.0
 20
-2.3094010767585011
 30
0.0
 11
-4.0
 21
2.3094010767585047
 31
0.0
  0
LINE
  5
103
100
AcDbEntity
  8
0
  6
CONTINUOUS
 62
               4
100
AcDbLine
 10
0.0
 20
-4.6188021535170058
 30
0.0
 11
-4.0
 21
-2.3094010767585011
 31
0.0
  0
LINE
  5
104
100
AcDbEntity
  8
0
  6
CONTINUOUS
 62
               4
100
AcDbLine
 10
4.0
 20
-2.3094010767585047
 30
0.0
 11
0.0
 21
-4.6188021535170058
 31
0.0
  0
CIRCLE
  5
105
100
AcDbEntity
  8
0
  6
CONTINUOUS
 62
               7
100
AcDbCircle
 10
0.0
 20
0.0
 30
0.0
 40
2.5
  0
CIRCLE
  5
106
100
AcDbEntity
  8
0
  6
CONTINUOUS
 62
               4
100
AcDbCircle
 10
0.0
 20
0.0
 30
0.0
 40
4.0000000000000018
  0
CIRCLE
  5
107
100
AcDbEntity
  8
0
  6
CONTINUOUS
 62
               7
100
AcDbCircle
 10
0.0
 20
0.0
 30
0.0
 40
6.0
  0
LINE
  5
108
100
AcDbEntity
  8
0
  6
CONTINUOUS
 62
               4
100
AcDbLine
 10
1.0499999999999829
 20
10.300000000000011
 30
0.0
 11
-1.0500000000000114
 21
10.300000000000011
 31
0.0
  0
LINE
  5
109
100
AcDbEntity
  8
0
  6
CONTINUOUS
 62
               4
100
AcDbLine
 10
1.0499999999999829
 20
12.300000000000011
 30
0.0
 11
-1.0500000000000114
 21
12.300000000000011
 31
0.0
  0
LINE
  5
10A
100
AcDbEntity
  8
0
  6
CONTINUOUS
 62
               4
100
AcDbLine
 10
-4.9250000000000114
 20
14.404504064074942
 30
0.0
 11
-7.3817314866615931
 21
6.8746484032105073
 31
0.0
  0
LINE
  5
10B
100
AcDbEntity
  8
0
  6
CONTINUOUS
 62
               4
100
AcDbLine
 10
-5.5231084386376068
 20
10.475709800948763
 30
0.0
 11
-6.7640536253404946
 21
6.6722261114818053
 31
0.0
  0
LINE
  5
10C
100
AcDbEntity
  8
0
  6
CONTINUOUS
 62
               4
100
AcDbLine
 10
-4.4250000000000114
 20
14.325000000000017
 30
0.0
 11
-7.0040602242843022
 21
6.4202080701636532
 31
0.0
  0
LINE
  5
10D
100
AcDbEntity
  8
0
  6
CONTINUOUS
 62
               4
100
AcDbLine
 10
3.5
 20
18.0
 30
0.0
 11
-3.5
 21
18.0
 31
0.0
  0
LINE
  5
10E
100
AcDbEntity
  8
0
  6
CONTINUOUS
 62
               4
100
AcDbLine
 10
2.1449999999999818
 20
16.400000000000034
 30
0.0
 11
-2.1450000000000102
 21
16.400000000000034
 31
0.0
  0
LINE
  5
10F
100
AcDbEntity
  8
0
  6
CONTINUOUS
 62
               4
100
AcDbLine
 10
3.0
 20
17.200000000000017
 30
0.0
 11
-3.0
 21
17.200000000000017
 31
0.0
  0
LINE
  5
110
100
AcDbEntity
  8
0
  6
CONTINUOUS
 62
               4
100
AcDbLine
 10
3.25
 20
15.0
 30
0.0
 11
-3.25
 21
15.0
 31
0.0
  0
LINE
  5
111
100
AcDbEntity
  8
0
  6
CONTINUOUS
 62
               4
100
AcDbLine
 10
3.25
 20
14.300000000000011
 30
0.0
 11
-3.25
 21
14.300000000000011
 31
0.0
  0
LINE
  5
112
100
AcDbEntity
  8
0
  6
CONTINUOUS
 62
               4
100
AcDbLine
 10
2.5
 20
19.0
 30
0.0
 11
-2.5
 21
19.0
 31
0.0
  0
LINE
  5
113
100
AcDbEntity
  8
0
  6
CONTINUOUS
 62
               4
100
AcDbLine
 10
1.5
 20
20.5
 30
0.0
 11
-1.5
 21
20.5
 31
0.0
  0
LINE
  5
114
100
AcDbEntity
  8
0
  6
CONTINUOUS
 62
               4
100
AcDbLine
 10
1.5
 20
18.5
 30
0.0
 11
-1.5
 21
18.5
 31
0.0
  0
LINE
  5
115
100
AcDbEntity
  8
0
  6
CONTINUOUS
 62
               4
100
AcDbLine
 10
-3.25
 20
15.0
 30
0.0
 11
-3.25
 21
8.5
 31
0.0
  0
LINE
  5
116
100
AcDbEntity
  8
0
  6
CONTINUOUS
 62
               4
100
AcDbLine
 10
2.0499999999999829
 20
9.3000000000000114
 30
0.0
 11
0.8919274896094294
 21
9.3000000000000114
 31
0.0
  0
LINE
  5
117
100
AcDbEntity
  8
0
  6
CONTINUOUS
 62
               4
100
AcDbLine
 10
2.0499999999999829
 20
13.300000000000011
 30
0.0
 11
-2.0500000000000114
 21
13.300000000000011
 31
0.0
  0
LINE
  5
118
100
AcDbEntity
  8
0
  6
CONTINUOUS
 62
               4
100
AcDbLine
 10
1.0
 20
13.600000000000023
 30
0.0
 11
-1.0
 21
13.600000000000023
 31
0.0
  0
LINE
  5
119
100
AcDbEntity
  8
0
  6
CONTINUOUS
 62
               4
100
AcDbLine
 10
-5.212038715273934
 20
13.524733479936074
 30
0.0
 11
-5.5500000000000114
 21
13.720000000000027
 31
0.0
  0
LINE
  5
11A
100
AcDbEntity
  8
0
  6
CONTINUOUS
 62
             200
100
AcDbLine
 10
-1.230000000000004
 20
16.400000000000034
 30
0.0
 11
-1.230000000000004
 21
15.029999999999987
 31
0.0
  0
LINE
  5
11B
100
AcDbEntity
  8
0
  6
CONTINUOUS
 62
               4
100
AcDbLine
 10
-1.5
 20
16.400000000000034
 30
0.0
 11
-1.5
 21
15.300000000000011
 31
0.0
  0
LINE
  5
11C
100
AcDbEntity
  8
0
  6
CONTINUOUS
 62
               4
100
AcDbLine
 10
-1.0
 20
13.600000000000023
 30
0.0
 11
-1.0
 21
13.300000000000011
 31
0.0
  0
LINE
  5
11D
100
AcDbEntity
  8
0
  6
CONTINUOUS
 62
               4
100
AcDbLine
 10
-2.0500000000000114
 20
13.300000000000011
 30
0.0
 11
-2.0500000000000114
 21
9.3000000000000114
 31
0.0
  0
ARC
  5
11E
100
AcDbEntity
  8
0
  6
CONTINUOUS
 62
               4
100
AcDbCircle
 10
-1.5014123218217037
 20
19.501412321821704
 30
0.0
 40
0.9985886769148223
100
AcDbArc
 50
89.91896552750427
 51
180.08103447249553
  0
ARC
  5
11F
100
AcDbEntity
  8
0
  6
CONTINUOUS
 62
               4
100
AcDbCircle
 10
-4.5011481992923734
 20
14.617355698085873
 30
0.0
 40
0.4988573627628728
100
AcDbArc
 50
180.27056242892002
 51
209.44536829881622
  0
ARC
  5
120
100
AcDbEntity
  8
0
  6
CONTINUOUS
 62
               4
100
AcDbCircle
 10
-5.2997963361607958
 20
14.153134289562786
 30
0.0
 40
0.5002071432852633
100
AcDbArc
 50
179.78629337237084
 51
239.98676050847715
  0
ARC
  5
121
100
AcDbEntity
  8
0
  6
CONTINUOUS
 62
               4
100
AcDbCircle
 10
-3.0016625976539331
 20
16.701662597653922
 30
0.0
 40
0.4983401757915919
100
AcDbArc
 50
89.808845423377733
 51
180.19115457662187
  0
ARC
  5
122
100
AcDbEntity
  8
0
  6
CONTINUOUS
 62
               4
100
AcDbCircle
 10
-3.5016625976548141
 20
17.201662597654803
 30
0.0
 40
0.7983391335856297
100
AcDbArc
 50
89.88067740450245
 51
180.11932259549781
  0
LINE
  5
123
100
AcDbEntity
  8
0
  6
CONTINUOUS
 62
               4
100
AcDbLine
 10
-2.5
 20
19.5
 30
0.0
 11
-2.5
 21
19.0
 31
0.0
  0
LINE
  5
124
100
AcDbEntity
  8
0
  6
CONTINUOUS
 62
               4
100
AcDbLine
 10
-3.5
 20
10.800000000000011
 30
0.0
 11
-4.3000000000000114
 21
10.800000000000011
 31
0.0
  0
LINE
  5
125
100
AcDbEntity
  8
0
  6
CONTINUOUS
 62
               4
100
AcDbLine
 10
-1.5
 20
19.0
 30
0.0
 11
-1.5
 21
18.0
 31
0.0
  0
LINE
  5
126
100
AcDbEntity
  8
0
  6
CONTINUOUS
 62
               4
100
AcDbLine
 10
-4.4250000000000114
 20
16.825000000000017
 30
0.0
 11
-4.9250000000000114
 21
16.825000000000017
 31
0.0
  0
LINE
  5
127
100
AcDbEntity
  8
0
  6
CONTINUOUS
 62
               4
100
AcDbLine
 10
-4.9250000000000114
 20
16.825000000000017
 30
0.0
 11
-4.9250000000000114
 21
14.404504064074942
 31
0.0
  0
LINE
  5
128
100
AcDbEntity
  8
0
  6
CONTINUOUS
 62
               4
100
AcDbLine
 10
-4.4250000000000114
 20
16.825000000000017
 30
0.0
 11
-4.4250000000000114
 21
14.325000000000017
 31
0.0
  0
LINE
  5
129
100
AcDbEntity
  8
0
  6
CONTINUOUS
 62
               4
100
AcDbLine
 10
-4.3000000000000114
 20
13.924000000000014
 30
0.0
 11
-4.5141047693510643
 21
14.048180766223624
 31
0.0
  0
LINE
  5
12A
100
AcDbEntity
  8
0
  6
CONTINUOUS
 62
               4
100
AcDbLine
 10
-5.8000000000000114
 20
16.300000000000011
 30
0.0
 11
-5.8000000000000114
 21
14.15500000000003
 31
0.0
  0
LINE
  5
12B
100
AcDbEntity
  8
0
  6
CONTINUOUS
 62
               4
100
AcDbLine
 10
-4.3000000000000114
 20
10.800000000000011
 30
0.0
 11
-4.3000000000000114
 21
17.200000000000017
 31
0.0
  0
LINE
  5
12C
100
AcDbEntity
  8
0
  6
CONTINUOUS
 62
             200
100
AcDbLine
 10
-1.230000000000004
 20
18.5
 30
0.0
 11
-1.230000000000004
 21
18.0
 31
0.0
  0
LINE
  5
12D
100
AcDbEntity
  8
0
  6
CONTINUOUS
 62
               4
100
AcDbLine
 10
-2.285000000000025
 20
17.200000000000017
 30
0.0
 11
-2.1450000000000102
 21
16.400000000000034
 31
0.0
  0
LINE
  5
12E
100
AcDbEntity
  8
0
  6
CONTINUOUS
 62
               4
100
AcDbLine
 10
-5.0
 20
16.300000000000011
 30
0.0
 11
-5.8000000000000114
 21
16.300000000000011
 31
0.0
  0
LINE
  5
12F
100
AcDbEntity
  8
0
  6
CONTINUOUS
 62
               4
100
AcDbLine
 10
-5.0
 20
16.300000000000011
 30
0.0
 11
-5.0
 21
14.615000000000009
 31
0.0
  0
LINE
  5
130
100
AcDbEntity
  8
0
  6
CONTINUOUS
 62
               4
100
AcDbLine
 10
-4.3000000000000114
 20
12.997777777777799
 30
0.0
 11
-4.7695183239662668
 21
13.269055031624973
 31
0.0
  0
LINE
  5
131
100
AcDbEntity
  8
0
  6
CONTINUOUS
 62
               4
100
AcDbLine
 10
-3.5
 20
16.700000000000017
 30
0.0
 11
-3.5
 21
10.800000000000011
 31
0.0
  0
LINE
  5
132
100
AcDbEntity
  8
0
  6
CONTINUOUS
 62
               4
100
AcDbLine
 10
-5.6656957880092165
 20
10.522280714854688
 30
0.0
 11
-5.5230938148162636
 21
10.475754622804345
 31
0.0
  0
LINE
  5
133
100
AcDbEntity
  8
0
  6
CONTINUOUS
 62
               4
100
AcDbLine
 10
-1.5
 20
15.299999999999983
 30
0.0
 11
-1.2000000000000171
 21
15.0
 31
0.0
  0
LINE
  5
134
100
AcDbEntity
  8
0
  6
CONTINUOUS
 62
               4
100
AcDbLine
 10
-1.0500000000000114
 20
12.300000000000011
 30
0.0
 11
-1.0500000000000114
 21
10.300000000000011
 31
0.0
  0
LINE
  5
135
100
AcDbEntity
  8
0
  6
CONTINUOUS
 62
               4
100
AcDbLine
 10
-2.0500000000000114
 20
13.300000000000011
 30
0.0
 11
-1.0500000000000114
 21
12.300000000000011
 31
0.0
  0
LINE
  5
136
100
AcDbEntity
  8
0
  6
CONTINUOUS
 62
               4
100
AcDbLine
 10
-1.0500000000000114
 20
10.300000000000011
 30
0.0
 11
-2.0500000000000114
 21
9.3000000000000114
 31
0.0
  0
LINE
  5
137
100
AcDbEntity
  8
0
  6
CONTINUOUS
 62
               4
100
AcDbLine
 10
3.5
 20
11.5
 30
0.0
 11
5.6450137297198779
 21
7.6450193469538803
 31
0.0
  0
LINE
  5
138
100
AcDbEntity
  8
0
  6
CONTINUOUS
 62
               4
100
AcDbLine
 10
3.3499999999999943
 20
11.5
 30
0.0
 11
5.3787370421660796
 21
7.8346466760344669
 31
0.0
  0
LINE
  5
139
100
AcDbEntity
  8
0
  6
CONTINUOUS
 62
               4
100
AcDbLine
 10
3.25
 20
11.100000000000023
 30
0.0
 11
3.25
 21
8.5
 31
0.0
  0
LINE
  5
13A
100
AcDbEntity
  8
0
  6
CONTINUOUS
 62
             200
100
AcDbLine
 10
1.230000000000004
 20
16.400000000000034
 30
0.0
 11
1.230000000000004
 21
15.030000000000015
 31
0.0
  0
LINE
  5
13B
100
AcDbEntity
  8
0
  6
CONTINUOUS
 62
               4
100
AcDbLine
 10
1.5
 20
16.400000000000034
 30
0.0
 11
1.5
 21
15.300000000000011
 31
0.0
  0
LINE
  5
13C
100
AcDbEntity
  8
0
  6
CONTINUOUS
 62
               4
100
AcDbLine
 10
2.0499999999999829
 20
13.300000000000011
 30
0.0
 11
2.0499999999999829
 21
9.3000000000000114
 31
0.0
  0
LINE
  5
13D
100
AcDbEntity
  8
0
  6
CONTINUOUS
 62
               4
100
AcDbLine
 10
1.0
 20
13.600000000000023
 30
0.0
 11
1.0
 21
13.300000000000011
 31
0.0
  0
LINE
  5
13E
100
AcDbEntity
  8
0
  6
CONTINUOUS
 62
               4
100
AcDbLine
 10
3.25
 20
15.0
 30
0.0
 11
3.25
 21
11.5
 31
0.0
  0
LINE
  5
13F
100
AcDbEntity
  8
0
  6
CONTINUOUS
 62
               4
100
AcDbLine
 10
3.25
 20
11.5
 30
0.0
 11
2.0499999999999829
 21
11.5
 31
0.0
  0
LINE
  5
140
100
AcDbEntity
  8
0
  6
CONTINUOUS
 62
               4
100
AcDbLine
 10
3.25
 20
11.100000000000023
 30
0.0
 11
2.0499999999999829
 21
11.100000000000023
 31
0.0
  0
ARC
  5
141
100
AcDbEntity
  8
0
  6
CONTINUOUS
 62
               4
100
AcDbCircle
 10
1.499747232608371
 20
19.499747232608399
 30
0.0
 40
1.0002527993292285
100
AcDbArc
 50
0.0144788446506029
 51
89.985521155349616
  0
ARC
  5
142
100
AcDbEntity
  8
0
  6
CONTINUOUS
 62
               4
100
AcDbCircle
 10
2.9999957098748382
 20
16.699995709874855
 30
0.0
 40
0.5000042901435589
100
AcDbArc
 50
0.0004916079117645
 51
89.999508392088231
  0
ARC
  5
143
100
AcDbEntity
  8
0
  6
CONTINUOUS
 62
               4
100
AcDbCircle
 10
3.4999967464729878
 20
17.199996746473033
 30
0.0
 40
0.8000032535336057
100
AcDbArc
 50
0.000233015758496
 51
89.999766984241262
  0
LINE
  5
144
100
AcDbEntity
  8
0
  6
CONTINUOUS
 62
               4
100
AcDbLine
 10
2.5
 20
19.5
 30
0.0
 11
2.5
 21
19.0
 31
0.0
  0
LINE
  5
145
100
AcDbEntity
  8
0
  6
CONTINUOUS
 62
               4
100
AcDbLine
 10
4.2999999999999829
 20
11.5
 30
0.0
 11
3.5
 21
11.5
 31
0.0
  0
LINE
  5
146
100
AcDbEntity
  8
0
  6
CONTINUOUS
 62
               4
100
AcDbLine
 10
1.5
 20
19.0
 30
0.0
 11
1.5
 21
18.0
 31
0.0
  0
LINE
  5
147
100
AcDbEntity
  8
0
  6
CONTINUOUS
 62
               4
100
AcDbLine
 10
3.5
 20
16.700000000000017
 30
0.0
 11
3.3499999999999943
 21
16.700000000000017
 31
0.0
  0
LINE
  5
148
100
AcDbEntity
  8
0
  6
CONTINUOUS
 62
               4
100
AcDbLine
 10
3.3499999999999943
 20
16.700000000000017
 30
0.0
 11
3.3499999999999943
 21
11.5
 31
0.0
  0
LINE
  5
149
100
AcDbEntity
  8
0
  6
CONTINUOUS
 62
               4
100
AcDbLine
 10
4.2999999999999829
 20
17.200000000000017
 30
0.0
 11
4.2999999999999829
 21
11.5
 31
0.0
  0
LINE
  5
14A
100
AcDbEntity
  8
0
  6
CONTINUOUS
 62
             200
100
AcDbLine
 10
1.230000000000004
 20
18.5
 30
0.0
 11
1.230000000000004
 21
18.0
 31
0.0
  0
LINE
  5
14B
100
AcDbEntity
  8
0
  6
CONTINUOUS
 62
               4
100
AcDbLine
 10
2.2849999999999966
 20
17.200000000000017
 30
0.0
 11
2.1449999999999818
 21
16.400000000000034
 31
0.0
  0
LINE
  5
14C
100
AcDbEntity
  8
0
  6
CONTINUOUS
 62
               4
100
AcDbLine
 10
3.5
 20
16.700000000000017
 30
0.0
 11
3.5
 21
11.5
 31
0.0
  0
LINE
  5
14D
100
AcDbEntity
  8
0
  6
CONTINUOUS
 62
               4
100
AcDbLine
 10
1.5
 20
15.299999999999983
 30
0.0
 11
1.1999999999999886
 21
15.0
 31
0.0
  0
LINE
  5
14E
100
AcDbEntity
  8
0
  6
CONTINUOUS
 62
               4
100
AcDbLine
 10
1.0499999999999829
 20
12.300000000000011
 30
0.0
 11
1.0499999999999829
 21
10.300000000000011
 31
0.0
  0
LINE
  5
14F
100
AcDbEntity
  8
0
  6
CONTINUOUS
 62
               4
100
AcDbLine
 10
2.0499999999999829
 20
13.300000000000011
 30
0.0
 11
1.0499999999999829
 21
12.300000000000011
 31
0.0
  0
LINE
  5
150
100
AcDbEntity
  8
0
  6
CONTINUOUS
 62
               4
100
AcDbLine
 10
1.0499999999999829
 20
10.300000000000011
 30
0.0
 11
2.0499999999999829
 21
9.3000000000000114
 31
0.0
  0
LINE
  5
151
100
AcDbEntity
  8
0
  6
CONTINUOUS
 62
               4
100
AcDbLine
 10
-6.9063915760184216
 20
6.7195614297093584
 30
0.0
 11
-7.3817314866615931
 21
6.8746484032105073
 31
0.0
  0
LINE
  5
152
100
AcDbEntity
  8
0
  6
CONTINUOUS
 62
               4
100
AcDbLine
 10
-0.8919274896094294
 20
9.3000000000000114
 30
0.0
 11
-2.0500000000000114
 21
9.3000000000000114
 31
0.0
  0
ENDBLK
  5
153
100
AcDbEntity
  8
0
100
AcDbBlockEnd
  0
BLOCK
  5
154
100
AcDbEntity
  8
0
100
AcDbBlockBegin
  2
CS-PBSAS16-3
 70
               0
 10
0.0
 20
0.0
 30
0.0
  3
CS-PBSAS16-3
  1

  0
CIRCLE
  5
155
100
AcDbEntity
  8
0
  6
CONTINUOUS
 62
               4
100
AcDbCircle
 10
0.0
 20
0.0
 30
0.0
 40
2.0670000000000002
  0
CIRCLE
  5
156
100
AcDbEntity
  8
0
  6
CONTINUOUS
 62
             200
100
AcDbCircle
 10
0.0
 20
0.0
 30
0.0
 40
2.5
  0
LINE
  5
157
100
AcDbEntity
  8
0
  6
CENTER
 62
               2
100
AcDbLine
 10
0.0
 20
24.321191714274619
 30
0.0
 11
0.0
 21
-13.050536309651612
 31
0.0
  0
CIRCLE
  5
158
100
AcDbEntity
  8
0
  6
CONTINUOUS
 62
               7
100
AcDbCircle
 10
0.0
 20
0.0
 30
0.0
 40
8.5
  0
LINE
  5
159
100
AcDbEntity
  8
0
  6
CONTINUOUS
 62
               4
100
AcDbLine
 10
-8.4999999999999858
 20
4.9074772881118207
 30
0.0
 11
-7.9242346141747504
 21
5.2398955886080927
 31
0.0
  0
ARC
  5
15A
100
AcDbEntity
  8
0
  6
CONTINUOUS
 62
               7
100
AcDbCircle
 10
0.0000000000000142
 20
0.0
 30
0.0
 40
9.5
100
AcDbArc
 50
116.52535201660972
 51
124.19377629202106
  0
LINE
  5
15B
100
AcDbEntity
  8
0
  6
CONTINUOUS
 62
               7
100
AcDbLine
 10
-4.2426406871192768
 20
8.5
 30
0.0
 11
-3.2230418145767459
 21
8.5
 31
0.0
  0
ARC
  5
15C
100
AcDbEntity
  8
0
  6
CONTINUOUS
 62
               7
100
AcDbCircle
 10
0.0000000000000142
 20
0.0
 30
0.0
 40
9.5
100
AcDbArc
 50
44.246835663228183
 51
63.474647983390305
  0
LINE
  5
15D
100
AcDbEntity
  8
0
  6
CONTINUOUS
 62
               4
100
AcDbLine
 10
8.5000000000000142
 20
4.9074772881118207
 30
0.0
 11
8.5000000000000142
 21
4.2426406871192839
 31
0.0
  0
LINE
  5
15E
100
AcDbEntity
  8
0
  6
CONTINUOUS
 62
               4
100
AcDbLine
 10
8.5000000000000142
 20
-4.9074772881118207
 30
0.0
 11
7.9242346141747788
 21
-5.2398955886080891
 31
0.0
  0
ARC
  5
15F
100
AcDbEntity
  8
0
  6
CONTINUOUS
 62
               7
100
AcDbCircle
 10
0.0000000000000142
 20
0.0
 30
0.0
 40
9.5
100
AcDbArc
 50
296.5253520166097
 51
333.4746479833903
  0
LINE
  5
160
100
AcDbEntity
  8
0
  6
CONTINUOUS
 62
               4
100
AcDbLine
 10
0.0000000000000142
 20
-9.8149545762236379
 30
0.0
 11
-2.2775681356645237
 21
-8.5
 31
0.0
  0
ARC
  5
161
100
AcDbEntity
  8
0
  6
CONTINUOUS
 62
               7
100
AcDbCircle
 10
0.0000000000000142
 20
0.0
 30
0.0
 40
9.5
100
AcDbArc
 50
206.5253520166097
 51
243.4746479833903
  0
LINE
  5
162
100
AcDbEntity
  8
0
  6
CONTINUOUS
 62
               7
100
AcDbLine
 10
-4.2426406871192768
 20
-8.5
 30
0.0
 11
-1.5769433078112911
 21
-8.5
 31
0.0
  0
LINE
  5
163
100
AcDbEntity
  8
0
  6
CONTINUOUS
 62
               4
100
AcDbLine
 10
-8.4999999999999858
 20
-4.9074772881118172
 30
0.0
 11
-8.4999999999999858
 21
-4.2426406871192839
 31
0.0
  0
LINE
  5
164
100
AcDbEntity
  8
0
  6
CONTINUOUS
 62
               4
100
AcDbLine
 10
7.9242346141747788
 20
5.2398955886080927
 30
0.0
 11
8.5000000000000142
 21
4.9074772881118207
 31
0.0
  0
LINE
  5
165
100
AcDbEntity
  8
0
  6
CONTINUOUS
 62
               4
100
AcDbLine
 10
2.2775681356645521
 20
-8.5
 30
0.0
 11
0.0000000000000142
 21
-9.8149545762236379
 31
0.0
  0
LINE
  5
166
100
AcDbEntity
  8
0
  6
CONTINUOUS
 62
               4
100
AcDbLine
 10
-7.9242346141747504
 20
-5.2398955886080856
 30
0.0
 11
-8.4999999999999858
 21
-4.9074772881118172
 31
0.0
  0
LINE
  5
167
100
AcDbEntity
  8
0
  6
CONTINUOUS
 62
               7
100
AcDbLine
 10
8.5000000000000142
 20
4.2426406871192839
 30
0.0
 11
8.5000000000000142
 21
1.7407074448148308
 31
0.0
  0
LINE
  5
168
100
AcDbEntity
  8
0
  6
CONTINUOUS
 62
               4
100
AcDbLine
 10
8.5000000000000142
 20
-4.2426406871192839
 30
0.0
 11
8.5000000000000142
 21
-4.9074772881118207
 31
0.0
  0
LINE
  5
169
100
AcDbEntity
  8
0
  6
CONTINUOUS
 62
               7
100
AcDbLine
 10
-8.4999999999999858
 20
-4.2426406871192839
 30
0.0
 11
-8.4999999999999858
 21
-1.4537826880395883
 31
0.0
  0
LINE
  5
16A
100
AcDbEntity
  8
0
  6
CONTINUOUS
 62
               4
100
AcDbLine
 10
-8.4999999999999858
 20
4.2426406871192839
 30
0.0
 11
-8.4999999999999858
 21
4.9074772881118207
 31
0.0
  0
CIRCLE
  5
16B
100
AcDbEntity
  8
0
  6
CONTINUOUS
 62
               7
100
AcDbCircle
 10
0.0
 20
0.0
 30
0.0
 40
8.0
  0
LINE
  5
16C
100
AcDbEntity
  8
0
  6
CENTER
 62
               2
100
AcDbLine
 10
-12.134373668892238
 20
0.0
 30
0.0
 11
12.355065236643128
 21
0.0
 31
0.0
  0
LINE
  5
16D
100
AcDbEntity
  8
0
  6
CONTINUOUS
 62
               4
100
AcDbLine
 10
-0.9730418145767459
 20
8.9999999999999716
 30
0.0
 11
1.0269581854232541
 21
8.9999999999999716
 31
0.0
  0
LINE
  5
16E
100
AcDbEntity
  8
0
  6
CONTINUOUS
 62
               4
100
AcDbLine
 10
-1.2730418145767572
 20
9.9999999999999716
 30
0.0
 11
1.3269581854232655
 21
9.9999999999999716
 31
0.0
  0
LINE
  5
16F
100
AcDbEntity
  8
0
  6
CONTINUOUS
 62
               4
100
AcDbLine
 10
-3.4730418145767459
 20
11.5
 30
0.0
 11
-7.5317055538743745
 21
4.2058414706485436
 31
0.0
  0
LINE
  5
170
100
AcDbEntity
  8
0
  6
CONTINUOUS
 62
               4
100
AcDbLine
 10
-3.3230418145767402
 20
11.5
 30
0.0
 11
-7.4098901218378046
 21
4.1162224496239546
 31
0.0
  0
CIRCLE
  5
171
100
AcDbEntity
  8
0
  6
CONTINUOUS
 62
               4
100
AcDbCircle
 10
0.0269581854232541
 20
11.300000000000011
 30
0.0
 40
1.3000000000000114
  0
LINE
  5
172
100
AcDbEntity
  8
0
  6
CONTINUOUS
 62
               4
100
AcDbLine
 10
-3.4730418145767459
 20
18.0
 30
0.0
 11
3.5269581854232541
 21
18.0
 31
0.0
  0
LINE
  5
173
100
AcDbEntity
  8
0
  6
CONTINUOUS
 62
               4
100
AcDbLine
 10
-2.1180418145767277
 20
16.400000000000034
 30
0.0
 11
2.1719581854232644
 21
16.400000000000034
 31
0.0
  0
LINE
  5
174
100
AcDbEntity
  8
0
  6
CONTINUOUS
 62
               4
100
AcDbLine
 10
-2.9730418145767459
 20
17.200000000000017
 30
0.0
 11
3.0269581854232541
 21
17.200000000000017
 31
0.0
  0
LINE
  5
175
100
AcDbEntity
  8
0
  6
CONTINUOUS
 62
               4
100
AcDbLine
 10
-3.2230418145767459
 20
15.0
 30
0.0
 11
3.2769581854232541
 21
15.0
 31
0.0
  0
LINE
  5
176
100
AcDbEntity
  8
0
  6
CONTINUOUS
 62
               4
100
AcDbLine
 10
-3.2230418145767459
 20
14.300000000000011
 30
0.0
 11
3.2769581854232541
 21
14.300000000000011
 31
0.0
  0
LINE
  5
177
100
AcDbEntity
  8
0
  6
CONTINUOUS
 62
               4
100
AcDbLine
 10
-2.4730418145767459
 20
19.0
 30
0.0
 11
2.5269581854232541
 21
19.0
 31
0.0
  0
LINE
  5
178
100
AcDbEntity
  8
0
  6
CONTINUOUS
 62
               4
100
AcDbLine
 10
-1.4730418145767459
 20
20.5
 30
0.0
 11
1.5269581854232541
 21
20.5
 31
0.0
  0
LINE
  5
179
100
AcDbEntity
  8
0
  6
CONTINUOUS
 62
               4
100
AcDbLine
 10
-1.4730418145767459
 20
18.5
 30
0.0
 11
1.5269581854232541
 21
18.5
 31
0.0
  0
LINE
  5
17A
100
AcDbEntity
  8
0
  6
CONTINUOUS
 62
               4
100
AcDbLine
 10
-3.2230418145767459
 20
11.100000000000023
 30
0.0
 11
-3.2230418145767459
 21
8.5
 31
0.0
  0
LINE
  5
17B
100
AcDbEntity
  8
0
  6
CONTINUOUS
 62
               4
100
AcDbLine
 10
-2.0230418145767288
 20
9.3000000000000114
 30
0.0
 11
2.0769581854232655
 21
9.3000000000000114
 31
0.0
  0
LINE
  5
17C
100
AcDbEntity
  8
0
  6
CONTINUOUS
 62
               4
100
AcDbLine
 10
-2.0230418145767288
 20
13.300000000000011
 30
0.0
 11
2.0769581854232655
 21
13.300000000000011
 31
0.0
  0
LINE
  5
17D
100
AcDbEntity
  8
0
  6
CONTINUOUS
 62
               4
100
AcDbLine
 10
-0.9730418145767459
 20
13.600000000000023
 30
0.0
 11
1.0269581854232541
 21
13.600000000000023
 31
0.0
  0
LINE
  5
17E
100
AcDbEntity
  8
0
  6
CONTINUOUS
 62
               4
100
AcDbLine
 10
-1.2730418145767288
 20
12.600000000000023
 30
0.0
 11
1.3269581854232655
 21
12.600000000000023
 31
0.0
  0
LINE
  5
17F
100
AcDbEntity
  8
0
  6
CONTINUOUS
 62
             200
100
AcDbLine
 10
-1.2030418145767499
 20
16.400000000000034
 30
0.0
 11
-1.2030418145767499
 21
15.030000000000015
 31
0.0
  0
LINE
  5
180
100
AcDbEntity
  8
0
  6
CONTINUOUS
 62
               4
100
AcDbLine
 10
-1.4730418145767459
 20
16.400000000000034
 30
0.0
 11
-1.4730418145767459
 21
15.300000000000011
 31
0.0
  0
LINE
  5
181
100
AcDbEntity
  8
0
  6
CONTINUOUS
 62
               4
100
AcDbLine
 10
-2.0230418145767288
 20
13.300000000000011
 30
0.0
 11
-1.2730418145767288
 21
12.600000000000023
 31
0.0
  0
LINE
  5
182
100
AcDbEntity
  8
0
  6
CONTINUOUS
 62
               4
100
AcDbLine
 10
-1.2730418145767288
 20
12.600000000000023
 30
0.0
 11
-1.2730418145767288
 21
10.0
 31
0.0
  0
LINE
  5
183
100
AcDbEntity
  8
0
  6
CONTINUOUS
 62
               4
100
AcDbLine
 10
-2.0230418145767288
 20
13.300000000000011
 30
0.0
 11
-2.0230418145767288
 21
9.3000000000000114
 31
0.0
  0
LINE
  5
184
100
AcDbEntity
  8
0
  6
CONTINUOUS
 62
               4
100
AcDbLine
 10
-0.9730418145767459
 20
9.3000000000000114
 30
0.0
 11
-0.9730418145767459
 21
9.0
 31
0.0
  0
LINE
  5
185
100
AcDbEntity
  8
0
  6
CONTINUOUS
 62
               4
100
AcDbLine
 10
-0.9730418145767459
 20
13.600000000000023
 30
0.0
 11
-0.9730418145767459
 21
13.300000000000011
 31
0.0
  0
LINE
  5
186
100
AcDbEntity
  8
0
  6
CONTINUOUS
 62
               4
100
AcDbLine
 10
-3.2230418145767459
 20
15.0
 30
0.0
 11
-3.2230418145767459
 21
11.5
 31
0.0
  0
LINE
  5
187
100
AcDbEntity
  8
0
  6
CONTINUOUS
 62
               4
100
AcDbLine
 10
-3.2230418145767459
 20
11.5
 30
0.0
 11
-2.0230418145767288
 21
11.5
 31
0.0
  0
LINE
  5
188
100
AcDbEntity
  8
0
  6
CONTINUOUS
 62
               4
100
AcDbLine
 10
-3.2230418145767459
 20
11.100000000000023
 30
0.0
 11
-2.0230418145767288
 21
11.100000000000023
 31
0.0
  0
ARC
  5
189
100
AcDbEntity
  8
0
  6
CONTINUOUS
 62
               4
100
AcDbCircle
 10
-1.4727890471851168
 20
19.499747232608399
 30
0.0
 40
1.0002527993292285
100
AcDbArc
 50
90.014478844650384
 51
179.9855211553494
  0
ARC
  5
18A
100
AcDbEntity
  8
0
  6
CONTINUOUS
 62
               4
100
AcDbCircle
 10
-2.9730375244515841
 20
16.699995709874855
 30
0.0
 40
0.5000042901435589
100
AcDbArc
 50
90.000491607911769
 51
179.99950839208825
  0
ARC
  5
18B
100
AcDbEntity
  8
0
  6
CONTINUOUS
 62
               4
100
AcDbCircle
 10
-3.4730385610497336
 20
17.199996746473033
 30
0.0
 40
0.8000032535336057
100
AcDbArc
 50
90.000233015758738
 51
179.99976698424152
  0
LINE
  5
18C
100
AcDbEntity
  8
0
  6
CONTINUOUS
 62
               4
100
AcDbLine
 10
-2.4730418145767459
 20
19.5
 30
0.0
 11
-2.4730418145767459
 21
19.0
 31
0.0
  0
LINE
  5
18D
100
AcDbEntity
  8
0
  6
CONTINUOUS
 62
               4
100
AcDbLine
 10
-4.2730418145767288
 20
11.5
 30
0.0
 11
-3.4730418145767459
 21
11.5
 31
0.0
  0
LINE
  5
18E
100
AcDbEntity
  8
0
  6
CONTINUOUS
 62
               4
100
AcDbLine
 10
-1.4730418145767459
 20
19.0
 30
0.0
 11
-1.4730418145767459
 21
18.0
 31
0.0
  0
LINE
  5
18F
100
AcDbEntity
  8
0
  6
CONTINUOUS
 62
               4
100
AcDbLine
 10
-3.4730418145767459
 20
16.700000000000017
 30
0.0
 11
-3.3230418145767402
 21
16.700000000000017
 31
0.0
  0
LINE
  5
190
100
AcDbEntity
  8
0
  6
CONTINUOUS
 62
               4
100
AcDbLine
 10
-3.3230418145767402
 20
16.700000000000017
 30
0.0
 11
-3.3230418145767402
 21
11.5
 31
0.0
  0
LINE
  5
191
100
AcDbEntity
  8
0
  6
CONTINUOUS
 62
               4
100
AcDbLine
 10
-4.2730418145767288
 20
17.200000000000017
 30
0.0
 11
-4.2730418145767288
 21
11.5
 31
0.0
  0
LINE
  5
192
100
AcDbEntity
  8
0
  6
CONTINUOUS
 62
             200
100
AcDbLine
 10
-1.2030418145767499
 20
18.5
 30
0.0
 11
-1.2030418145767499
 21
18.0
 31
0.0
  0
LINE
  5
193
100
AcDbEntity
  8
0
  6
CONTINUOUS
 62
               4
100
AcDbLine
 10
-2.2580418145767425
 20
17.200000000000017
 30
0.0
 11
-2.1180418145767277
 21
16.400000000000034
 31
0.0
  0
LINE
  5
194
100
AcDbEntity
  8
0
  6
CONTINUOUS
 62
               4
100
AcDbLine
 10
-3.4730418145767459
 20
16.700000000000017
 30
0.0
 11
-3.4730418145767459
 21
11.5
 31
0.0
  0
LINE
  5
195
100
AcDbEntity
  8
0
  6
CONTINUOUS
 62
               4
100
AcDbLine
 10
-1.2730418145767572
 20
9.9999999999999716
 30
0.0
 11
-2.0230418145767572
 21
9.2999999999999829
 31
0.0
  0
LINE
  5
196
100
AcDbEntity
  8
0
  6
CONTINUOUS
 62
               4
100
AcDbLine
 10
-1.4730418145767459
 20
15.299999999999983
 30
0.0
 11
-1.1730418145767345
 21
15.0
 31
0.0
  0
LINE
  5
197
100
AcDbEntity
  8
0
  6
CONTINUOUS
 62
               4
100
AcDbLine
 10
4.9519581854232655
 20
14.404504064074942
 30
0.0
 11
7.4086896720848472
 21
6.8746484032105073
 31
0.0
  0
LINE
  5
198
100
AcDbEntity
  8
0
  6
CONTINUOUS
 62
               4
100
AcDbLine
 10
5.5500666240608609
 20
10.475709800948763
 30
0.0
 11
8.1077366663570842
 21
2.6364785495195591
 31
0.0
  0
LINE
  5
199
100
AcDbEntity
  8
0
  6
CONTINUOUS
 62
               4
100
AcDbLine
 10
4.4519581854232655
 20
14.325000000000017
 30
0.0
 11
8.2503386395500513
 21
2.6830046415699016
 31
0.0
  0
LINE
  5
19A
100
AcDbEntity
  8
0
  6
CONTINUOUS
 62
               4
100
AcDbLine
 10
3.2769581854232541
 20
15.0
 30
0.0
 11
3.2769581854232541
 21
8.5
 31
0.0
  0
LINE
  5
19B
100
AcDbEntity
  8
0
  6
CONTINUOUS
 62
               4
100
AcDbLine
 10
5.2389969006971739
 20
13.524733479936074
 30
0.0
 11
5.5769581854232513
 21
13.720000000000027
 31
0.0
  0
LINE
  5
19C
100
AcDbEntity
  8
0
  6
CONTINUOUS
 62
             200
100
AcDbLine
 10
1.2569581854232581
 20
16.400000000000034
 30
0.0
 11
1.2569581854232581
 21
15.029999999999987
 31
0.0
  0
LINE
  5
19D
100
AcDbEntity
  8
0
  6
CONTINUOUS
 62
               4
100
AcDbLine
 10
1.5269581854232541
 20
16.400000000000034
 30
0.0
 11
1.5269581854232541
 21
15.300000000000011
 31
0.0
  0
LINE
  5
19E
100
AcDbEntity
  8
0
  6
CONTINUOUS
 62
               4
100
AcDbLine
 10
1.3269581854232655
 20
10.0
 30
0.0
 11
2.0769581854232655
 21
9.3000000000000114
 31
0.0
  0
LINE
  5
19F
100
AcDbEntity
  8
0
  6
CONTINUOUS
 62
               4
100
AcDbLine
 10
1.3269581854232655
 20
12.600000000000023
 30
0.0
 11
2.0769581854232655
 21
13.300000000000011
 31
0.0
  0
LINE
  5
1A0
100
AcDbEntity
  8
0
  6
CONTINUOUS
 62
               4
100
AcDbLine
 10
1.3269581854232655
 20
12.600000000000023
 30
0.0
 11
1.3269581854232655
 21
10.0
 31
0.0
  0
LINE
  5
1A1
100
AcDbEntity
  8
0
  6
CONTINUOUS
 62
               4
100
AcDbLine
 10
1.0269581854232541
 20
9.3000000000000114
 30
0.0
 11
1.0269581854232541
 21
9.0
 31
0.0
  0
LINE
  5
1A2
100
AcDbEntity
  8
0
  6
CONTINUOUS
 62
               4
100
AcDbLine
 10
1.0269581854232541
 20
13.600000000000023
 30
0.0
 11
1.0269581854232541
 21
13.300000000000011
 31
0.0
  0
LINE
  5
1A3
100
AcDbEntity
  8
0
  6
CONTINUOUS
 62
               4
100
AcDbLine
 10
2.0769581854232655
 20
13.300000000000011
 30
0.0
 11
2.0769581854232655
 21
9.3000000000000114
 31
0.0
  0
ARC
  5
1A4
100
AcDbEntity
  8
0
  6
CONTINUOUS
 62
               4
100
AcDbCircle
 10
1.5283705072449578
 20
19.501412321821704
 30
0.0
 40
0.9985886769148223
100
AcDbArc
 50
359.91896552750444
 51
90.08103447249573
  0
ARC
  5
1A5
100
AcDbEntity
  8
0
  6
CONTINUOUS
 62
               4
100
AcDbCircle
 10
4.5281063847156275
 20
14.617355698085873
 30
0.0
 40
0.4988573627628728
100
AcDbArc
 50
330.55463170118378
 51
359.72943757107998
  0
ARC
  5
1A6
100
AcDbEntity
  8
0
  6
CONTINUOUS
 62
               4
100
AcDbCircle
 10
5.3267545215840357
 20
14.153134289562786
 30
0.0
 40
0.5002071432852633
100
AcDbArc
 50
300.01323949152282
 51
0.2137066276291702
  0
ARC
  5
1A7
100
AcDbEntity
  8
0
  6
CONTINUOUS
 62
               4
100
AcDbCircle
 10
3.0286207830771872
 20
16.701662597653922
 30
0.0
 40
0.4983401757915919
100
AcDbArc
 50
359.80884542337816
 51
90.191154576622267
  0
ARC
  5
1A8
100
AcDbEntity
  8
0
  6
CONTINUOUS
 62
               4
100
AcDbCircle
 10
3.5286207830780683
 20
17.201662597654803
 30
0.0
 40
0.7983391335856297
100
AcDbArc
 50
359.88067740450219
 51
90.11932259549755
  0
LINE
  5
1A9
100
AcDbEntity
  8
0
  6
CONTINUOUS
 62
               4
100
AcDbLine
 10
2.5269581854232541
 20
19.5
 30
0.0
 11
2.5269581854232541
 21
19.0
 31
0.0
  0
LINE
  5
1AA
100
AcDbEntity
  8
0
  6
CONTINUOUS
 62
               4
100
AcDbLine
 10
3.5269581854232541
 20
10.800000000000011
 30
0.0
 11
4.3269581854232655
 21
10.800000000000011
 31
0.0
  0
LINE
  5
1AB
100
AcDbEntity
  8
0
  6
CONTINUOUS
 62
               4
100
AcDbLine
 10
1.5269581854232541
 20
19.0
 30
0.0
 11
1.5269581854232541
 21
18.0
 31
0.0
  0
LINE
  5
1AC
100
AcDbEntity
  8
0
  6
CONTINUOUS
 62
               4
100
AcDbLine
 10
4.4519581854232655
 20
16.825000000000017
 30
0.0
 11
4.9519581854232655
 21
16.825000000000017
 31
0.0
  0
LINE
  5
1AD
100
AcDbEntity
  8
0
  6
CONTINUOUS
 62
               4
100
AcDbLine
 10
4.9519581854232655
 20
16.825000000000017
 30
0.0
 11
4.9519581854232655
 21
14.404504064074942
 31
0.0
  0
LINE
  5
1AE
100
AcDbEntity
  8
0
  6
CONTINUOUS
 62
               4
100
AcDbLine
 10
4.4519581854232655
 20
16.825000000000017
 30
0.0
 11
4.4519581854232655
 21
14.325000000000017
 31
0.0
  0
LINE
  5
1AF
100
AcDbEntity
  8
0
  6
CONTINUOUS
 62
               4
100
AcDbLine
 10
4.3269581854232655
 20
13.924000000000014
 30
0.0
 11
4.5410629547743184
 21
14.048180766223624
 31
0.0
  0
LINE
  5
1B0
100
AcDbEntity
  8
0
  6
CONTINUOUS
 62
               4
100
AcDbLine
 10
5.8269581854232513
 20
16.300000000000011
 30
0.0
 11
5.8269581854232513
 21
14.15500000000003
 31
0.0
  0
LINE
  5
1B1
100
AcDbEntity
  8
0
  6
CONTINUOUS
 62
               4
100
AcDbLine
 10
4.3269581854232655
 20
10.800000000000011
 30
0.0
 11
4.3269581854232655
 21
17.200000000000017
 31
0.0
  0
LINE
  5
1B2
100
AcDbEntity
  8
0
  6
CONTINUOUS
 62
             200
100
AcDbLine
 10
1.2569581854232581
 20
18.5
 30
0.0
 11
1.2569581854232581
 21
18.0
 31
0.0
  0
LINE
  5
1B3
100
AcDbEntity
  8
0
  6
CONTINUOUS
 62
               4
100
AcDbLine
 10
2.3119581854232791
 20
17.200000000000017
 30
0.0
 11
2.1719581854232644
 21
16.400000000000034
 31
0.0
  0
LINE
  5
1B4
100
AcDbEntity
  8
0
  6
CONTINUOUS
 62
               4
100
AcDbLine
 10
5.0269581854232541
 20
16.300000000000011
 30
0.0
 11
5.8269581854232513
 21
16.300000000000011
 31
0.0
  0
LINE
  5
1B5
100
AcDbEntity
  8
0
  6
CONTINUOUS
 62
               4
100
AcDbLine
 10
5.0269581854232541
 20
16.300000000000011
 30
0.0
 11
5.0269581854232541
 21
14.615000000000009
 31
0.0
  0
LINE
  5
1B6
100
AcDbEntity
  8
0
  6
CONTINUOUS
 62
               4
100
AcDbLine
 10
4.3269581854232655
 20
12.997777777777799
 30
0.0
 11
4.796476509389521
 21
13.269055031624973
 31
0.0
  0
LINE
  5
1B7
100
AcDbEntity
  8
0
  6
CONTINUOUS
 62
               4
100
AcDbLine
 10
3.5269581854232541
 20
16.700000000000017
 30
0.0
 11
3.5269581854232541
 21
10.800000000000011
 31
0.0
  0
LINE
  5
1B8
100
AcDbEntity
  8
0
  6
CONTINUOUS
 62
               4
100
AcDbLine
 10
5.6926539734324706
 20
10.522280714854688
 30
0.0
 11
5.5500520002395035
 21
10.475754622804345
 31
0.0
  0
LINE
  5
1B9
100
AcDbEntity
  8
0
  6
CONTINUOUS
 62
               4
100
AcDbLine
 10
1.5269581854232541
 20
15.299999999999983
 30
0.0
 11
1.2269581854232712
 21
15.0
 31
0.0
  0
ARC
  5
1BA
100
AcDbEntity
  8
0
  6
CONTINUOUS
 62
               4
100
AcDbCircle
 10
0.0269581854232541
 20
0.0
 30
0.0
 40
8.6500000000000004
100
AcDbArc
 50
150.9072739383557
 51
18.06971365394454
  0
LINE
  5
1BB
100
AcDbEntity
  8
0
  6
CONTINUOUS
 62
               4
100
AcDbLine
 10
-2.754924003047293
 20
8.0318821884705471
 30
0.0
 11
-3.2230418145767459
 21
8.5
 31
0.0
  0
LINE
  5
1BC
100
AcDbEntity
  8
0
  6
CONTINUOUS
 62
               4
100
AcDbLine
 10
2.8088403738938013
 20
8.0318821884705471
 30
0.0
 11
3.2769581854232541
 21
8.5
 31
0.0
  0
LINE
  5
1BD
100
AcDbEntity
  8
0
  6
CONTINUOUS
 62
               4
100
AcDbLine
 10
6.9661692807771942
 20
6.6189699548994128
 30
0.0
 11
7.4086896720848472
 21
6.8746484032105073
 31
0.0
  0
LINE
  5
1BE
100
AcDbEntity
  8
0
  6
CONTINUOUS
 62
               7
100
AcDbLine
 10
3.2769581854232541
 20
8.5
 30
0.0
 11
4.2426406871193052
 21
8.5
 31
0.0
  0
ARC
  5
1BF
100
AcDbEntity
  8
0
  6
CONTINUOUS
 62
               7
100
AcDbCircle
 10
0.0000000000000142
 20
0.0
 30
0.0
 40
9.5
100
AcDbArc
 50
126.1440652471542
 51
153.4746479833903
  0
ARC
  5
1C0
100
AcDbEntity
  8
0
  6
CONTINUOUS
 62
               7
100
AcDbCircle
 10
0.0000000000000142
 20
0.0
 30
0.0
 40
9.5
100
AcDbArc
 50
26.525352016609691
 51
42.11494739533466
  0
LINE
  5
1C1
100
AcDbEntity
  8
0
  6
CONTINUOUS
 62
               7
100
AcDbLine
 10
8.5000000000000142
 20
-1.7407074448148272
 30
0.0
 11
8.5000000000000142
 21
-4.2426406871192839
 31
0.0
  0
LINE
  5
1C2
100
AcDbEntity
  8
0
  6
CONTINUOUS
 62
               7
100
AcDbLine
 10
-8.4999999999999858
 20
1.4537826880395883
 30
0.0
 11
-8.4999999999999858
 21
4.2426406871192839
 31
0.0
  0
LINE
  5
1C3
100
AcDbEntity
  8
0
  6
CONTINUOUS
 62
               7
100
AcDbLine
 10
1.6308596786577993
 20
-8.5
 30
0.0
 11
4.2426406871193052
 21
-8.5
 31
0.0
  0
ENDBLK
  5
1C4
100
AcDbEntity
  8
0
100
AcDbBlockEnd
  0
BLOCK
  5
1C5
100
AcDbEntity
  8
0
100
AcDbBlockBegin
  2
CS-PBSAS16-4
 70
               0
 10
0.0
 20
0.0
 30
0.0
  3
CS-PBSAS16-4
  1

  0
LINE
  5
1C6
100
AcDbEntity
  8
0
  6
CONTINUOUS
 62
               4
100
AcDbLine
 10
15.499999990463266
 20
1.2999999999999687
 30
0.0
 11
15.499999990463266
 21
-1.3000000000000256
 31
0.0
  0
LINE
  5
1C7
100
AcDbEntity
  8
0
  6
CENTER
 62
             200
100
AcDbLine
 10
-14.634076711158585
 20
-0.0000000000000142
 30
0.0
 11
21.671576029108593
 21
-0.0000000000000142
 31
0.0
  0
LINE
  5
1C8
100
AcDbEntity
  8
0
  6
CENTER
 62
             200
100
AcDbLine
 10
0.0
 20
7.2999999999999972
 30
0.0
 11
0.0
 21
-7.4200000000000017
 31
0.0
  0
LINE
  5
1C9
100
AcDbEntity
  8
0
  6
CONTINUOUS
 62
               4
100
AcDbLine
 10
2.0
 20
5.8644789379659841
 30
0.0
 11
2.0
 21
4.847194948261162
 31
0.0
  0
LINE
  5
1CA
100
AcDbEntity
  8
0
  6
CONTINUOUS
 62
               4
100
AcDbLine
 10
4.5
 20
-5.6499999999999915
 30
0.0
 11
4.5
 21
5.8644789379659841
 31
0.0
  0
LINE
  5
1CB
100
AcDbEntity
  8
0
  6
CONTINUOUS
 62
               4
100
AcDbLine
 10
-4.5
 20
-5.6499999999999915
 30
0.0
 11
-4.5
 21
5.8644789379659841
 31
0.0
  0
LINE
  5
1CC
100
AcDbEntity
  8
0
  6
CONTINUOUS
 62
               4
100
AcDbLine
 10
-4.4999999783108535
 20
4.847194948261162
 30
0.0
 11
4.5000000216891465
 21
4.847194948261162
 31
0.0
  0
LINE
  5
1CD
100
AcDbEntity
  8
0
  6
CONTINUOUS
 62
             200
100
AcDbLine
 10
20.436999077164955
 20
1.2999999999999687
 30
0.0
 11
17.836999077164961
 21
-1.3000000000000256
 31
0.0
  0
LINE
  5
1CE
100
AcDbEntity
  8
0
  6
CONTINUOUS
 62
               4
100
AcDbLine
 10
12.5
 20
-2.0000000000000142
 30
0.0
 11
15.499999990463266
 21
-1.3000000000000256
 31
0.0
  0
LINE
  5
1CF
100
AcDbEntity
  8
0
  6
CONTINUOUS
 62
               4
100
AcDbLine
 10
15.499999990463266
 20
-1.3000000000000256
 30
0.0
 11
17.836999077164961
 21
-1.3000000000000256
 31
0.0
  0
LINE
  5
1D0
100
AcDbEntity
  8
0
  6
CONTINUOUS
 62
               4
100
AcDbLine
 10
15.499999990463266
 20
1.2999999999999687
 30
0.0
 11
20.436999077164955
 21
1.2999999999999687
 31
0.0
  0
LINE
  5
1D1
100
AcDbEntity
  8
0
  6
CONTINUOUS
 62
               4
100
AcDbLine
 10
12.5
 20
1.9999999999999858
 30
0.0
 11
15.5
 21
1.2999999999999687
 31
0.0
  0
LINE
  5
1D2
100
AcDbEntity
  8
0
  6
CONTINUOUS
 62
               4
100
AcDbLine
 10
-4.5000000095367341
 20
4.3000366885747923
 30
0.0
 11
4.5
 21
4.3000366885747923
 31
0.0
  0
LINE
  5
1D3
100
AcDbEntity
  8
0
  6
CONTINUOUS
 62
               4
100
AcDbLine
 10
-4.5000000095367341
 20
-4.3000000000000256
 30
0.0
 11
4.5
 21
-4.3000000000000256
 31
0.0
  0
LINE
  5
1D4
100
AcDbEntity
  8
0
  6
CONTINUOUS
 62
               4
100
AcDbLine
 10
-6.9999999999999929
 20
-3.2500000000000142
 30
0.0
 11
-6.9999999999999929
 21
3.2499999999999858
 31
0.0
  0
LINE
  5
1D5
100
AcDbEntity
  8
0
  6
CONTINUOUS
 62
               4
100
AcDbLine
 10
-4.5
 20
-5.6499999999999915
 30
0.0
 11
4.5
 21
-5.6499999999999915
 31
0.0
  0
LINE
  5
1D6
100
AcDbEntity
  8
0
  6
CONTINUOUS
 62
               4
100
AcDbLine
 10
1.1099999999999994
 20
-1.1000000000000085
 30
0.0
 11
1.0600000000000023
 21
-1.0600000000000165
 31
0.0
  0
LINE
  5
1D7
100
AcDbEntity
  8
0
  6
CONTINUOUS
 62
               4
100
AcDbLine
 10
-1.0625665859564126
 20
-1.062566585956418
 30
0.0
 11
1.0574334140435919
 21
1.0574334140435582
 31
0.0
  0
LINE
  5
1D8
100
AcDbEntity
  8
0
  6
CONTINUOUS
 62
               4
100
AcDbLine
 10
1.0074334140435948
 20
-1.0025665859564157
 30
0.0
 11
-1.0625665859564126
 21
1.0574334140435582
 31
0.0
  0
LINE
  5
1D9
100
AcDbEntity
  8
0
  6
CONTINUOUS
 62
               4
100
AcDbLine
 10
12.5
 20
1.9999999999999858
 30
0.0
 11
12.5
 21
-2.0000000000000142
 31
0.0
  0
LINE
  5
1DA
100
AcDbEntity
  8
0
  6
CONTINUOUS
 62
               4
100
AcDbLine
 10
-12.499999999999993
 20
0.9999999999999858
 30
0.0
 11
-12.499999999999993
 21
-1.0000000000000142
 31
0.0
  0
LINE
  5
1DB
100
AcDbEntity
  8
0
  6
CONTINUOUS
 62
               4
100
AcDbLine
 10
-11.499999999999993
 20
-2.0000000000000142
 30
0.0
 11
-6.9999999999999929
 21
-2.0000000000000142
 31
0.0
  0
LINE
  5
1DC
100
AcDbEntity
  8
0
  6
CONTINUOUS
 62
               4
100
AcDbLine
 10
-11.499999999999993
 20
1.9999999999999858
 30
0.0
 11
-6.9999999999999929
 21
1.9999999999999858
 31
0.0
  0
LINE
  5
1DD
100
AcDbEntity
  8
0
  6
CONTINUOUS
 62
               4
100
AcDbLine
 10
-11.499999999999993
 20
1.9999999999999858
 30
0.0
 11
-11.499999999999993
 21
-2.0000000000000142
 31
0.0
  0
LINE
  5
1DE
100
AcDbEntity
  8
0
  6
CONTINUOUS
 62
               4
100
AcDbLine
 10
-12.499999999999993
 20
0.9999999999999858
 30
0.0
 11
-11.499999999999993
 21
1.9999999999999858
 31
0.0
  0
LINE
  5
1DF
100
AcDbEntity
  8
0
  6
CONTINUOUS
 62
               4
100
AcDbLine
 10
-12.499999999999993
 20
-1.0000000000000142
 30
0.0
 11
-11.499999999999993
 21
-2.0000000000000142
 31
0.0
  0
LINE
  5
1E0
100
AcDbEntity
  8
0
  6
CONTINUOUS
 62
               4
100
AcDbLine
 10
-6.9999999999999929
 20
-3.2500000000000142
 30
0.0
 11
-4.5
 21
-3.2500000000000142
 31
0.0
  0
LINE
  5
1E1
100
AcDbEntity
  8
0
  6
CONTINUOUS
 62
               4
100
AcDbLine
 10
-6.9999999999999929
 20
3.2499999999999858
 30
0.0
 11
-4.5
 21
3.2499999999999858
 31
0.0
  0
LINE
  5
1E2
100
AcDbEntity
  8
0
  6
CONTINUOUS
 62
               4
100
AcDbLine
 10
7.0
 20
-3.2500000000000142
 30
0.0
 11
7.0
 21
3.2499999999999858
 31
0.0
  0
LINE
  5
1E3
100
AcDbEntity
  8
0
  6
CONTINUOUS
 62
               4
100
AcDbLine
 10
4.5
 20
3.2499999999999858
 30
0.0
 11
7.0
 21
3.2499999999999858
 31
0.0
  0
LINE
  5
1E4
100
AcDbEntity
  8
0
  6
CONTINUOUS
 62
               4
100
AcDbLine
 10
4.5
 20
-3.2500000000000142
 30
0.0
 11
7.0
 21
-3.2500000000000142
 31
0.0
  0
LINE
  5
1E5
100
AcDbEntity
  8
0
  6
CONTINUOUS
 62
               4
100
AcDbLine
 10
7.0
 20
1.9999999999999858
 30
0.0
 11
12.5
 21
1.9999999999999858
 31
0.0
  0
LINE
  5
1E6
100
AcDbEntity
  8
0
  6
CONTINUOUS
 62
               4
100
AcDbLine
 10
7.0
 20
-2.0000000000000142
 30
0.0
 11
12.5
 21
-2.0000000000000142
 31
0.0
  0
CIRCLE
  5
1E7
100
AcDbEntity
  8
0
  6
CONTINUOUS
 62
               4
100
AcDbCircle
 10
-0.0008752441406159
 20
-0.0024584960937517
 30
0.0
 40
2.5
  0
LINE
  5
1E8
100
AcDbEntity
  8
0
  6
CONTINUOUS
 62
               4
100
AcDbLine
 10
-2.0000000095367341
 20
5.0999999999999801
 30
0.0
 11
1.9999999904632659
 21
5.0999999999999801
 31
0.0
  0
LINE
  5
1E9
100
AcDbEntity
  8
0
  6
CONTINUOUS
 62
               4
100
AcDbLine
 10
-4.4999999783108535
 20
5.8644789379659841
 30
0.0
 11
4.5000000216891465
 21
5.8644789379659841
 31
0.0
  0
LINE
  5
1EA
100
AcDbEntity
  8
0
  6
CONTINUOUS
 62
               4
100
AcDbLine
 10
-2.0
 20
4.847194948261162
 30
0.0
 11
-2.0
 21
5.8644789379659841
 31
0.0
  0
ENDBLK
  5
1EB
100
AcDbEntity
  8
0
100
AcDbBlockEnd
  0
BLOCK
  5
1EC
100
AcDbEntity
  8
0
100
AcDbBlockBegin
  2
CS-PBSAS16-5
 70
               0
 10
0.0
 20
0.0
 30
0.0
  3
CS-PBSAS16-5
  1

  0
LINE
  5
1ED
100
AcDbEntity
  8
0
  6
CENTER
 62
             200
100
AcDbLine
 10
-14.600000000000023
 20
-8.8289725330620286
 30
0.0
 11
-14.600000000000023
 21
-16.711983723296044
 31
0.0
  0
LINE
  5
1EE
100
AcDbEntity
  8
0
  6
CENTER
 62
             200
100
AcDbLine
 10
14.599999999999966
 20
-8.8289725330620286
 30
0.0
 11
14.599999999999966
 21
-16.711983723296044
 31
0.0
  0
CIRCLE
  5
1EF
100
AcDbEntity
  8
0
  6
CONTINUOUS
 62
               4
100
AcDbCircle
 10
0.0
 20
0.0
 30
0.0
 40
6.0
  0
LINE
  5
1F0
100
AcDbEntity
  8
0
  6
CONTINUOUS
 62
               4
100
AcDbLine
 10
-21.00000000500853
 20
-14.0
 30
0.0
 11
20.99999999499147
 21
-14.0
 31
0.0
  0
LINE
  5
1F1
100
AcDbEntity
  8
0
  6
CONTINUOUS
 62
               4
100
AcDbLine
 10
-21.00000000500853
 20
-11.699999999999989
 30
0.0
 11
20.99999999499147
 21
-11.699999999999989
 31
0.0
  0
ARC
  5
1F2
100
AcDbEntity
  8
0
  6
CONTINUOUS
 62
               4
100
AcDbCircle
 10
0.0
 20
0.0
 30
0.0
 40
10.0
100
AcDbArc
 50
36.294600266468315
 51
143.70539973353175
  0
LINE
  5
1F3
100
AcDbEntity
  8
0
  6
CONTINUOUS
 62
               4
100
AcDbLine
 10
-21.0
 20
-13.999999987824367
 30
0.0
 11
-21.0
 21
-11.699999999999989
 31
0.0
  0
LINE
  5
1F4
100
AcDbEntity
  8
0
  6
CONTINUOUS
 62
               4
100
AcDbLine
 10
21.0
 20
-13.999999987824367
 30
0.0
 11
21.0
 21
-11.699999999999989
 31
0.0
  0
LINE
  5
1F5
100
AcDbEntity
  8
0
  6
CONTINUOUS
 62
               4
100
AcDbLine
 10
21.0
 20
-11.699999999999989
 30
0.0
 11
8.0598407184369307
 21
5.9193722296731721
 31
0.0
  0
LINE
  5
1F6
100
AcDbEntity
  8
0
  6
CONTINUOUS
 62
               4
100
AcDbLine
 10
-21.0
 20
-11.699999999999989
 30
0.0
 11
-8.0598407184369592
 21
5.9193722296731721
 31
0.0
  0
LINE
  5
1F7
100
AcDbEntity
  8
0
  6
CENTER
 62
             200
100
AcDbLine
 10
9.0
 20
0.0
 30
0.0
 11
-9.0
 21
0.0
 31
0.0
  0
LINE
  5
1F8
100
AcDbEntity
  8
0
  6
CENTER
 62
             200
100
AcDbLine
 10
0.0
 20
9.0
 30
0.0
 11
0.0
 21
-9.0
 31
0.0
  0
ENDBLK
  5
1F9
100
AcDbEntity
  8
0
100
AcDbBlockEnd
  0
BLOCK
  5
1FA
100
AcDbEntity
  8
0
100
AcDbBlockBegin
  2
CS-PBSAS16-6
 70
               0
 10
0.0
 20
0.0
 30
0.0
  3
CS-PBSAS16-6
  1

  0
LINE
  5
1FB
100
AcDbEntity
  8
0
  6
CENTER
 62
             200
100
AcDbLine
 10
-9.0
 20
-15.89014243861925
 30
0.0
 11
-9.0
 21
-8.58386543198759
 31
0.0
  0
LINE
  5
1FC
100
AcDbEntity
  8
0
  6
CONTINUOUS
 62
               4
100
AcDbLine
 10
-14.999999985231653
 20
-14.0
 30
0.0
 11
-3.4499999733107245
 21
-14.0
 31
0.0
  0
LINE
  5
1FD
100
AcDbEntity
  8
0
  6
CONTINUOUS
 62
               4
100
AcDbLine
 10
-14.999999985231653
 20
-11.699999999999989
 30
0.0
 11
-3.4499999733107245
 21
-11.699999999999989
 31
0.0
  0
LINE
  5
1FE
100
AcDbEntity
  8
0
  6
CONTINUOUS
 62
               4
100
AcDbLine
 10
-2.2999999971525824
 20
10.0
 30
0.0
 11
0.0
 21
10.0
 31
0.0
  0
LINE
  5
1FF
100
AcDbEntity
  8
0
  6
CONTINUOUS
 62
               4
100
AcDbLine
 10
0.0
 20
-10.549999999745296
 30
0.0
 11
0.0
 21
10.0
 31
0.0
  0
LINE
  5
200
100
AcDbEntity
  8
0
  6
CONTINUOUS
 62
               4
100
AcDbLine
 10
-2.2999999999999829
 20
-10.549999999745296
 30
0.0
 11
-2.2999999999999829
 21
10.0
 31
0.0
  0
ARC
  5
201
100
AcDbEntity
  8
0
  6
CONTINUOUS
 62
               4
100
AcDbCircle
 10
-3.4499999999999886
 20
-10.549999999999955
 30
0.0
 40
1.1499999999999999
100
AcDbArc
 50
270.0
 51
0.0
  0
ARC
  5
202
100
AcDbEntity
  8
0
  6
CONTINUOUS
 62
               4
100
AcDbCircle
 10
-3.4499999999999886
 20
-10.549999999999955
 30
0.0
 40
3.4499999999999957
100
AcDbArc
 50
270.0
 51
0.0
  0
LINE
  5
203
100
AcDbEntity
  8
0
  6
CONTINUOUS
 62
               4
100
AcDbLine
 10
-15.0
 20
-14.0
 30
0.0
 11
-15.0
 21
-11.699999999999989
 31
0.0
  0
LINE
  5
204
100
AcDbEntity
  8
0
  6
CENTER
 62
             200
100
AcDbLine
 10
-4.1668041714535491
 20
0.0
 30
0.0
 11
2.1653025894028985
 21
0.0
 31
0.0
  0
LINE
  5
205
100
AcDbEntity
  8
0
  6
CONTINUOUS
 62
               4
100
AcDbLine
 10
-11.599999999999994
 20
-13.999999987824367
 30
0.0
 11
-11.599999999999994
 21
-11.699999999999989
 31
0.0
  0
LINE
  5
206
100
AcDbEntity
  8
0
  6
CONTINUOUS
 62
               4
100
AcDbLine
 10
-6.4000000000000057
 20
-13.999999987824367
 30
0.0
 11
-6.4000000000000057
 21
-11.699999999999989
 31
0.0
  0
ENDBLK
  5
207
100
AcDbEntity
  8
0
100
AcDbBlockEnd
  0
BLOCK
  5
208
100
AcDbEntity
  8
0
100
AcDbBlockBegin
  2
CS-PBSAS16-7
 70
               0
 10
0.0
 20
0.0
 30
0.0
  3
CS-PBSAS16-7
  1

  0
LINE
  5
209
100
AcDbEntity
  8
0
  6
CONTINUOUS
 62
               4
100
AcDbLine
 10
-21.00000000500853
 20
-6.0
 30
0.0
 11
21.0
 21
-6.0
 31
0.0
  0
LINE
  5
20A
100
AcDbEntity
  8
0
  6
CONTINUOUS
 62
               4
100
AcDbLine
 10
21.0
 20
-6.0000000184217583
 30
0.0
 11
21.0
 21
-2.5999999999999659
 31
0.0
  0
LINE
  5
20B
100
AcDbEntity
  8
0
  6
CONTINUOUS
 62
               4
100
AcDbLine
 10
-21.00000000500853
 20
-6.0000000184217583
 30
0.0
 11
-21.00000000500853
 21
-2.5999999999999659
 31
0.0
  0
LINE
  5
20C
100
AcDbEntity
  8
0
  6
CONTINUOUS
 62
               4
100
AcDbLine
 10
-21.00000000500853
 20
9.0
 30
0.0
 11
20.99999999499147
 21
9.0
 31
0.0
  0
LINE
  5
20D
100
AcDbEntity
  8
0
  6
CONTINUOUS
 62
               4
100
AcDbLine
 10
-21.00000000500853
 20
6.7000000000000171
 30
0.0
 11
20.99999999499147
 21
6.7000000000000171
 31
0.0
  0
LINE
  5
20E
100
AcDbEntity
  8
0
  6
CENTER
 62
             200
100
AcDbLine
 10
0.0
 20
-8.9283760901503229
 30
0.0
 11
0.0
 21
12.852804284747492
 31
0.0
  0
LINE
  5
20F
100
AcDbEntity
  8
0
  6
CENTER
 62
             200
100
AcDbLine
 10
-21.00000000500853
 20
0.0
 30
0.0
 11
20.99999999499147
 21
0.0
 31
0.0
  0
LINE
  5
210
100
AcDbEntity
  8
0
  6
CONTINUOUS
 62
               4
100
AcDbLine
 10
-21.00000000500853
 20
2.6000000000000227
 30
0.0
 11
-14.600000000000023
 21
2.6000000000000227
 31
0.0
  0
LINE
  5
211
100
AcDbEntity
  8
0
  6
CONTINUOUS
 62
               4
100
AcDbLine
 10
-21.00000000500853
 20
-2.5999999999999659
 30
0.0
 11
-14.600000000000023
 21
-2.5999999999999659
 31
0.0
  0
ARC
  5
212
100
AcDbEntity
  8
0
  6
CONTINUOUS
 62
               4
100
AcDbCircle
 10
14.599999999999966
 20
0.0
 30
0.0
 40
2.5999999999999943
100
AcDbArc
 50
90.0
 51
270.0
  0
ARC
  5
213
100
AcDbEntity
  8
0
  6
CONTINUOUS
 62
               4
100
AcDbCircle
 10
-14.600000000000023
 20
0.0
 30
0.0
 40
2.5999999999999943
100
AcDbArc
 50
270.0
 51
90.0
  0
LINE
  5
214
100
AcDbEntity
  8
0
  6
CONTINUOUS
 62
               4
100
AcDbLine
 10
14.599999999999966
 20
2.6000000000000227
 30
0.0
 11
20.99999999499147
 21
2.6000000000000227
 31
0.0
  0
LINE
  5
215
100
AcDbEntity
  8
0
  6
CONTINUOUS
 62
               4
100
AcDbLine
 10
14.599999999999966
 20
-2.5999999999999659
 30
0.0
 11
20.99999999499147
 21
-2.5999999999999659
 31
0.0
  0
LINE
  5
216
100
AcDbEntity
  8
0
  6
CONTINUOUS
 62
               4
100
AcDbLine
 10
21.0
 20
2.6000000000000227
 30
0.0
 11
21.0
 21
8.9999999815782417
 31
0.0
  0
LINE
  5
217
100
AcDbEntity
  8
0
  6
CONTINUOUS
 62
               4
100
AcDbLine
 10
-21.00000000500853
 20
2.6000000000000227
 30
0.0
 11
-21.00000000500853
 21
8.9999999815782417
 31
0.0
  0
LINE
  5
218
100
AcDbEntity
  8
0
  6
CENTER
 62
             200
100
AcDbLine
 10
-14.600000000000023
 20
-4.0
 30
0.0
 11
-14.600000000000023
 21
4.0
 31
0.0
  0
LINE
  5
219
100
AcDbEntity
  8
0
  6
CENTER
 62
             200
100
AcDbLine
 10
14.599999999999966
 20
-4.0
 30
0.0
 11
14.599999999999966
 21
4.0
 31
0.0
  0
ENDBLK
  5
21A
100
AcDbEntity
  8
0
100
AcDbBlockEnd
  0
BLOCK
  5
21B
100
AcDbEntity
  8
0
100
AcDbBlockBegin
  2
CS-PBSAS16-8
 70
               0
 10
0.0
 20
0.0
 30
0.0
  3
CS-PBSAS16-8
  1

  0
LINE
  5
21C
100
AcDbEntity
  8
0
  6
CENTER
 62
             200
100
AcDbLine
 10
0.0
 20
-15.60510487124094
 30
0.0
 11
0.0
 21
13.892035626697435
 31
0.0
  0
LINE
  5
21D
100
AcDbEntity
  8
0
  6
CENTER
 62
             200
100
AcDbLine
 10
-21.000000024277711
 20
0.0
 30
0.0
 11
21.0
 21
0.0
 31
0.0
  0
LINE
  5
21E
100
AcDbEntity
  8
0
  6
CONTINUOUS
 62
               4
100
AcDbLine
 10
-21.0
 20
2.5999999999999943
 30
0.0
 11
-21.0
 21
9.9999999924027065
 31
0.0
  0
LINE
  5
21F
100
AcDbEntity
  8
0
  6
CONTINUOUS
 62
               4
100
AcDbLine
 10
21.0
 20
-10.000000007597293
 30
0.0
 11
21.0
 21
-2.5999999999999943
 31
0.0
  0
LINE
  5
220
100
AcDbEntity
  8
0
  6
CONTINUOUS
 62
               4
100
AcDbLine
 10
-21.000000024277711
 20
10.0
 30
0.0
 11
21.0
 21
10.0
 31
0.0
  0
LINE
  5
221
100
AcDbEntity
  8
0
  6
CONTINUOUS
 62
               4
100
AcDbLine
 10
-21.000000024277711
 20
-10.0
 30
0.0
 11
21.0
 21
-10.0
 31
0.0
  0
CIRCLE
  5
222
100
AcDbEntity
  8
0
  6
CONTINUOUS
 62
               4
100
AcDbCircle
 10
0.0
 20
0.0
 30
0.0
 40
6.0
  0
ARC
  5
223
100
AcDbEntity
  8
0
  6
CONTINUOUS
 62
               4
100
AcDbCircle
 10
14.599999999999994
 20
0.0
 30
0.0
 40
2.6000000000000001
100
AcDbArc
 50
90.0
 51
270.0
  0
LINE
  5
224
100
AcDbEntity
  8
0
  6
CONTINUOUS
 62
               4
100
AcDbLine
 10
14.599999999999994
 20
2.5999999999999943
 30
0.0
 11
21.0
 21
2.5999999999999943
 31
0.0
  0
LINE
  5
225
100
AcDbEntity
  8
0
  6
CONTINUOUS
 62
               4
100
AcDbLine
 10
14.599999999999994
 20
-2.5999999999999943
 30
0.0
 11
21.0
 21
-2.5999999999999943
 31
0.0
  0
LINE
  5
226
100
AcDbEntity
  8
0
  6
CONTINUOUS
 62
               4
100
AcDbLine
 10
21.0
 20
2.5999999999999943
 30
0.0
 11
21.0
 21
10.0
 31
0.0
  0
LINE
  5
227
100
AcDbEntity
  8
0
  6
CONTINUOUS
 62
               4
100
AcDbLine
 10
-14.599999999999994
 20
2.5999999999999943
 30
0.0
 11
-21.0
 21
2.5999999999999943
 31
0.0
  0
LINE
  5
228
100
AcDbEntity
  8
0
  6
CONTINUOUS
 62
               4
100
AcDbLine
 10
-14.599999999999994
 20
-2.5999999999999943
 30
0.0
 11
-21.0
 21
-2.5999999999999943
 31
0.0
  0
ARC
  5
229
100
AcDbEntity
  8
0
  6
CONTINUOUS
 62
               4
100
AcDbCircle
 10
-14.599999999999994
 20
0.0
 30
0.0
 40
2.6000000000000001
100
AcDbArc
 50
270.0
 51
90.0
  0
LINE
  5
22A
100
AcDbEntity
  8
0
  6
CONTINUOUS
 62
               4
100
AcDbLine
 10
-21.000000024277711
 20
-10.0
 30
0.0
 11
-21.000000024277711
 21
-2.5999999999999943
 31
0.0
  0
LINE
  5
22B
100
AcDbEntity
  8
0
  6
CENTER
 62
             200
100
AcDbLine
 10
14.599999999999994
 20
-4.229082697373201
 30
0.0
 11
14.599999999999994
 21
4.4517743260886959
 31
0.0
  0
LINE
  5
22C
100
AcDbEntity
  8
0
  6
CENTER
 62
             200
100
AcDbLine
 10
-14.599999999999994
 20
-4.229082697373201
 30
0.0
 11
-14.599999999999994
 21
4.4517743260886959
 31
0.0
  0
ENDBLK
  5
22D
100
AcDbEntity
  8
0
100
AcDbBlockEnd
  0
BLOCK
  5
22E
100
AcDbEntity
  8
0
100
AcDbBlockBegin
  2
CS-PBSAS16-9
 70
               0
 10
0.0
 20
0.0
 30
0.0
  3
CS-PBSAS16-9
  1

  0
LINE
  5
22F
100
AcDbEntity
  8
0
  6
CONTINUOUS
 62
               4
100
AcDbLine
 10
0.0
 20
-10.000000007597293
 30
0.0
 11
0.0
 21
9.9999999924027065
 31
0.0
  0
LINE
  5
230
100
AcDbEntity
  8
0
  6
CONTINUOUS
 62
               4
100
AcDbLine
 10
-2.2999999999999829
 20
-10.000000007597293
 30
0.0
 11
-2.2999999999999829
 21
10.0
 31
0.0
  0
LINE
  5
231
100
AcDbEntity
  8
0
  6
CONTINUOUS
 62
               4
100
AcDbLine
 10
-2.2999999945096761
 20
10.0
 30
0.0
 11
0.0000000174112529
 21
10.0
 31
0.0
  0
LINE
  5
232
100
AcDbEntity
  8
0
  6
CONTINUOUS
 62
               4
100
AcDbLine
 10
-2.2999999945096761
 20
-10.0
 30
0.0
 11
0.0000000174112529
 21
-10.0
 31
0.0
  0
LINE
  5
233
100
AcDbEntity
  8
0
  6
CENTER
 62
             200
100
AcDbLine
 10
-3.9393688193148648
 20
0.0
 30
0.0
 11
1.8003345007556391
 21
0.0
 31
0.0
  0
LINE
  5
234
100
AcDbEntity
  8
0
  6
CONTINUOUS
 62
               4
100
AcDbLine
 10
-2.2999999945096761
 20
2.5999999999999943
 30
0.0
 11
0.0000000174112529
 21
2.5999999999999943
 31
0.0
  0
LINE
  5
235
100
AcDbEntity
  8
0
  6
CONTINUOUS
 62
               4
100
AcDbLine
 10
-2.2999999945096761
 20
-2.5999999999999943
 30
0.0
 11
0.0000000174112529
 21
-2.5999999999999943
 31
0.0
  0
ENDBLK
  5
236
100
AcDbEntity
  8
0
100
AcDbBlockEnd
  0
BLOCK
  5
237
100
AcDbEntity
  8
0
100
AcDbBlockBegin
  2
CS-PBSAS16-10
 70
               0
 10
0.0
 20
0.0
 30
0.0
  3
CS-PBSAS16-10
  1

  0
LINE
  5
238
100
AcDbEntity
  8
0
  6
CONTINUOUS
 62
               4
100
AcDbLine
 10
-21.000000024277711
 20
-2.2999999999999972
 30
0.0
 11
21.0
 21
-2.2999999999999972
 31
0.0
  0
LINE
  5
239
100
AcDbEntity
  8
0
  6
CONTINUOUS
 62
               4
100
AcDbLine
 10
-21.000000024277711
 20
0.0
 30
0.0
 11
21.0
 21
0.0
 31
0.0
  0
LINE
  5
23A
100
AcDbEntity
  8
0
  6
CONTINUOUS
 62
               4
100
AcDbLine
 10
21.0
 20
-2.2999999730560461
 30
0.0
 11
21.0
 21
-0.0000000207397619
 31
0.0
  0
LINE
  5
23B
100
AcDbEntity
  8
0
  6
CONTINUOUS
 62
               4
100
AcDbLine
 10
-21.0
 20
-2.2999999730560461
 30
0.0
 11
-21.0
 21
-0.0000000207397619
 31
0.0
  0
LINE
  5
23C
100
AcDbEntity
  8
0
  6
CENTER
 62
             200
100
AcDbLine
 10
-14.599999999999994
 20
-4.3475955932113806
 30
0.0
 11
-14.599999999999994
 21
2.1517743260886988
 31
0.0
  0
LINE
  5
23D
100
AcDbEntity
  8
0
  6
CENTER
 62
             200
100
AcDbLine
 10
14.599999999999994
 20
-4.3475955932113806
 30
0.0
 11
14.599999999999994
 21
2.1517743260886988
 31
0.0
  0
LINE
  5
23E
100
AcDbEntity
  8
0
  6
CENTER
 62
             200
100
AcDbLine
 10
0.0
 20
-6.0974259863398999
 30
0.0
 11
0.0
 21
4.1515804511389405
 31
0.0
  0
ENDBLK
  5
23F
100
AcDbEntity
  8
0
100
AcDbBlockEnd
  0
BLOCK
  5
240
100
AcDbEntity
  8
0
100
AcDbBlockBegin
  2
CS-PBSAS16-11
 70
               0
 10
0.0
 20
0.0
 30
0.0
  3
CS-PBSAS16-11
  1

  0
ARC
  5
241
100
AcDbEntity
  8
0
  6
CONTINUOUS
 62
               4
100
AcDbCircle
 10
2.9821428571428612
 20
0.0
 30
0.0
 40
6.0178571428571397
100
AcDbArc
 50
315.16976589253176
 51
44.830234107468215
  0
ARC
  5
242
100
AcDbEntity
  8
0
  6
CONTINUOUS
 62
               4
100
AcDbCircle
 10
6.0178571428571388
 20
0.0
 30
0.0
 40
6.0178571428571397
100
AcDbArc
 50
135.16976589253181
 51
224.83023410746819
  0
LINE
  5
243
100
AcDbEntity
  8
0
  6
CONTINUOUS
 62
               4
100
AcDbLine
 10
1.7500000083748404
 20
-4.2426406871192839
 30
0.0
 11
7.25
 21
-4.2426406871192839
 31
0.0
  0
LINE
  5
244
100
AcDbEntity
  8
0
  6
CONTINUOUS
 62
               4
100
AcDbLine
 10
1.7500000083748404
 20
4.2426406871192839
 30
0.0
 11
7.25
 21
4.2426406871192839
 31
0.0
  0
ARC
  5
245
100
AcDbEntity
  8
0
  6
CONTINUOUS
 62
               4
100
AcDbCircle
 10
-14.943898367390666
 20
0.0000000000000355
 30
0.0
 40
30.304593252644601
100
AcDbArc
 50
350.6805742771935
 51
9.3194257228063648
  0
ARC
  5
246
100
AcDbEntity
  8
0
  6
CONTINUOUS
 62
               4
100
AcDbCircle
 10
41.665288137901328
 20
0.0000000000000639
 30
0.0
 40
30.304593252647429
100
AcDbArc
 50
170.68057427719455
 51
189.3194257228057
  0
LINE
  5
247
100
AcDbEntity
  8
0
  6
CONTINUOUS
 62
               4
100
AcDbLine
 10
14.960700591212657
 20
-4.9074772881118207
 30
0.0
 11
11.760689179295142
 21
-4.9074772881118207
 31
0.0
  0
LINE
  5
248
100
AcDbEntity
  8
0
  6
CONTINUOUS
 62
               4
100
AcDbLine
 10
14.960700591212671
 20
-9.8149545762236414
 30
0.0
 11
11.760689179295142
 21
-9.8149545762236414
 31
0.0
  0
ARC
  5
249
100
AcDbEntity
  8
0
  6
CONTINUOUS
 62
               4
100
AcDbCircle
 10
7.6345487118267243
 20
-7.3612159321677524
 30
0.0
 40
7.7261461734271846
100
AcDbArc
 50
341.48282275197221
 51
18.51717724802818
  0
ARC
  5
24A
100
AcDbEntity
  8
0
  6
CONTINUOUS
 62
               4
100
AcDbCircle
 10
19.086841058681088
 20
-7.3612159321677524
 30
0.0
 40
7.7261461734271846
100
AcDbArc
 50
161.48282275197181
 51
198.51717724802779
  0
ARC
  5
24B
100
AcDbEntity
  8
0
  6
CONTINUOUS
 62
               4
100
AcDbCircle
 10
7.6345487118267243
 20
7.3612159321677524
 30
0.0
 40
7.7261461734271846
100
AcDbArc
 50
341.48282275197181
 51
18.517177248027771
  0
ARC
  5
24C
100
AcDbEntity
  8
0
  6
CONTINUOUS
 62
               4
100
AcDbCircle
 10
19.086841058681088
 20
7.3612159321677524
 30
0.0
 40
7.7261461734271846
100
AcDbArc
 50
161.48282275197221
 51
198.51717724802819
  0
LINE
  5
24D
100
AcDbEntity
  8
0
  6
CONTINUOUS
 62
               4
100
AcDbLine
 10
14.960700591212671
 20
9.8149545762236414
 30
0.0
 11
11.760689179295142
 21
9.8149545762236414
 31
0.0
  0
LINE
  5
24E
100
AcDbEntity
  8
0
  6
CONTINUOUS
 62
               4
100
AcDbLine
 10
14.960700591212657
 20
4.9074772881118207
 30
0.0
 11
11.760689179295142
 21
4.9074772881118207
 31
0.0
  0
LINE
  5
24F
100
AcDbEntity
  8
0
  6
CONTINUOUS
 62
             200
100
AcDbLine
 10
15.360694885253906
 20
5.4585000000000008
 30
0.0
 11
16.541564946511208
 21
5.4585000000000008
 31
0.0
  0
LINE
  5
250
100
AcDbEntity
  8
0
  6
CONTINUOUS
 62
             200
100
AcDbLine
 10
10.5
 20
5.4585000000000008
 30
0.0
 11
11.360694885253906
 21
5.4585000000000008
 31
0.0
  0
LINE
  5
251
100
AcDbEntity
  8
0
  6
CONTINUOUS
 62
             200
100
AcDbLine
 10
15.360694885253906
 20
-5.4584999999999999
 30
0.0
 11
16.54146845292102
 21
-5.4584999999999999
 31
0.0
  0
LINE
  5
252
100
AcDbEntity
  8
0
  6
CONTINUOUS
 62
             200
100
AcDbLine
 10
10.5
 20
-5.4584999999999999
 30
0.0
 11
11.360694885253906
 21
-5.4584999999999999
 31
0.0
  0
LINE
  5
253
100
AcDbEntity
  8
0
  6
CONTINUOUS
 62
               4
100
AcDbLine
 10
15.360694885253906
 20
6.0000426503293056
 30
0.0
 11
16.0
 21
6.0000426503293056
 31
0.0
  0
LINE
  5
254
100
AcDbEntity
  8
0
  6
CONTINUOUS
 62
               4
100
AcDbLine
 10
1.75
 20
4.2426406871192839
 30
0.0
 11
1.75
 21
8.5
 31
0.0
  0
LINE
  5
255
100
AcDbEntity
  8
0
  6
CONTINUOUS
 62
               4
100
AcDbLine
 10
7.25
 20
4.2426406871192839
 30
0.0
 11
7.25
 21
8.5
 31
0.0
  0
LINE
  5
256
100
AcDbEntity
  8
0
  6
CONTINUOUS
 62
               4
100
AcDbLine
 10
10.5
 20
-6.0
 30
0.0
 11
10.5
 21
6.0000038146972656
 31
0.0
  0
LINE
  5
257
100
AcDbEntity
  8
0
  6
CONTINUOUS
 62
               4
100
AcDbLine
 10
11.360694885253906
 20
-7.3612159321677524
 30
0.0
 11
11.360694885253906
 21
7.3612159321677524
 31
0.0
  0
LINE
  5
258
100
AcDbEntity
  8
0
  6
CONTINUOUS
 62
               4
100
AcDbLine
 10
15.360694885253906
 20
-7.3612159321677524
 30
0.0
 11
15.360694885253906
 21
7.3612159321677524
 31
0.0
  0
LINE
  5
259
100
AcDbEntity
  8
0
  6
CONTINUOUS
 62
               4
100
AcDbLine
 10
9.0
 20
-8.5
 30
0.0
 11
9.0
 21
8.5000038146972656
 31
0.0
  0
LINE
  5
25A
100
AcDbEntity
  8
0
  6
CENTER
 62
             200
100
AcDbLine
 10
-21.571863906560836
 20
0.0
 30
0.0
 11
19.250861861565568
 21
0.0
 31
0.0
  0
LINE
  5
25B
100
AcDbEntity
  8
0
  6
CENTER
 62
             200
100
AcDbLine
 10
4.5
 20
10.033689315908973
 30
0.0
 11
4.5
 21
1.7754171102302365
 31
0.0
  0
LINE
  5
25C
100
AcDbEntity
  8
0
  6
CONTINUOUS
 62
               4
100
AcDbLine
 10
0.0
 20
-8.5
 30
0.0
 11
9.0
 21
-8.5
 31
0.0
  0
LINE
  5
25D
100
AcDbEntity
  8
0
  6
CONTINUOUS
 62
               4
100
AcDbLine
 10
0.0
 20
8.5000038146972656
 30
0.0
 11
9.0
 21
8.5000038146972656
 31
0.0
  0
LINE
  5
25E
100
AcDbEntity
  8
0
  6
CONTINUOUS
 62
               4
100
AcDbLine
 10
17.0
 20
5.000064057717104
 30
0.0
 11
17.0
 21
-4.9999961853027344
 31
0.0
  0
LINE
  5
25F
100
AcDbEntity
  8
0
  6
CONTINUOUS
 62
               4
100
AcDbLine
 10
16.000023346099397
 20
6.0000426503293056
 30
0.0
 11
17.000026177852988
 21
5.0000378798133625
 31
0.0
  0
LINE
  5
260
100
AcDbEntity
  8
0
  6
CONTINUOUS
 62
               4
100
AcDbLine
 10
15.999987171406474
 20
-5.9999823313150955
 30
0.0
 11
16.999987305764307
 21
-4.9999802582001394
 31
0.0
  0
LINE
  5
261
100
AcDbEntity
  8
0
  6
CONTINUOUS
 62
               4
100
AcDbLine
 10
9.0
 20
6.0000038146972656
 30
0.0
 11
11.360694885253906
 21
6.0000038146972656
 31
0.0
  0
LINE
  5
262
100
AcDbEntity
  8
0
  6
CONTINUOUS
 62
               4
100
AcDbLine
 10
9.0
 20
-6.0
 30
0.0
 11
11.360694885253906
 21
-6.0
 31
0.0
  0
LINE
  5
263
100
AcDbEntity
  8
0
  6
DASHED
 62
             200
100
AcDbLine
 10
2.3647398071289061
 20
8.5000038146972656
 30
0.0
 11
2.3647398071289061
 21
3.4229583740234375
 31
0.0
  0
LINE
  5
264
100
AcDbEntity
  8
0
  6
DASHED
 62
             200
100
AcDbLine
 10
6.4987398071289064
 20
8.5000038146972656
 30
0.0
 11
6.4987398071289064
 21
3.4229583740234375
 31
0.0
  0
LINE
  5
265
100
AcDbEntity
  8
0
  6
DASHED
 62
             200
100
AcDbLine
 10
1.9317398071289062
 20
8.4229621887207031
 30
0.0
 11
1.9317398071289062
 21
3.4229583740234375
 31
0.0
  0
LINE
  5
266
100
AcDbEntity
  8
0
  6
DASHED
 62
             200
100
AcDbLine
 10
6.9317398071289062
 20
8.5000038146972656
 30
0.0
 11
6.9317398071289062
 21
3.4229583740234375
 31
0.0
  0
LINE
  5
267
100
AcDbEntity
  8
0
  6
CONTINUOUS
 62
               4
100
AcDbLine
 10
0.0
 20
8.5000038146972656
 30
0.0
 11
0.0
 21
-8.5
 31
0.0
  0
LINE
  5
268
100
AcDbEntity
  8
0
  6
CONTINUOUS
 62
               4
100
AcDbLine
 10
15.360694885253906
 20
-6.0
 30
0.0
 11
16.0
 21
-6.0
 31
0.0
  0
LINE
  5
269
100
AcDbEntity
  8
0
  6
CONTINUOUS
 62
               4
100
AcDbLine
 10
15.999994277954102
 20
6.000071718530954
 30
0.0
 11
15.999994277954102
 21
-5.9999752247536904
 31
0.0
  0
LINE
  5
26A
100
AcDbEntity
  8
0
  6
CONTINUOUS
 62
               4
100
AcDbLine
 10
1.75
 20
-4.2426406871192839
 30
0.0
 11
1.75
 21
-8.5
 31
0.0
  0
LINE
  5
26B
100
AcDbEntity
  8
0
  6
CONTINUOUS
 62
               4
100
AcDbLine
 10
7.25
 20
-4.2426406871192839
 30
0.0
 11
7.25
 21
-8.5
 31
0.0
  0
ENDBLK
  5
26C
100
AcDbEntity
  8
0
100
AcDbBlockEnd
  0
BLOCK
  5
26D
100
AcDbEntity
  8
0
100
AcDbBlockBegin
  2
CS-PBSAS16-12
 70
               0
 10
0.0
 20
0.0
 30
0.0
  3
CS-PBSAS16-12
  1

  0
CIRCLE
  5
26E
100
AcDbEntity
  8
0
  6
CONTINUOUS
 62
             200
100
AcDbCircle
 10
0.0
 20
0.0
 30
0.0
 40
5.4584999999999999
  0
CIRCLE
  5
26F
100
AcDbEntity
  8
0
  6
CONTINUOUS
 62
               4
100
AcDbCircle
 10
0.0
 20
0.0
 30
0.0
 40
6.0
  0
LINE
  5
270
100
AcDbEntity
  8
0
  6
CENTER
 62
             200
100
AcDbLine
 10
-11.486200048667243
 20
0.0
 30
0.0
 11
11.422644809729888
 21
0.0
 31
0.0
  0
LINE
  5
271
100
AcDbEntity
  8
0
  6
CONTINUOUS
 62
               4
100
AcDbLine
 10
8.5
 20
4.9074772881118207
 30
0.0
 11
8.5
 21
-4.9074772881118207
 31
0.0
  0
LINE
  5
272
100
AcDbEntity
  8
0
  6
CONTINUOUS
 62
               4
100
AcDbLine
 10
0.0
 20
9.8149545762236414
 30
0.0
 11
8.5
 21
4.9074772881118207
 31
0.0
  0
LINE
  5
273
100
AcDbEntity
  8
0
  6
CONTINUOUS
 62
               4
100
AcDbLine
 10
-8.5
 20
4.9074772881118207
 30
0.0
 11
0.0
 21
9.8149545762236414
 31
0.0
  0
LINE
  5
274
100
AcDbEntity
  8
0
  6
CONTINUOUS
 62
               4
100
AcDbLine
 10
-8.5
 20
-4.9074772881118207
 30
0.0
 11
-8.5
 21
4.9074772881118207
 31
0.0
  0
LINE
  5
275
100
AcDbEntity
  8
0
  6
CONTINUOUS
 62
               4
100
AcDbLine
 10
0.0
 20
-9.8149545762236414
 30
0.0
 11
-8.5
 21
-4.9074772881118207
 31
0.0
  0
LINE
  5
276
100
AcDbEntity
  8
0
  6
CONTINUOUS
 62
               4
100
AcDbLine
 10
8.5
 20
-4.9074772881118207
 30
0.0
 11
0.0
 21
-9.8149545762236414
 31
0.0
  0
CIRCLE
  5
277
100
AcDbEntity
  8
0
  6
CONTINUOUS
 62
               4
100
AcDbCircle
 10
0.0
 20
0.0
 30
0.0
 40
8.5
  0
ARC
  5
278
100
AcDbEntity
  8
0
  6
CONTINUOUS
 62
               7
100
AcDbCircle
 10
0.0
 20
0.0
 30
0.0
 40
9.5
100
AcDbArc
 50
116.52535201660972
 51
146.52535201660965
  0
LINE
  5
279
100
AcDbEntity
  8
0
  6
CONTINUOUS
 62
               7
100
AcDbLine
 10
-4.242640687119291
 20
8.5
 30
0.0
 11
-2.2775681356645521
 21
8.5
 31
0.0
  0
LINE
  5
27A
100
AcDbEntity
  8
0
  6
CONTINUOUS
 62
               7
100
AcDbLine
 10
4.242640687119291
 20
8.5
 30
0.0
 11
2.2775681356645521
 21
8.5
 31
0.0
  0
ARC
  5
27B
100
AcDbEntity
  8
0
  6
CONTINUOUS
 62
               7
100
AcDbCircle
 10
0.0
 20
0.0
 30
0.0
 40
9.5
100
AcDbArc
 50
33.474647983390341
 51
63.474647983390284
  0
LINE
  5
27C
100
AcDbEntity
  8
0
  6
CONTINUOUS
 62
               7
100
AcDbLine
 10
-4.242640687119291
 20
-8.5
 30
0.0
 11
-2.2775681356645521
 21
-8.5
 31
0.0
  0
ARC
  5
27D
100
AcDbEntity
  8
0
  6
CONTINUOUS
 62
               7
100
AcDbCircle
 10
0.0
 20
0.0
 30
0.0
 40
9.5
100
AcDbArc
 50
213.47464798339035
 51
243.4746479833903
  0
LINE
  5
27E
100
AcDbEntity
  8
0
  6
CONTINUOUS
 62
               7
100
AcDbLine
 10
4.242640687119291
 20
-8.5
 30
0.0
 11
2.2775681356645521
 21
-8.5
 31
0.0
  0
ARC
  5
27F
100
AcDbEntity
  8
0
  6
CONTINUOUS
 62
               7
100
AcDbCircle
 10
0.0
 20
0.0
 30
0.0
 40
9.5
100
AcDbArc
 50
296.5253520166097
 51
326.52535201660965
  0
LINE
  5
280
100
AcDbEntity
  8
0
  6
CENTER
 62
             200
100
AcDbLine
 10
0.0
 20
12.655127266961671
 30
0.0
 11
0.0
 21
-12.301424169661082
 31
0.0
  0
ENDBLK
  5
281
100
AcDbEntity
  8
0
100
AcDbBlockEnd
  0
BLOCK
  5
282
100
AcDbEntity
  8
0
100
AcDbBlockBegin
  2
CS-PBSAS16-13
 70
               0
 10
0.0
 20
0.0
 30
0.0
  3
CS-PBSAS16-13
  1

  0
LINE
  5
283
100
AcDbEntity
  8
0
  6
CONTINUOUS
 62
               4
100
AcDbLine
 10
1.7500000083748404
 20
-4.242640687119291
 30
0.0
 11
7.25
 21
-4.242640687119291
 31
0.0
  0
ARC
  5
284
100
AcDbEntity
  8
0
  6
CONTINUOUS
 62
               4
100
AcDbCircle
 10
6.0178571428571388
 20
0.0
 30
0.0
 40
6.0178571428571397
100
AcDbArc
 50
135.16976589253181
 51
224.83023410746819
  0
ARC
  5
285
100
AcDbEntity
  8
0
  6
CONTINUOUS
 62
               4
100
AcDbCircle
 10
2.9821428571428612
 20
0.0
 30
0.0
 40
6.0178571428571397
100
AcDbArc
 50
315.16976589253176
 51
44.830234107468215
  0
LINE
  5
286
100
AcDbEntity
  8
0
  6
CONTINUOUS
 62
               4
100
AcDbLine
 10
1.7500000083748404
 20
4.242640687119291
 30
0.0
 11
7.25
 21
4.242640687119291
 31
0.0
  0
LINE
  5
287
100
AcDbEntity
  8
0
  6
CONTINUOUS
 62
               4
100
AcDbLine
 10
0.0
 20
-8.5
 30
0.0
 11
9.0
 21
-8.5
 31
0.0
  0
LINE
  5
288
100
AcDbEntity
  8
0
  6
CONTINUOUS
 62
               4
100
AcDbLine
 10
0.0
 20
8.5000038146972656
 30
0.0
 11
9.0
 21
8.5000038146972656
 31
0.0
  0
LINE
  5
289
100
AcDbEntity
  8
0
  6
CONTINUOUS
 62
               4
100
AcDbLine
 10
7.25
 20
4.2826690673828125
 30
0.0
 11
7.25
 21
8.5
 31
0.0
  0
LINE
  5
28A
100
AcDbEntity
  8
0
  6
CONTINUOUS
 62
               4
100
AcDbLine
 10
1.75
 20
4.2826690673828125
 30
0.0
 11
1.75
 21
8.5
 31
0.0
  0
LINE
  5
28B
100
AcDbEntity
  8
0
  6
CONTINUOUS
 62
               4
100
AcDbLine
 10
9.0
 20
8.5000038146972656
 30
0.0
 11
9.0
 21
-8.5
 31
0.0
  0
LINE
  5
28C
100
AcDbEntity
  8
0
  6
CENTER
 62
             200
100
AcDbLine
 10
4.5
 20
11.573059653791354
 30
0.0
 11
4.5
 21
1.3919681949314366
 31
0.0
  0
LINE
  5
28D
100
AcDbEntity
  8
0
  6
CONTINUOUS
 62
               4
100
AcDbLine
 10
0.0
 20
-8.5
 30
0.0
 11
0.0
 21
8.5000038146972656
 31
0.0
  0
LINE
  5
28E
100
AcDbEntity
  8
0
  6
DASHED
 62
             200
100
AcDbLine
 10
2.0
 20
8.5000038146972656
 30
0.0
 11
2.0
 21
3.5
 31
0.0
  0
LINE
  5
28F
100
AcDbEntity
  8
0
  6
DASHED
 62
             200
100
AcDbLine
 10
2.4329999999999998
 20
8.5000038146972656
 30
0.0
 11
2.4329999999999998
 21
3.5
 31
0.0
  0
LINE
  5
290
100
AcDbEntity
  8
0
  6
DASHED
 62
             200
100
AcDbLine
 10
6.5670000000000002
 20
8.5000038146972656
 30
0.0
 11
6.5670000000000002
 21
3.5
 31
0.0
  0
LINE
  5
291
100
AcDbEntity
  8
0
  6
DASHED
 62
             200
100
AcDbLine
 10
7.0
 20
8.5000038146972656
 30
0.0
 11
7.0
 21
3.5
 31
0.0
  0
LINE
  5
292
100
AcDbEntity
  8
0
  6
CONTINUOUS
 62
               4
100
AcDbLine
 10
1.75
 20
-4.2826690673828125
 30
0.0
 11
1.75
 21
-8.5
 31
0.0
  0
LINE
  5
293
100
AcDbEntity
  8
0
  6
CONTINUOUS
 62
               4
100
AcDbLine
 10
7.25
 20
-4.2826690673828125
 30
0.0
 11
7.25
 21
-8.5
 31
0.0
  0
LINE
  5
294
100
AcDbEntity
  8
0
  6
CENTER
 62
             200
100
AcDbLine
 10
-20.089778064598647
 20
0.0
 30
0.0
 11
12.360373114912434
 21
0.0
 31
0.0
  0
ENDBLK
  5
295
100
AcDbEntity
  8
0
100
AcDbBlockEnd
  0
BLOCK
  5
296
100
AcDbEntity
  8
0
100
AcDbBlockBegin
  2
CS-PBSAS16-14
 70
               0
 10
0.0
 20
0.0
 30
0.0
  3
CS-PBSAS16-14
  1

  0
LINE
  5
297
100
AcDbEntity
  8
0
  6
CENTER
 62
             200
100
AcDbLine
 10
-12.102082083162244
 20
0.0
 30
0.0
 11
11.575334262879508
 21
0.0
 31
0.0
  0
LINE
  5
298
100
AcDbEntity
  8
0
  6
CONTINUOUS
 62
               4
100
AcDbLine
 10
-4.242640687119291
 20
8.5
 30
0.0
 11
4.242640687119291
 21
8.5
 31
0.0
  0
ARC
  5
299
100
AcDbEntity
  8
0
  6
CONTINUOUS
 62
               4
100
AcDbCircle
 10
0.0
 20
0.0
 30
0.0
 40
9.5
100
AcDbArc
 50
26.525352016609691
 51
63.474647983390305
  0
LINE
  5
29A
100
AcDbEntity
  8
0
  6
CONTINUOUS
 62
               4
100
AcDbLine
 10
8.5
 20
4.242640687119291
 30
0.0
 11
8.5
 21
-4.242640687119291
 31
0.0
  0
ARC
  5
29B
100
AcDbEntity
  8
0
  6
CONTINUOUS
 62
               4
100
AcDbCircle
 10
0.0
 20
0.0
 30
0.0
 40
9.5
100
AcDbArc
 50
296.5253520166097
 51
333.4746479833903
  0
LINE
  5
29C
100
AcDbEntity
  8
0
  6
CONTINUOUS
 62
               4
100
AcDbLine
 10
-4.242640687119291
 20
-8.5
 30
0.0
 11
4.242640687119291
 21
-8.5
 31
0.0
  0
ARC
  5
29D
100
AcDbEntity
  8
0
  6
CONTINUOUS
 62
               4
100
AcDbCircle
 10
0.0
 20
0.0
 30
0.0
 40
9.5
100
AcDbArc
 50
206.5253520166097
 51
243.4746479833903
  0
LINE
  5
29E
100
AcDbEntity
  8
0
  6
CONTINUOUS
 62
               4
100
AcDbLine
 10
-8.5
 20
-4.242640687119291
 30
0.0
 11
-8.5
 21
4.242640687119291
 31
0.0
  0
ARC
  5
29F
100
AcDbEntity
  8
0
  6
CONTINUOUS
 62
               4
100
AcDbCircle
 10
0.0
 20
0.0
 30
0.0
 40
9.5
100
AcDbArc
 50
116.52535201660972
 51
153.4746479833903
  0
CIRCLE
  5
2A0
100
AcDbEntity
  8
0
  6
CONTINUOUS
 62
               4
100
AcDbCircle
 10
0.0
 20
0.0
 30
0.0
 40
8.5
  0
LINE
  5
2A1
100
AcDbEntity
  8
0
  6
CENTER
 62
             200
100
AcDbLine
 10
0.0
 20
12.145216276087218
 30
0.0
 11
0.0
 21
-11.623259695934735
 31
0.0
  0
ENDBLK
  5
2A2
100
AcDbEntity
  8
0
100
AcDbBlockEnd
  0
ENDSEC
  0
SECTION
  2
ENTITIES
  0
INSERT
  5
2A3
100
AcDbEntity
  8
0
  6
ByBlock
100
AcDbBlockReference
  2
CS-PBSAS16-14
 10
105.39622331232992
 20
-68.891134789257734
 30
0.0
  0
INSERT
  5
2A4
100
AcDbEntity
  8
0
  6
ByBlock
100
AcDbBlockReference
  2
CS-PBSAS16-13
 10
64.616638581784684
 20
-68.891134789257734
 30
0.0
  0
INSERT
  5
2A5
100
AcDbEntity
  8
0
  6
ByBlock
100
AcDbBlockReference
  2
CS-PBSAS16-12
 10
105.39622331232991
 20
-38.366475817589304
 30
0.0
  0
INSERT
  5
2A6
100
AcDbEntity
  8
0
  6
ByBlock
100
AcDbBlockReference
  2
CS-PBSAS16-11
 10
56.804157785147041
 20
-38.366475817589304
 30
0.0
  0
INSERT
  5
2A7
100
AcDbEntity
  8
0
  6
ByBlock
100
AcDbBlockReference
  2
CS-PBSAS16-10
 10
-23.957586993233519
 20
-37.078108256802537
 30
0.0
  0
INSERT
  5
2A8
100
AcDbEntity
  8
0
  6
ByBlock
100
AcDbBlockReference
  2
CS-PBSAS16-9
 10
17.072098045128939
 20
-68.566842872873167
 30
0.0
  0
INSERT
  5
2A9
100
AcDbEntity
  8
0
  6
ByBlock
100
AcDbBlockReference
  2
CS-PBSAS16-8
 10
-23.957586993233519
 20
-68.566842872873167
 30
0.0
  0
INSERT
  5
2AA
100
AcDbEntity
  8
0
  6
ByBlock
100
AcDbBlockReference
  2
CS-PBSAS16-7
 10
-114.43634751663126
 20
-37.10640840547768
 30
0.0
  0
INSERT
  5
2AB
100
AcDbEntity
  8
0
  6
ByBlock
100
AcDbBlockReference
  2
CS-PBSAS16-6
 10
-75.121142660321766
 20
-68.566842872873167
 30
0.0
  0
INSERT
  5
2AC
100
AcDbEntity
  8
0
  6
ByBlock
100
AcDbBlockReference
  2
CS-PBSAS16-5
 10
-114.43634751663126
 20
-68.566842872873167
 30
0.0
  0
INSERT
  5
2AD
100
AcDbEntity
  8
0
  6
ByBlock
100
AcDbBlockReference
  2
CS-PBSAS16-4
 10
-3.5426683837957604
 20
67.112014871227927
 30
0.0
  0
INSERT
  5
2AE
100
AcDbEntity
  8
0
  6
ByBlock
100
AcDbBlockReference
  2
CS-PBSAS16-3
 10
90.158154057345683
 20
25.911047792064423
 30
0.0
  0
INSERT
  5
2AF
100
AcDbEntity
  8
0
  6
ByBlock
100
AcDbBlockReference
  2
CS-PBSAS16-2
 10
-95.001817182754351
 20
25.911047792064423
 30
0.0
  0
INSERT
  5
2B0
100
AcDbEntity
  8
0
  6
ByBlock
100
AcDbBlockReference
  2
CS-PBSAS16-1
 10
-31.037522752727796
 20
25.911047792064423
 30
0.0
 50
359.99999740747927
  0
LINE
  5
2B1
100
AcDbEntity
  8
0
  6
CONTINUOUS
 62
               7
100
AcDbLine
 10
42.968889198543152
 20
-77.391134789257734
 30
0.0
 11
64.616638581784684
 21
-77.391134789257734
 31
0.0
  0
LINE
  5
2B2
100
AcDbEntity
  8
0
  6
CONTINUOUS
 62
               7
100
AcDbLine
 10
52.783845977183333
 20
-60.391130974560468
 30
0.0
 11
64.616638581784684
 21
-60.391130974560468
 31
0.0
  0
LINE
  5
2B3
100
AcDbEntity
  8
0
  6
CONTINUOUS
 62
               7
100
AcDbLine
 10
33.761346552585238
 20
-46.866475817589304
 30
0.0
 11
56.804157785147041
 21
-46.866475817589304
 31
0.0
  0
LINE
  5
2B4
100
AcDbEntity
  8
0
  6
CONTINUOUS
 62
               7
100
AcDbLine
 10
43.576303331225404
 20
-29.866472002892039
 30
0.0
 11
56.804157785147041
 21
-29.866472002892039
 31
0.0
  0
LINE
  5
2B5
100
AcDbEntity
  8
0
  6
CONTINUOUS
 62
               7
100
AcDbLine
 10
-53.212493896484375
 20
-14.800003051757812
 30
0.0
 11
-53.212493896484375
 21
-94.800003051757812
 31
0.0
  0
LINE
  5
2B6
100
AcDbEntity
  8
0
  6
CONTINUOUS
 62
               7
100
AcDbLine
 10
31.975006103515625
 20
-14.800003051757812
 30
0.0
 11
31.975006103515625
 21
-94.800003051757812
 31
0.0
  0
MTEXT
  5
2B7
100
AcDbEntity
  8
0
  6
CONTINUOUS
 62
               7
100
AcDbMText
 10
-100.0062439635396
 20
-16.800003051757812
 30
0.0
 40
3.2000000476837158
 41
0.0
 71
               4
 72
               1
  1
\W1.125;\A1;-1A
  0
MTEXT
  5
2B8
100
AcDbEntity
  8
0
  6
CONTINUOUS
 62
               7
100
AcDbMText
 10
77.755098585729243
 20
-16.800003051757812
 30
0.0
 40
3.2000000476837158
 41
0.0
 71
               4
 72
               1
  1
\W1.111;\A1;-M,-A
  0
MTEXT
  5
2B9
100
AcDbEntity
  8
0
  6
CONTINUOUS
 62
               7
100
AcDbMText
 10
-13.285410602887472
 20
-16.800003051757812
 30
0.0
 40
3.2000000476837158
 41
0.0
 71
               4
 72
               1
  1
\A1;-3
  0
LINE
  5
2BA
100
AcDbEntity
  8
0
  6
CONTINUOUS
 62
               7
100
AcDbLine
 10
-138.39999389648437
 20
-18.800003051757813
 30
0.0
 11
138.35000610351562
 21
-18.800003051757813
 31
0.0
  0
LINE
  5
2BB
100
AcDbEntity
  8
0
  6
CONTINUOUS
 62
               7
100
AcDbLine
 10
-138.39999389648437
 20
-14.800003051757812
 30
0.0
 11
138.35000610351562
 21
-14.800003051757812
 31
0.0
  0
MTEXT
  5
2BC
100
AcDbEntity
  8
0
  6
CONTINUOUS
 62
               3
100
AcDbMText
 10
1.9623281030708037
 20
53.184662774551526
 30
0.0
 40
3.2000000476837158
 41
0.0
 71
               4
 72
               1
  1
\W1.065;\A1;STRETCH LINE
  0
LINE
  5
2BD
100
AcDbEntity
  8
0
  6
CONTINUOUS
 62
               7
100
AcDbLine
 10
-133.39999389648437
 20
-9.8000030517578125
 30
0.0
 11
7.8000061035156136
 21
-9.8000030517578125
 31
0.0
  0
LINE
  5
2BE
100
AcDbEntity
  8
0
  6
CONTINUOUS
 62
               7
100
AcDbLine
 10
-133.39999389648437
 20
-9.8000030517578125
 30
0.0
 11
-133.39999389648437
 21
2.1999969482421875
 31
0.0
  0
LINE
  5
2BF
100
AcDbEntity
  8
0
  6
CONTINUOUS
 62
               7
100
AcDbLine
 10
-133.39999389648437
 20
-3.8000030517578125
 30
0.0
 11
7.8000061035156136
 21
-3.8000030517578125
 31
0.0
  0
LINE
  5
2C0
100
AcDbEntity
  8
0
  6
CONTINUOUS
 62
               7
100
AcDbLine
 10
-107.39999389648437
 20
-9.8000030517578125
 30
0.0
 11
-107.39999389648437
 21
2.1999969482421875
 31
0.0
  0
LINE
  5
2C1
100
AcDbEntity
  8
0
  6
CONTINUOUS
 62
               7
100
AcDbLine
 10
-97.799993896484381
 20
-9.8000030517578125
 30
0.0
 11
-97.799993896484381
 21
2.1999969482421875
 31
0.0
  0
LINE
  5
2C2
100
AcDbEntity
  8
0
  6
CONTINUOUS
 62
               7
100
AcDbLine
 10
-133.39999389648437
 20
2.1999969482421875
 30
0.0
 11
7.8000061035156136
 21
2.1999969482421875
 31
0.0
  0
MTEXT
  5
2C3
100
AcDbEntity
  8
0
  6
CONTINUOUS
 62
               7
100
AcDbMText
 10
-103.66666057904561
 20
-0.8000030517578125
 30
0.0
 40
3.2000000476837158
 41
0.0
 71
               4
 72
               1
  1
\A1;5
  0
LINE
  5
2C4
100
AcDbEntity
  8
0
  6
CONTINUOUS
 62
               7
100
AcDbLine
 10
-88.199993896484386
 20
-9.8000030517578125
 30
0.0
 11
-88.199993896484386
 21
2.1999969482421875
 31
0.0
  0
MTEXT
  5
2C5
100
AcDbEntity
  8
0
  6
CONTINUOUS
 62
               7
100
AcDbMText
 10
-95.48888282246061
 20
-0.8000030517578125
 30
0.0
 40
3.2000000476837158
 41
0.0
 71
               4
 72
               1
  1
\W1.333;\A1;10
  0
LINE
  5
2C6
100
AcDbEntity
  8
0
  6
CONTINUOUS
 62
               7
100
AcDbLine
 10
-78.599993896484392
 20
-9.8000030517578125
 30
0.0
 11
-78.599993896484392
 21
2.1999969482421875
 31
0.0
  0
MTEXT
  5
2C7
100
AcDbEntity
  8
0
  6
CONTINUOUS
 62
               7
100
AcDbMText
 10
-85.959993942260752
 20
-0.8000030517578125
 30
0.0
 40
3.2000000476837158
 41
0.0
 71
               4
 72
               1
  1
\W1.200;\A1;15
  0
LINE
  5
2C8
100
AcDbEntity
  8
0
  6
CONTINUOUS
 62
               7
100
AcDbLine
 10
-68.999993896484398
 20
-9.8000030517578125
 30
0.0
 11
-68.999993896484398
 21
2.1999969482421875
 31
0.0
  0
MTEXT
  5
2C9
100
AcDbEntity
  8
0
  6
CONTINUOUS
 62
               7
100
AcDbMText
 10
-76.418175747374875
 20
-0.8000030517578125
 30
0.0
 40
3.2000000476837158
 41
0.0
 71
               4
 72
               1
  1
\W1.091;\A1;20
  0
LINE
  5
2CA
100
AcDbEntity
  8
0
  6
CONTINUOUS
 62
               7
100
AcDbLine
 10
-59.399993896484389
 20
-9.8000030517578125
 30
0.0
 11
-59.399993896484389
 21
2.1999969482421875
 31
0.0
  0
MTEXT
  5
2CB
100
AcDbEntity
  8
0
  6
CONTINUOUS
 62
               7
100
AcDbMText
 10
-66.866660602887478
 20
-0.8000030517578125
 30
0.0
 40
3.2000000476837158
 41
0.0
 71
               4
 72
               1
  1
\A1;25
  0
LINE
  5
2CC
100
AcDbEntity
  8
0
  6
CONTINUOUS
 62
               7
100
AcDbLine
 10
-49.799993896484388
 20
-9.8000030517578125
 30
0.0
 11
-49.799993896484388
 21
2.1999969482421875
 31
0.0
  0
MTEXT
  5
2CD
100
AcDbEntity
  8
0
  6
CONTINUOUS
 62
               7
100
AcDbMText
 10
-57.218175747374872
 20
-0.8000030517578125
 30
0.0
 40
3.2000000476837158
 41
0.0
 71
               4
 72
               1
  1
\W1.091;\A1;30
  0
LINE
  5
2CE
100
AcDbEntity
  8
0
  6
CONTINUOUS
 62
               7
100
AcDbLine
 10
-40.199993896484386
 20
-9.8000030517578125
 30
0.0
 11
-40.199993896484386
 21
2.1999969482421875
 31
0.0
  0
MTEXT
  5
2CF
100
AcDbEntity
  8
0
  6
CONTINUOUS
 62
               7
100
AcDbMText
 10
-47.666660602887482
 20
-0.8000030517578125
 30
0.0
 40
3.2000000476837158
 41
0.0
 71
               4
 72
               1
  1
\A1;35
  0
LINE
  5
2D0
100
AcDbEntity
  8
0
  6
CONTINUOUS
 62
               7
100
AcDbLine
 10
-30.599993896484385
 20
-9.8000030517578125
 30
0.0
 11
-30.599993896484385
 21
2.1999969482421875
 31
0.0
  0
MTEXT
  5
2D1
100
AcDbEntity
  8
0
  6
CONTINUOUS
 62
               7
100
AcDbMText
 10
-38.018175747374869
 20
-0.8000030517578125
 30
0.0
 40
3.2000000476837158
 41
0.0
 71
               4
 72
               1
  1
\W1.091;\A1;40
  0
LINE
  5
2D2
100
AcDbEntity
  8
0
  6
CONTINUOUS
 62
               7
100
AcDbLine
 10
-20.999993896484384
 20
-9.8000030517578125
 30
0.0
 11
-20.999993896484384
 21
2.1999969482421875
 31
0.0
  0
MTEXT
  5
2D3
100
AcDbEntity
  8
0
  6
CONTINUOUS
 62
               7
100
AcDbMText
 10
-28.46666060288748
 20
-0.8000030517578125
 30
0.0
 40
3.2000000476837158
 41
0.0
 71
               4
 72
               1
  1
\A1;45
  0
LINE
  5
2D4
100
AcDbEntity
  8
0
  6
CONTINUOUS
 62
               7
100
AcDbLine
 10
-11.399993896484386
 20
-9.8000030517578125
 30
0.0
 11
-11.399993896484386
 21
2.1999969482421875
 31
0.0
  0
MTEXT
  5
2D5
100
AcDbEntity
  8
0
  6
CONTINUOUS
 62
               7
100
AcDbMText
 10
-18.81817574737487
 20
-0.8000030517578125
 30
0.0
 40
3.2000000476837158
 41
0.0
 71
               4
 72
               1
  1
\W1.091;\A1;50
  0
LINE
  5
2D6
100
AcDbEntity
  8
0
  6
CONTINUOUS
 62
               7
100
AcDbLine
 10
-1.799993896484386
 20
-9.8000030517578125
 30
0.0
 11
-1.799993896484386
 21
2.1999969482421875
 31
0.0
  0
MTEXT
  5
2D7
100
AcDbEntity
  8
0
  6
CONTINUOUS
 62
               7
100
AcDbMText
 10
-9.2666606028874821
 20
-0.8000030517578125
 30
0.0
 40
3.2000000476837158
 41
0.0
 71
               4
 72
               1
  1
\A1;55
  0
LINE
  5
2D8
100
AcDbEntity
  8
0
  6
CONTINUOUS
 62
               7
100
AcDbLine
 10
7.8000061035156136
 20
-9.8000030517578125
 30
0.0
 11
7.8000061035156136
 21
2.1999969482421875
 31
0.0
  0
MTEXT
  5
2D9
100
AcDbEntity
  8
0
  6
CONTINUOUS
 62
               7
100
AcDbMText
 10
0.3818242526251304
 20
-0.8000030517578125
 30
0.0
 40
3.2000000476837158
 41
0.0
 71
               4
 72
               1
  1
\W1.091;\A1;60
  0
MTEXT
  5
2DA
100
AcDbEntity
  8
0
  6
CONTINUOUS
 62
               7
100
AcDbMText
 10
-1.5336875525963669
 20
4.7615767562125342
 30
0.0
 40
3.2000000476837158
 41
0.0
 71
               4
 72
               1
  1
\W1.200;\A1;(mm)
  0
MTEXT
  5
2DB
100
AcDbEntity
  8
0
  6
CONTINUOUS
 62
               7
100
AcDbMText
 10
-129.46666069825491
 20
-0.8000030517578125
 30
0.0
 40
3.2000000476837158
 41
0.0
 71
               4
 72
               1
  1
\A1;STROKE
  0
MTEXT
  5
2DC
100
AcDbEntity
  8
0
  6
CONTINUOUS
 62
               7
100
AcDbMText
 10
-131.06666072209677
 20
-6.8000030517578125
 30
0.0
 40
3.2000000476837158
 41
0.0
 71
               4
 72
               1
  1
\A1;STRETCH
  0
MTEXT
  5
2DD
100
AcDbEntity
  8
0
  6
CONTINUOUS
 62
               7
100
AcDbMText
 10
-106.86666062672933
 20
-6.8000030517578125
 30
0.0
 40
3.2000000476837158
 41
0.0
 71
               4
 72
               1
  1
\A1;-25
  0
MTEXT
  5
2DE
100
AcDbEntity
  8
0
  6
CONTINUOUS
 62
               7
100
AcDbMText
 10
-97.235288073282348
 20
-6.8000030517578125
 30
0.0
 40
3.2000000476837158
 41
0.0
 71
               4
 72
               1
  1
\W1.059;\A1;-20
  0
MTEXT
  5
2DF
100
AcDbEntity
  8
0
  6
CONTINUOUS
 62
               7
100
AcDbMText
 10
-87.599993963539617
 20
-6.8000030517578125
 30
0.0
 40
3.2000000476837158
 41
0.0
 71
               4
 72
               1
  1
\W1.125;\A1;-15
  0
MTEXT
  5
2E0
100
AcDbEntity
  8
0
  6
CONTINUOUS
 62
               7
100
AcDbMText
 10
-76.466660602887487
 20
-6.8000030517578125
 30
0.0
 40
3.2000000476837158
 41
0.0
 71
               4
 72
               1
  1
\A1;-5
  0
MTEXT
  5
2E1
100
AcDbEntity
  8
0
  6
CONTINUOUS
 62
               7
100
AcDbMText
 10
-65.159993895530718
 20
-6.8000030517578125
 30
0.0
 40
3.2000000476837158
 41
0.0
 71
               4
 72
               1
  1
\W1.200;\A1;0
  0
MTEXT
  5
2E2
100
AcDbEntity
  8
0
  6
CONTINUOUS
 62
               7
100
AcDbMText
 10
-55.666660579045633
 20
-6.8000030517578125
 30
0.0
 40
3.2000000476837158
 41
0.0
 71
               4
 72
               1
  1
\A1;5
  0
MTEXT
  5
2E3
100
AcDbEntity
  8
0
  6
CONTINUOUS
 62
               7
100
AcDbMText
 10
-47.618175747374863
 20
-6.8000030517578125
 30
0.0
 40
3.2000000476837158
 41
0.0
 71
               4
 72
               1
  1
\W1.091;\A1;20
  0
MTEXT
  5
2E4
100
AcDbEntity
  8
0
  6
CONTINUOUS
 62
               7
100
AcDbMText
 10
-38.066660602887488
 20
-6.8000030517578125
 30
0.0
 40
3.2000000476837158
 41
0.0
 71
               4
 72
               1
  1
\A1;25
  0
MTEXT
  5
2E5
100
AcDbEntity
  8
0
  6
CONTINUOUS
 62
               7
100
AcDbMText
 10
-28.418175747374868
 20
-6.8000030517578125
 30
0.0
 40
3.2000000476837158
 41
0.0
 71
               4
 72
               1
  1
\W1.091;\A1;30
  0
MTEXT
  5
2E6
100
AcDbEntity
  8
0
  6
CONTINUOUS
 62
               7
100
AcDbMText
 10
-18.866660602887482
 20
-6.8000030517578125
 30
0.0
 40
3.2000000476837158
 41
0.0
 71
               4
 72
               1
  1
\A1;35
  0
MTEXT
  5
2E7
100
AcDbEntity
  8
0
  6
CONTINUOUS
 62
               7
100
AcDbMText
 10
-9.2181757473748682
 20
-6.8000030517578125
 30
0.0
 40
3.2000000476837158
 41
0.0
 71
               4
 72
               1
  1
\W1.091;\A1;40
  0
MTEXT
  5
2E8
100
AcDbEntity
  8
0
  6
CONTINUOUS
 62
               7
100
AcDbMText
 10
0.3333393971125165
 20
-6.8000030517578125
 30
0.0
 40
3.2000000476837158
 41
0.0
 71
               4
 72
               1
  1
\A1;45
  0
MTEXT
  5
2E9
100
AcDbEntity
  8
0
  6
CONTINUOUS
 62
               7
100
AcDbMText
 10
-81.062969922840452
 20
5.7350981593257018
 30
0.0
 40
3.2000000476837158
 41
0.0
 71
               4
 72
               1
  1
\W1.065;\A1;STRETCH LIST
  0
LINE
  5
2EA
100
AcDbEntity
  8
0
  6
CONTINUOUS
 62
               7
100
AcDbLine
 10
-138.39999389648437
 20
94.5
 30
0.0
 11
138.35000610351562
 21
94.5
 31
0.0
  0
LINE
  5
2EB
100
AcDbEntity
  8
0
  6
CONTINUOUS
 62
               7
100
AcDbLine
 10
138.35000610351562
 20
94.5
 30
0.0
 11
138.35000610351562
 21
-94.800003051757812
 31
0.0
  0
LINE
  5
2EC
100
AcDbEntity
  8
0
  6
CONTINUOUS
 62
               7
100
AcDbLine
 10
-138.39999389648437
 20
-94.800003051757812
 30
0.0
 11
138.35000610351562
 21
-94.800003051757812
 31
0.0
  0
LINE
  5
2ED
100
AcDbEntity
  8
0
  6
CONTINUOUS
 62
               7
100
AcDbLine
 10
-138.39999389648437
 20
94.5
 30
0.0
 11
-138.39999389648437
 21
-94.800003051757812
 31
0.0
  0
LINE
  5
2EE
100
AcDbEntity
  8
0
  6
CONTINUOUS
 62
               7
100
AcDbLine
 10
73.350006103515625
 20
-84.800003051757813
 30
0.0
 11
138.35000610351562
 21
-84.800003051757813
 31
0.0
  0
LINE
  5
2EF
100
AcDbEntity
  8
0
  6
CONTINUOUS
 62
               7
100
AcDbLine
 10
-138.39999389648437
 20
84.5
 30
0.0
 11
-73.399993896484375
 21
84.5
 31
0.0
  0
LINE
  5
2F0
100
AcDbEntity
  8
0
  6
CONTINUOUS
 62
               7
100
AcDbLine
 10
73.350006103515625
 20
84.5
 30
0.0
 11
138.35000610351562
 21
84.5
 31
0.0
  0
LINE
  5
2F1
100
AcDbEntity
  8
0
  6
CONTINUOUS
 62
               7
100
AcDbLine
 10
73.350006103515625
 20
-84.800003051757813
 30
0.0
 11
73.350006103515625
 21
-94.800003051757812
 31
0.0
  0
LINE
  5
2F2
100
AcDbEntity
  8
0
  6
CONTINUOUS
 62
               7
100
AcDbLine
 10
73.350006103515625
 20
94.5
 30
0.0
 11
73.350006103515625
 21
84.5
 31
0.0
  0
LINE
  5
2F3
100
AcDbEntity
  8
0
  6
CONTINUOUS
 62
               7
100
AcDbLine
 10
-73.399993896484375
 20
94.5
 30
0.0
 11
-73.399993896484375
 21
84.5
 31
0.0
  0
MTEXT
  5
2F4
100
AcDbEntity
  8
0
  6
CONTINUOUS
 62
               7
100
AcDbMText
 10
77.440523342735503
 20
-89.800003051757812
 30
0.0
 40
4.5
 41
0.0
 71
               4
 72
               1
  1
\W1.121;\A1;KOGANEI CORP.
  0
MTEXT
  5
2F5
100
AcDbEntity
  8
0
  6
CONTINUOUS
 62
               7
100
AcDbMText
 10
93.73085788106853
 20
89.5
 30
0.0
 40
3.1999998092651367
 41
0.0
 71
               4
 72
               1
  1
\W1.277;\A1;Ver. 1.2
  0
MTEXT
  5
2F6
100
AcDbEntity
  8
0
  6
CONTINUOUS
 62
               7
100
AcDbMText
 10
-129.33924483662557
 20
91.099999904632568
 30
0.0
 40
3.1999998092651367
 41
0.0
 71
               1
 72
               1
  1
\W1.051;\A1;CS-PEN CYLINDER
  0
MTEXT
  5
2F7
100
AcDbEntity
  8
0
  6
CONTINUOUS
 62
               7
100
AcDbMText
 10
-129.42499391363236
 20
74.5
 30
0.0
 40
3.2000000476837158
 41
0.0
 71
               4
 72
               1
  1
\W1.078;\A1;MODEL:CS-PBSAS16*ST(25)
  0
ENDSEC
  0
SECTION
  2
OBJECTS
  0
DICTIONARY
  5
19
100
AcDbDictionary
  3
ACAD_GROUP
350
1A
  3
ACAD_MLINESTYLE
350
1B
  0
DICTIONARY
  5
1A
102
{ACAD_REACTORS
330
19
102
}
100
AcDbDictionary
  0
DICTIONARY
  5
1B
102
{ACAD_REACTORS
330
19
102
}
100
AcDbDictionary
  3
STANDARD
350
1C
  0
MLINESTYLE
  5
1C
102
{ACAD_REACTORS
330
1B
102
}
100
AcDbMlineStyle
  2
Standard
 70
               0
  3

 62
               0
 51
90.0
 52
90.0
 71
               2
 49
0.5
 62
             256
  6
ByLayer
 49
-0.5
 62
             256
  6
ByLayer
  0
ENDSEC
  0
EOF
