  0
SECTION
  2
HEADER
  0
ENDSEC
  0
SECTION
  2
TABLES
  0
TABLE
  2
LTYPE
 70
     4
  0
LTYPE
  2
CONTINUOUS
 70
    64
  3
Solid line
 72
    65
 73
     0
 40
0.000000
  0
LTYPE
  2
DASHED
 70
    64
  3
__ __ __ __ __ __ __ __ __ __ __ __ __ __ __
 72
    65
 73
     2
 40
3.500000
 49
2.000000
 49
-1.500000
  0
LTYPE
  2
CENTER
 70
    64
  3
____ _ ____ _ ____ _ ____ _ ____ _ ____ _ ____
 72
    65
 73
     4
 40
17.500000
 49
13.000000
 49
-1.500000
 49
1.500000
 49
-1.500000
  0
LTYPE
  2
PHANTOM
 70
    64
  3
_____ _ _ _____ _ _ _____ _ _ _____ _ _ ____  
 72
    65
 73
     6
 40
15.500000
 49
8.000000
 49
-1.500000
 49
1.500000
 49
-1.500000
 49
1.500000
 49
-1.500000
  0
LTYPE
  2
DASHED1
 70
    64
  3
__ __ __ __ __ __ __ __ __ __ __ __ __ __ __
 72
    65
 73
     2
 40
1.500000
 49
1.000000
 49
-0.500000
  0
LTYPE
  2
DASHED2
 70
    64
  3
__ __ __ __ __ __ __ __ __ __ __ __ __ __ __
 72
    65
 73
     2
 40
3.500000
 49
2.500000
 49
-1.000000
  0
LTYPE
  2
DASHED3
 70
    64
  3
__ __ __ __ __ __ __ __ __ __ __ __ __ __ __
 72
    65
 73
     2
 40
6.000000
 49
4.000000
 49
-2.000000
  0
LTYPE
  2
DASHED4
 70
    64
  3
__ __ __ __ __ __ __ __ __ __ __ __ __ __ __
 72
    65
 73
     2
 40
12.000000
 49
10.000000
 49
-2.000000
  0
LTYPE
  2
DASHED5
 70
    64
  3
__ __ __ __ __ __ __ __ __ __ __ __ __ __ __
 72
    65
 73
     2
 40
17.000000
 49
15.000000
 49
-2.000000
  0
LTYPE
  2
DASHED6
 70
    64
  3
__ __ __ __ __ __ __ __ __ __ __ __ __ __ __
 72
    65
 73
     2
 40
29.000000
 49
27.000000
 49
-2.000000
  0
LTYPE
  2
PHANTOM1
 70
    64
  3
_____ _ _ _____ _ _ _____ _ _ _____ _ _ ____  
 72
    65
 73
     6
 40
31.000000
 49
25.000000
 49
-1.500000
 49
1.000000
 49
-1.000000
 49
1.000000
 49
-1.500000
  0
LTYPE
  2
PHANTOM2
 70
    64
  3
_____ _ _ _____ _ _ _____ _ _ _____ _ _ ____  
 72
    65
 73
     6
 40
36.000000
 49
27.000000
 49
-1.500000
 49
2.500000
 49
-1.000000
 49
2.500000
 49
-1.500000
  0
LTYPE
  2
PHANTOM3
 70
    64
  3
_____ _ _ _____ _ _ _____ _ _ _____ _ _ ____  
 72
    65
 73
     6
 40
78.000000
 49
64.000000
 49
-2.000000
 49
4.000000
 49
-2.000000
 49
4.000000
 49
-2.000000
  0
LTYPE
  2
CENTER1
 70
    64
  3
____ _ ____ _ ____ _ ____ _ ____ _ ____ _ ____
 72
    65
 73
     4
 40
19.000000
 49
14.000000
 49
-1.000000
 49
3.000000
 49
-1.000000
  0
LTYPE
  2
CENTER2
 70
    64
  3
____ _ ____ _ ____ _ ____ _ ____ _ ____ _ ____
 72
    65
 73
     4
 40
28.500000
 49
25.000000
 49
-1.000000
 49
1.500000
 49
-1.000000
  0
LTYPE
  2
CENTER3
 70
    64
  3
____ _ ____ _ ____ _ ____ _ ____ _ ____ _ ____
 72
    65
 73
     4
 40
31.500000
 49
27.000000
 49
-1.000000
 49
2.500000
 49
-1.000000
  0
LTYPE
  2
CENTER4
 70
    64
  3
____ _ ____ _ ____ _ ____ _ ____ _ ____ _ ____
 72
    65
 73
     4
 40
50.000000
 49
45.000000
 49
-1.000000
 49
3.000000
 49
-1.000000
  0
LTYPE
  2
CENTER5
 70
    64
  3
____ _ ____ _ ____ _ ____ _ ____ _ ____ _ ____
 72
    65
 73
     4
 40
100.000000
 49
92.000000
 49
-2.000000
 49
4.000000
 49
-2.000000
  0
LTYPE
  2
SBK1
 70
    64
  3
______ _ _ _ ______ _ _ _ ______ _ _ _ _____  
 72
    65
 73
     8
 40
60.500000
 49
45.000000
 49
-2.000000
 49
2.500000
 49
-2.000000
 49
2.500000
 49
-2.000000
 49
2.500000
 49
-2.000000
  0
LTYPE
  2
SBK2
 70
    64
  3
______ _ _ _ ______ _ _ _ ______ _ _ _ _____  
 72
    65
 73
     8
 40
84.000000
 49
64.000000
 49
-2.000000
 49
4.000000
 49
-2.000000
 49
4.000000
 49
-2.000000
 49
4.000000
 49
-2.000000
  0
LTYPE
  2
STCH
 70
    64
  3
__ __ __ __ __ __ __ __ __ __ __ __ __ __ __
 72
    65
 73
     2
 40
3.000000
 49
1.000000
 49
-2.000000
  0
LTYPE
  2
MTCH
 70
    64
  3
_____ _ _ _____ _ _ _____ _ _ _____ _ _ ____  
 72
    65
 73
     6
 40
80.000000
 49
66.000000
 49
-2.000000
 49
4.000000
 49
-2.000000
 49
4.000000
 49
-2.000000
  0
ENDTAB
  0
TABLE
  2
LAYER
 70
     1
  0
LAYER
  2
0
 70
     0
 62
     7
  6
CONTINUOUS
  0
ENDTAB
  0
TABLE
  2
STYLE
 70
     1
  0
STYLE
  2
STANDARD
 70
     0
 40
0.000000
 41
1.000000
 50
0.000000
 71
     0
 42
0.200000
  3
txt
  4
BIGFONT
  0
ENDTAB
  0
TABLE
  2
VIEW
 70
     0
  0
ENDTAB
  0
ENDSEC
  0
SECTION
  2
BLOCKS
  0
ENDSEC
  0
SECTION
  2
ENTITIES
  0
LINE
  8
0
 62
     4
 10
90.061424
 20
-45.715775
 11
91.771423
 21
-44.005775
  0
LINE
  8
0
 62
     4
 10
90.481422
 20
-46.145775
 11
92.201424
 21
-44.435776
  0
LINE
  8
0
 62
     4
 10
111.131424
 20
-42.825775
 11
111.131424
 21
-47.325775
  0
LINE
  8
0
 62
     4
 10
106.211426
 20
-47.325775
 11
111.131424
 21
-47.325775
  0
LINE
  8
0
 62
     4
 10
106.211426
 20
-42.825775
 11
111.131424
 21
-42.825775
  0
LINE
  8
0
  6
CENTER
 62
     1
 10
91.131424
 20
-42.245773
 11
91.131424
 21
-47.825775
  0
LINE
  8
0
 62
     4
 10
89.131424
 20
-43.025776
 11
89.131424
 21
-47.125774
  0
LINE
  8
0
 62
     4
 10
89.131424
 20
-43.025776
 11
106.041428
 21
-43.025776
  0
LINE
  8
0
 62
     4
 10
89.131424
 20
-47.125774
 11
106.041428
 21
-47.125774
  0
LINE
  8
0
 62
     4
 10
89.131424
 20
-43.575775
 11
105.691422
 21
-43.575775
  0
LINE
  8
0
 62
     4
 10
89.131424
 20
-46.575775
 11
105.691422
 21
-46.575775
  0
LINE
  8
0
  6
CENTER
 62
     1
 10
87.811424
 20
-45.075775
 11
112.711426
 21
-45.075775
  0
LINE
  8
0
 62
     4
 10
47.388699
 20
-82.025795
 11
47.388699
 21
-85.775795
  0
LINE
  8
0
 62
     4
 10
44.788700
 20
-83.525795
 11
44.788700
 21
-85.775795
  0
LINE
  8
0
 62
     4
 10
44.838699
 20
-92.175797
 11
47.338699
 21
-92.175797
  0
LINE
  8
0
 62
     4
 10
47.338699
 20
-92.175797
 11
47.338699
 21
-92.675797
  0
LINE
  8
0
 62
     1
 10
47.108700
 20
-92.175797
 11
47.108700
 21
-92.675797
  0
LINE
  8
0
 62
     1
 10
45.068699
 20
-92.175797
 11
45.068699
 21
-92.675797
  0
LINE
  8
0
 62
     4
 10
44.838699
 20
-92.175797
 11
44.838699
 21
-92.675797
  0
LINE
  8
0
 62
     4
 10
44.838699
 20
-96.445793
 11
47.338699
 21
-96.445793
  0
LINE
  8
0
 62
     4
 10
47.338699
 20
-95.275795
 11
47.338699
 21
-96.445793
  0
LINE
  8
0
 62
     1
 10
47.108700
 20
-95.275795
 11
47.108700
 21
-96.675797
  0
LINE
  8
0
 62
     1
 10
45.068699
 20
-95.275795
 11
45.068699
 21
-96.675797
  0
LINE
  8
0
 62
     4
 10
44.838699
 20
-95.275795
 11
44.838699
 21
-96.445793
  0
LINE
  8
0
 62
     4
 10
45.068699
 20
-96.675804
 11
44.838699
 21
-96.445801
  0
LINE
  8
0
 62
     4
 10
47.108704
 20
-96.675797
 11
47.338699
 21
-96.445793
  0
LINE
  8
0
 62
     4
 10
45.068699
 20
-96.675797
 11
47.108700
 21
-96.675797
  0
LINE
  8
0
 62
     1
 10
43.928699
 20
-84.025787
 11
48.248699
 21
-81.525787
  0
LINE
  8
0
 62
     4
 10
43.838699
 20
-85.775795
 11
48.338699
 21
-85.775795
  0
LINE
  8
0
 62
     4
 10
44.038700
 20
-95.275795
 11
48.138699
 21
-95.275795
  0
LINE
  8
0
 62
     4
 10
44.038700
 20
-94.475800
 11
48.138699
 21
-94.475800
  0
LINE
  8
0
 62
     4
 10
44.588699
 20
-92.675797
 11
47.588699
 21
-92.675797
  0
LINE
  8
0
  6
CENTER
 62
     1
 10
46.088699
 20
-80.115799
 11
46.088699
 21
-98.735794
  0
LINE
  8
0
 62
     4
 10
48.338699
 20
-85.775795
 11
48.338699
 21
-91.525795
  0
LINE
  8
0
 62
     4
 10
47.588699
 20
-92.275795
 11
48.338699
 21
-91.525795
  0
LINE
  8
0
 62
     4
 10
47.588699
 20
-93.125793
 11
47.588699
 21
-92.275795
  0
LINE
  8
0
 62
     4
 10
48.138699
 20
-93.675789
 11
47.588699
 21
-93.125786
  0
LINE
  8
0
 62
     4
 10
48.138699
 20
-93.675797
 11
48.138699
 21
-95.225800
  0
LINE
  8
0
 62
     4
 10
44.038700
 20
-93.675797
 11
44.038700
 21
-95.225800
  0
LINE
  8
0
 62
     4
 10
44.038696
 20
-93.675797
 11
44.588696
 21
-93.125793
  0
LINE
  8
0
 62
     4
 10
44.588699
 20
-93.125793
 11
44.588699
 21
-92.275795
  0
LINE
  8
0
 62
     4
 10
44.588696
 20
-92.275787
 11
43.838703
 21
-91.525795
  0
LINE
  8
0
 62
     4
 10
43.838699
 20
-85.775795
 11
43.838699
 21
-91.525795
  0
LINE
  8
0
 62
     4
 10
43.838699
 20
-87.275795
 11
48.338699
 21
-87.275795
  0
LINE
  8
0
 62
     4
 10
109.831421
 20
-80.525795
 11
109.831421
 21
-77.275795
  0
LINE
  8
0
 62
     4
 10
107.231422
 20
-82.025795
 11
107.231422
 21
-77.275795
  0
LINE
  8
0
 62
     4
 10
107.231422
 20
-85.775795
 11
107.231422
 21
-83.525795
  0
LINE
  8
0
 62
     4
 10
109.831421
 20
-85.775795
 11
109.831421
 21
-82.025795
  0
LINE
  8
0
 62
     4
 10
89.881424
 20
-92.175797
 11
92.381424
 21
-92.175797
  0
LINE
  8
0
 62
     4
 10
92.381424
 20
-92.175797
 11
92.381424
 21
-92.675797
  0
LINE
  8
0
 62
     1
 10
92.151421
 20
-92.175797
 11
92.151421
 21
-92.675797
  0
LINE
  8
0
 62
     1
 10
90.101425
 20
-92.175797
 11
90.101425
 21
-92.675797
  0
LINE
  8
0
 62
     4
 10
89.881424
 20
-92.175797
 11
89.881424
 21
-92.675797
  0
LINE
  8
0
 62
     4
 10
89.881424
 20
-96.445793
 11
92.381424
 21
-96.445793
  0
LINE
  8
0
 62
     4
 10
92.381424
 20
-95.275795
 11
92.381424
 21
-96.445793
  0
LINE
  8
0
 62
     1
 10
92.151421
 20
-95.275795
 11
92.151421
 21
-96.675797
  0
LINE
  8
0
 62
     1
 10
90.101425
 20
-95.275795
 11
90.101425
 21
-96.675797
  0
LINE
  8
0
 62
     4
 10
89.881424
 20
-95.275795
 11
89.881424
 21
-96.445793
  0
LINE
  8
0
 62
     4
 10
90.101433
 20
-96.675804
 11
89.881424
 21
-96.445793
  0
LINE
  8
0
 62
     4
 10
92.151421
 20
-96.675797
 11
92.381424
 21
-96.445793
  0
LINE
  8
0
 62
     4
 10
90.101425
 20
-96.675797
 11
92.151421
 21
-96.675797
  0
LINE
  8
0
 62
     1
 10
106.371422
 20
-84.025795
 11
110.701424
 21
-81.525795
  0
LINE
  8
0
 62
     1
 10
106.371422
 20
-82.525795
 11
110.701424
 21
-80.025795
  0
LINE
  8
0
 62
     1
 10
106.371422
 20
-75.045799
 11
110.701424
 21
-72.545799
  0
LINE
  8
0
  6
CENTER
 62
     1
 10
108.531425
 20
-87.095795
 11
108.531425
 21
-77.275795
  0
LINE
  8
0
 62
     1
 10
106.371422
 20
-73.545799
 11
110.701424
 21
-71.045799
  0
LINE
  8
0
 62
     4
 10
109.231422
 20
-70.275795
 11
109.231422
 21
-67.275795
  0
LINE
  8
0
 62
     4
 10
108.731422
 20
-70.275795
 11
108.731422
 21
-67.275795
  0
LINE
  8
0
 62
     4
 10
108.331421
 20
-70.275795
 11
108.331421
 21
-67.275795
  0
LINE
  8
0
 62
     4
 10
107.831421
 20
-70.275795
 11
107.831421
 21
-67.275795
  0
LINE
  8
0
 62
     4
 10
107.631424
 20
-72.815796
 11
107.631424
 21
-70.275795
  0
LINE
  8
0
 62
     4
 10
107.631424
 20
-77.275795
 11
107.631424
 21
-74.315796
  0
LINE
  8
0
 62
     4
 10
109.431427
 20
-71.775795
 11
109.431427
 21
-70.275795
  0
LINE
  8
0
 62
     4
 10
108.531425
 20
-72.295799
 11
108.531425
 21
-70.275795
  0
LINE
  8
0
 62
     4
 10
108.531425
 20
-77.275795
 11
108.531425
 21
-73.795799
  0
LINE
  8
0
 62
     4
 10
109.431427
 20
-77.275795
 11
109.431427
 21
-73.275795
  0
LINE
  8
0
 62
     4
 10
107.631424
 20
-70.275795
 11
109.431427
 21
-70.275795
  0
LINE
  8
0
 62
     4
 10
108.731422
 20
-67.275795
 11
109.231422
 21
-67.275795
  0
LINE
  8
0
 62
     4
 10
107.831421
 20
-67.275795
 11
108.331421
 21
-67.275795
  0
LINE
  8
0
  6
CENTER
 62
     1
 10
108.981422
 20
-78.955795
 11
108.981422
 21
-67.025795
  0
LINE
  8
0
  6
CENTER
 62
     1
 10
108.081421
 20
-79.005798
 11
108.081421
 21
-67.075798
  0
LINE
  8
0
 62
     4
 10
107.231422
 20
-77.275795
 11
109.831421
 21
-77.275795
  0
LINE
  8
0
 62
     4
 10
105.231422
 20
-87.275795
 11
111.131424
 21
-87.275795
  0
LINE
  8
0
 62
     4
 10
105.231422
 20
-92.275795
 11
111.131424
 21
-92.275795
  0
LINE
  8
0
 62
     4
 10
105.231422
 20
-91.525795
 11
111.131424
 21
-91.525795
  0
LINE
  8
0
 62
     4
 10
89.131424
 20
-93.125793
 11
111.131424
 21
-93.125793
  0
LINE
  8
0
 62
     4
 10
89.131424
 20
-93.675797
 11
111.131424
 21
-93.675797
  0
LINE
  8
0
 62
     4
 10
93.401421
 20
-94.475800
 11
93.401421
 21
-95.655800
  0
LINE
  8
0
 62
     4
 10
93.401421
 20
-95.655800
 11
93.831421
 21
-95.655800
  0
LINE
  8
0
 62
     4
 10
93.331421
 20
-94.475800
 11
93.331421
 21
-96.475800
  0
LINE
  8
0
 62
     4
 10
93.331421
 20
-96.475800
 11
93.831421
 21
-96.475800
  0
LINE
  8
0
 62
     4
 10
105.231422
 20
-85.775795
 11
111.131424
 21
-85.775795
  0
LINE
  8
0
 62
     4
 10
93.131424
 20
-94.475800
 11
93.131424
 21
-95.275795
  0
LINE
  8
0
 62
     4
 10
89.131424
 20
-95.275795
 11
93.131424
 21
-95.275795
  0
LINE
  8
0
 62
     4
 10
89.131424
 20
-94.475800
 11
93.401421
 21
-94.475800
  0
LINE
  8
0
 62
     4
 10
105.231422
 20
-85.775795
 11
105.231422
 21
-92.675797
  0
LINE
  8
0
  6
CENTER
 62
     1
 10
91.131424
 20
-91.945793
 11
91.131424
 21
-97.845795
  0
LINE
  8
0
 62
     4
 10
93.831421
 20
-95.655800
 11
93.831421
 21
-97.275795
  0
LINE
  8
0
 62
     4
 10
89.131424
 20
-95.275795
 11
89.131424
 21
-92.675797
  0
LINE
  8
0
 62
     4
 10
111.131424
 20
-85.775795
 11
111.131424
 21
-97.275795
  0
LINE
  8
0
 62
     4
 10
93.831421
 20
-97.275795
 11
111.131424
 21
-97.275795
  0
LINE
  8
0
 62
     4
 10
89.131424
 20
-92.675797
 11
105.231422
 21
-92.675797
  0
LINE
  8
0
 62
     4
 10
-46.679520
 20
-51.425793
 11
-43.589520
 21
-51.425793
  0
LINE
  8
0
 62
     4
 10
-46.679520
 20
-48.825794
 11
-45.099518
 21
-48.825794
  0
LINE
  8
0
 62
     1
 10
-45.599518
 20
-47.965794
 11
-43.099518
 21
-52.285793
  0
LINE
  8
0
 62
     4
 10
-67.379517
 20
-51.185799
 11
-65.739517
 21
-49.565796
  0
LINE
  8
0
 62
     4
 10
-67.729515
 20
-50.835789
 11
-65.999519
 21
-49.105793
  0
LINE
  8
0
  6
CENTER
 62
     1
 10
-66.679520
 20
-47.295792
 11
-66.679520
 21
-52.875793
  0
LINE
  8
0
 62
     4
 10
-46.679520
 20
-48.075794
 11
-46.679520
 21
-52.175793
  0
LINE
  8
0
 62
     4
 10
-68.679520
 20
-48.075794
 11
-68.679520
 21
-52.175793
  0
LINE
  8
0
 62
     4
 10
-68.679520
 20
-48.075794
 11
-46.679520
 21
-48.075794
  0
LINE
  8
0
 62
     4
 10
-68.679520
 20
-52.175793
 11
-46.679520
 21
-52.175793
  0
LINE
  8
0
 62
     4
 10
-68.679520
 20
-48.625793
 11
-46.679520
 21
-48.625793
  0
LINE
  8
0
 62
     4
 10
-68.679520
 20
-51.625793
 11
-46.679520
 21
-51.625793
  0
LINE
  8
0
  6
CENTER
 62
     1
 10
-71.479523
 20
-50.125793
 11
-41.279518
 21
-50.125793
  0
LINE
  8
0
  6
CENTER
 62
     1
 10
-113.222244
 20
-90.625793
 11
-113.222244
 21
-99.335800
  0
LINE
  8
0
 62
     4
 10
-114.472244
 20
-92.175797
 11
-111.972244
 21
-92.175797
  0
LINE
  8
0
 62
     4
 10
-111.972244
 20
-92.175797
 11
-111.972244
 21
-92.675797
  0
LINE
  8
0
 62
     1
 10
-112.202248
 20
-92.175797
 11
-112.202248
 21
-92.675797
  0
LINE
  8
0
 62
     1
 10
-114.242241
 20
-92.175797
 11
-114.242241
 21
-92.675797
  0
LINE
  8
0
 62
     4
 10
-114.472244
 20
-92.175797
 11
-114.472244
 21
-92.675797
  0
LINE
  8
0
 62
     4
 10
-114.472244
 20
-96.445793
 11
-111.972244
 21
-96.445793
  0
LINE
  8
0
 62
     4
 10
-111.972244
 20
-95.265793
 11
-111.972244
 21
-96.445793
  0
LINE
  8
0
 62
     1
 10
-112.202248
 20
-95.265793
 11
-112.202248
 21
-96.675797
  0
LINE
  8
0
 62
     1
 10
-114.242241
 20
-95.265793
 11
-114.242241
 21
-96.675797
  0
LINE
  8
0
 62
     4
 10
-114.472244
 20
-95.265793
 11
-114.472244
 21
-96.445793
  0
LINE
  8
0
 62
     4
 10
-114.242233
 20
-96.675789
 11
-114.472237
 21
-96.445786
  0
LINE
  8
0
 62
     4
 10
-112.202248
 20
-96.675797
 11
-111.972244
 21
-96.445793
  0
LINE
  8
0
 62
     4
 10
-114.242241
 20
-96.675797
 11
-112.202248
 21
-96.675797
  0
LINE
  8
0
 62
     4
 10
-115.272247
 20
-95.265793
 11
-111.172241
 21
-95.265793
  0
LINE
  8
0
 62
     4
 10
-115.272247
 20
-94.475800
 11
-111.172241
 21
-94.475800
  0
LINE
  8
0
 62
     4
 10
-111.172241
 20
-93.675797
 11
-111.172241
 21
-95.225800
  0
LINE
  8
0
 62
     4
 10
-111.172241
 20
-93.675797
 11
-111.722244
 21
-93.125793
  0
LINE
  8
0
 62
     4
 10
-111.722244
 20
-92.675797
 11
-111.722244
 21
-93.125793
  0
LINE
  8
0
 62
     4
 10
-114.722244
 20
-92.675797
 11
-111.722244
 21
-92.675797
  0
LINE
  8
0
 62
     4
 10
-114.722244
 20
-92.675797
 11
-114.722244
 21
-93.125793
  0
LINE
  8
0
 62
     4
 10
-115.272247
 20
-93.675797
 11
-114.722244
 21
-93.125793
  0
LINE
  8
0
 62
     4
 10
-115.272247
 20
-93.675797
 11
-115.272247
 21
-95.225800
  0
LINE
  8
0
 62
     4
 10
-41.429535
 20
-96.275902
 11
-38.179535
 21
-96.275902
  0
LINE
  8
0
 62
     4
 10
-42.929535
 20
-93.675903
 11
-38.179535
 21
-93.675903
  0
LINE
  8
0
 62
     4
 10
-46.679535
 20
-96.275902
 11
-42.929535
 21
-96.275902
  0
LINE
  8
0
 62
     4
 10
-46.679535
 20
-93.675903
 11
-44.429535
 21
-93.675903
  0
LINE
  8
0
 62
     4
 10
-68.679535
 20
-93.125900
 11
-46.679535
 21
-93.125900
  0
LINE
  8
0
 62
     4
 10
-68.679535
 20
-93.675903
 11
-46.679535
 21
-93.675903
  0
LINE
  8
0
 62
     4
 10
-67.929535
 20
-92.175903
 11
-65.429535
 21
-92.175903
  0
LINE
  8
0
 62
     4
 10
-65.429535
 20
-92.175903
 11
-65.429535
 21
-92.675903
  0
LINE
  8
0
 62
     1
 10
-65.659538
 20
-92.175903
 11
-65.659538
 21
-92.675903
  0
LINE
  8
0
 62
     1
 10
-67.709534
 20
-92.175903
 11
-67.709534
 21
-92.675903
  0
LINE
  8
0
 62
     4
 10
-67.929535
 20
-92.175903
 11
-67.929535
 21
-92.675903
  0
LINE
  8
0
 62
     4
 10
-67.929535
 20
-96.445900
 11
-65.429535
 21
-96.445900
  0
LINE
  8
0
 62
     4
 10
-65.429535
 20
-95.265900
 11
-65.429535
 21
-96.445900
  0
LINE
  8
0
 62
     1
 10
-65.659538
 20
-95.265900
 11
-65.659538
 21
-96.675903
  0
LINE
  8
0
 62
     1
 10
-67.709534
 20
-95.265900
 11
-67.709534
 21
-96.675903
  0
LINE
  8
0
 62
     4
 10
-67.929535
 20
-95.265900
 11
-67.929535
 21
-96.445900
  0
LINE
  8
0
 62
     4
 10
-67.709534
 20
-96.675903
 11
-67.929535
 21
-96.445900
  0
LINE
  8
0
 62
     4
 10
-65.659538
 20
-96.675903
 11
-65.429535
 21
-96.445900
  0
LINE
  8
0
 62
     4
 10
-67.709534
 20
-96.675903
 11
-65.659538
 21
-96.675903
  0
LINE
  8
0
 62
     1
 10
-44.929535
 20
-92.805901
 11
-42.429535
 21
-97.135902
  0
LINE
  8
0
 62
     1
 10
-43.429531
 20
-92.805901
 11
-40.929531
 21
-97.135902
  0
LINE
  8
0
 62
     1
 10
-35.949532
 20
-92.805901
 11
-33.449532
 21
-97.135902
  0
LINE
  8
0
  6
CENTER
 62
     1
 10
-47.999535
 20
-94.975906
 11
-38.179535
 21
-94.975906
  0
LINE
  8
0
 62
     1
 10
-34.449535
 20
-92.805901
 11
-31.949532
 21
-97.135902
  0
LINE
  8
0
 62
     4
 10
-31.179535
 20
-95.675903
 11
-28.179535
 21
-95.675903
  0
LINE
  8
0
 62
     4
 10
-31.179535
 20
-95.175903
 11
-28.179535
 21
-95.175903
  0
LINE
  8
0
 62
     4
 10
-31.179535
 20
-94.775902
 11
-28.179535
 21
-94.775902
  0
LINE
  8
0
 62
     4
 10
-31.179535
 20
-94.275902
 11
-28.179535
 21
-94.275902
  0
LINE
  8
0
 62
     4
 10
-33.719536
 20
-94.075905
 11
-31.179535
 21
-94.075905
  0
LINE
  8
0
 62
     4
 10
-38.179535
 20
-94.075905
 11
-35.219536
 21
-94.075905
  0
LINE
  8
0
 62
     4
 10
-32.679535
 20
-95.875900
 11
-31.179535
 21
-95.875900
  0
LINE
  8
0
 62
     4
 10
-33.199535
 20
-94.975906
 11
-31.179535
 21
-94.975906
  0
LINE
  8
0
 62
     4
 10
-38.179535
 20
-94.975906
 11
-34.699535
 21
-94.975906
  0
LINE
  8
0
 62
     4
 10
-38.179535
 20
-95.875900
 11
-34.179535
 21
-95.875900
  0
LINE
  8
0
 62
     4
 10
-31.179535
 20
-94.075905
 11
-31.179535
 21
-95.875900
  0
LINE
  8
0
 62
     4
 10
-28.179535
 20
-95.175903
 11
-28.179535
 21
-95.675903
  0
LINE
  8
0
 62
     4
 10
-28.179535
 20
-94.275902
 11
-28.179535
 21
-94.775902
  0
LINE
  8
0
  6
CENTER
 62
     1
 10
-39.859535
 20
-95.425903
 11
-27.929535
 21
-95.425903
  0
LINE
  8
0
  6
CENTER
 62
     1
 10
-39.909534
 20
-94.525902
 11
-27.979534
 21
-94.525902
  0
LINE
  8
0
 62
     4
 10
-38.179535
 20
-93.675903
 11
-38.179535
 21
-96.275902
  0
LINE
  8
0
 62
     4
 10
-64.429535
 20
-95.715904
 11
-63.979534
 21
-95.715904
  0
LINE
  8
0
 62
     4
 10
-64.479538
 20
-96.475906
 11
-63.979534
 21
-96.475906
  0
LINE
  8
0
 62
     4
 10
-64.479538
 20
-94.475906
 11
-64.479538
 21
-96.475906
  0
LINE
  8
0
 62
     4
 10
-68.679535
 20
-95.275902
 11
-64.679535
 21
-95.275902
  0
LINE
  8
0
 62
     4
 10
-68.679535
 20
-94.475906
 11
-68.679535
 21
-95.275902
  0
LINE
  8
0
 62
     4
 10
-64.679535
 20
-94.475906
 11
-64.679535
 21
-95.275902
  0
LINE
  8
0
 62
     4
 10
-64.429535
 20
-94.475906
 11
-64.429535
 21
-95.715904
  0
LINE
  8
0
  6
CENTER
 62
     1
 10
-66.679535
 20
-91.875900
 11
-66.679535
 21
-98.105904
  0
LINE
  8
0
 62
     4
 10
-68.679535
 20
-94.475906
 11
-64.429535
 21
-94.475906
  0
LINE
  8
0
 62
     4
 10
-63.979534
 20
-95.715904
 11
-63.979534
 21
-97.275902
  0
LINE
  8
0
 62
     4
 10
-68.679535
 20
-94.475906
 11
-68.679535
 21
-92.675903
  0
LINE
  8
0
 62
     4
 10
-46.679535
 20
-92.675903
 11
-46.679535
 21
-97.275902
  0
LINE
  8
0
 62
     4
 10
-63.979534
 20
-97.275902
 11
-46.679535
 21
-97.275902
  0
LINE
  8
0
 62
     4
 10
-68.679535
 20
-92.675903
 11
-46.679535
 21
-92.675903
  0
LINE
  8
0
 62
     4
 10
197.813492
 20
116.588158
 11
197.813492
 21
110.088158
  0
LINE
  8
0
 62
     4
 10
197.813492
 20
116.588165
 11
199.113495
 21
117.338158
  0
LINE
  8
0
 62
     4
 10
199.113495
 20
117.338158
 11
199.113495
 21
115.978157
  0
LINE
  8
0
 62
     4
 10
197.813492
 20
115.978157
 11
200.813492
 21
115.978157
  0
LINE
  8
0
 62
     1
 10
200.813492
 20
115.978165
 11
197.813492
 21
110.698166
  0
LINE
  8
0
 62
     1
 10
197.813507
 20
115.978165
 11
200.813507
 21
110.698158
  0
LINE
  8
0
 62
     4
 10
197.813492
 20
110.698158
 11
200.813492
 21
110.698158
  0
LINE
  8
0
 62
     4
 10
199.113495
 20
109.338158
 11
199.113495
 21
110.698158
  0
LINE
  8
0
 62
     4
 10
197.813492
 20
110.088150
 11
199.113495
 21
109.338150
  0
LINE
  8
0
 62
     4
 10
200.813492
 20
115.978157
 11
200.813492
 21
110.838158
  0
LINE
  8
0
 62
     4
 10
199.113495
 20
117.338158
 11
201.813492
 21
117.338158
  0
LINE
  8
0
 62
     4
 10
199.113495
 20
109.338158
 11
201.813492
 21
109.338158
  0
LINE
  8
0
 62
     4
 10
201.813492
 20
119.338158
 11
201.813492
 21
107.338158
  0
LINE
  8
0
 62
     4
 10
201.813492
 20
119.338158
 11
203.313492
 21
119.338158
  0
LINE
  8
0
 62
     4
 10
201.813492
 20
107.338158
 11
203.313492
 21
107.338158
  0
LINE
  8
0
 62
     4
 10
133.524918
 20
109.338158
 11
138.024918
 21
109.338158
  0
LINE
  8
0
 62
     4
 10
121.974915
 20
107.568161
 11
126.084915
 21
107.568161
  0
LINE
  8
0
 62
     4
 10
121.524925
 20
108.338158
 11
121.974922
 21
107.568161
  0
LINE
  8
0
 62
     4
 10
126.084915
 20
107.568153
 11
126.524918
 21
108.338158
  0
LINE
  8
0
 62
     1
 10
130.524918
 20
110.879646
 11
131.463516
 21
110.338150
  0
LINE
  8
0
 62
     1
 10
130.524918
 20
115.796661
 11
131.463516
 21
116.338158
  0
LINE
  8
0
 62
     1
 10
126.524918
 20
110.879654
 11
130.524918
 21
110.879654
  0
LINE
  8
0
 62
     1
 10
126.524918
 20
115.796661
 11
130.524918
 21
115.796661
  0
LINE
  8
0
 62
     1
 10
117.524918
 20
115.796661
 11
121.524918
 21
115.796661
  0
LINE
  8
0
 62
     1
 10
117.524918
 20
110.879654
 11
121.524918
 21
110.879654
  0
LINE
  8
0
 62
     4
 10
135.524918
 20
115.988159
 11
135.524918
 21
110.698158
  0
LINE
  8
0
 62
     1
 10
135.524918
 20
115.988159
 11
132.524918
 21
110.698158
  0
LINE
  8
0
 62
     1
 10
132.524918
 20
115.988159
 11
135.524918
 21
110.698158
  0
LINE
  8
0
 62
     4
 10
132.524918
 20
110.698158
 11
135.524918
 21
110.698158
  0
LINE
  8
0
 62
     4
 10
132.524918
 20
116.338158
 11
132.524918
 21
110.338158
  0
LINE
  8
0
 62
     4
 10
130.524918
 20
116.338158
 11
130.524918
 21
110.338158
  0
LINE
  8
0
 62
     4
 10
126.524918
 20
116.338158
 11
132.524918
 21
116.338158
  0
LINE
  8
0
 62
     4
 10
126.524918
 20
110.338158
 11
132.524918
 21
110.338158
  0
LINE
  8
0
 62
     4
 10
121.974915
 20
110.458160
 11
126.084915
 21
110.458160
  0
LINE
  8
0
 62
     4
 10
126.084923
 20
119.118156
 11
126.524925
 21
118.338158
  0
LINE
  8
0
 62
     4
 10
121.974915
 20
119.118156
 11
126.084915
 21
119.118156
  0
LINE
  8
0
 62
     4
 10
121.524918
 20
118.338158
 11
121.974915
 21
119.118156
  0
LINE
  8
0
 62
     4
 10
121.974915
 20
116.228157
 11
126.084915
 21
116.228157
  0
LINE
  8
0
 62
     4
 10
118.066422
 20
116.338158
 11
121.524918
 21
116.338158
  0
LINE
  8
0
 62
     4
 10
118.066422
 20
110.338158
 11
121.524918
 21
110.338158
  0
LINE
  8
0
 62
     4
 10
117.524918
 20
115.796661
 11
117.524918
 21
110.879654
  0
LINE
  8
0
 62
     4
 10
133.524918
 20
117.338158
 11
138.024918
 21
117.338158
  0
LINE
  8
0
 62
     4
 10
132.524918
 20
116.338150
 11
133.524918
 21
117.338150
  0
LINE
  8
0
 62
     4
 10
133.524918
 20
117.338158
 11
133.524918
 21
115.988159
  0
LINE
  8
0
 62
     4
 10
132.524918
 20
115.988159
 11
135.524918
 21
115.988159
  0
LINE
  8
0
 62
     4
 10
117.524918
 20
115.796661
 11
118.066414
 21
116.338158
  0
LINE
  8
0
 62
     4
 10
117.524918
 20
110.879654
 11
118.066414
 21
110.338158
  0
LINE
  8
0
 62
     4
 10
118.066422
 20
116.338158
 11
118.066422
 21
110.338158
  0
LINE
  8
0
 62
     4
 10
121.524918
 20
118.338158
 11
121.524918
 21
108.338158
  0
LINE
  8
0
 62
     4
 10
126.524918
 20
118.338158
 11
126.524918
 21
108.338158
  0
LINE
  8
0
 62
     4
 10
132.524918
 20
110.338158
 11
133.524918
 21
109.338158
  0
LINE
  8
0
 62
     4
 10
133.524918
 20
110.698158
 11
133.524918
 21
109.338158
  0
LINE
  8
0
 62
     4
 10
-33.627048
 20
121.389122
 11
-30.627048
 21
121.389122
  0
LINE
  8
0
 62
     4
 10
-33.627048
 20
127.389122
 11
-30.627048
 21
127.389122
  0
LINE
  8
0
 62
     4
 10
-30.627048
 20
121.389114
 11
-29.627550
 21
120.389114
  0
LINE
  8
0
 62
     4
 10
-30.627048
 20
127.389122
 11
-29.627546
 21
128.389114
  0
LINE
  8
0
 10
-18.127048
 20
119.689125
 11
3.872952
 21
119.689125
  0
LINE
  8
0
 10
-18.127048
 20
122.889122
 11
3.872952
 21
122.889122
  0
LINE
  8
0
 10
-18.127048
 20
125.889122
 11
3.872952
 21
125.889122
  0
LINE
  8
0
 10
-18.127048
 20
129.089127
 11
3.872952
 21
129.089127
  0
LINE
  8
0
 10
-28.127048
 20
136.659119
 11
3.872952
 21
136.659119
  0
LINE
  8
0
  6
CENTER
 62
     2
 10
-36.117050
 20
124.389122
 11
6.112953
 21
124.389122
  0
LINE
  8
0
 62
     4
 10
-28.127048
 20
128.389130
 11
-29.627546
 21
128.389130
  0
LINE
  8
0
 62
     4
 10
-29.627546
 20
120.389122
 11
-28.127048
 21
120.389122
  0
LINE
  8
0
 62
     4
 10
-33.627048
 20
127.389122
 11
-33.627048
 21
121.389122
  0
LINE
  8
0
 62
     4
 10
-31.887049
 20
121.389122
 11
-31.887049
 21
127.389122
  0
LINE
  8
0
 10
3.872952
 20
138.889130
 11
3.872952
 21
109.889122
  0
LINE
  8
0
 10
-28.127048
 20
138.889130
 11
3.872952
 21
138.889130
  0
LINE
  8
0
 10
-18.127048
 20
138.889130
 11
-18.127048
 21
109.889122
  0
LINE
  8
0
  6
CENTER
 62
     2
 10
-30.397049
 20
114.489120
 11
-16.877048
 21
114.489120
  0
LINE
  8
0
 10
-28.127048
 20
138.889130
 11
-28.127048
 21
109.889122
  0
LINE
  8
0
 10
-22.627048
 20
109.889122
 11
-22.627048
 21
118.349121
  0
LINE
  8
0
 10
-27.627048
 20
110.739120
 11
-27.627048
 21
118.349121
  0
LINE
  8
0
 10
-22.627048
 20
110.239120
 11
-27.127048
 21
110.239120
  0
LINE
  8
0
 10
-27.127052
 20
110.239120
 11
-27.627047
 21
110.739113
  0
LINE
  8
0
 10
-27.127048
 20
110.239120
 11
-27.127048
 21
118.349121
  0
LINE
  8
0
 10
-22.627048
 20
118.349121
 11
-28.127048
 21
118.349121
  0
LINE
  8
0
 10
-28.127048
 20
109.889122
 11
3.872952
 21
109.889122
  0
LINE
  8
0
 10
-22.627048
 20
112.119125
 11
3.872952
 21
112.119125
  0
LINE
  8
0
  6
PHANTOM
 62
     3
 10
-6.627048
 20
73.623138
 11
-6.627048
 21
147.607803
  0
LINE
  8
0
  6
CENTER
 62
     2
 10
96.500015
 20
8.389126
 11
96.500015
 21
40.389126
  0
LINE
  8
0
  6
CENTER
 62
     2
 10
112.500015
 20
24.389126
 11
80.500015
 21
24.389126
  0
LINE
  8
0
 10
82.000015
 20
12.111096
 11
82.000015
 21
36.667156
  0
LINE
  8
0
 10
111.000015
 20
12.111096
 11
111.000015
 21
36.667156
  0
LINE
  8
0
 10
108.778046
 20
38.889126
 11
84.221985
 21
38.889126
  0
LINE
  8
0
 10
108.778046
 20
9.889126
 11
84.221985
 21
9.889126
  0
LINE
  8
0
  6
CENTER
 62
     2
 10
106.400017
 20
39.249126
 11
106.400017
 21
30.289125
  0
LINE
  8
0
  6
CENTER
 62
     2
 10
110.510017
 20
34.289124
 11
102.400017
 21
34.289124
  0
LINE
  8
0
  6
CENTER
 62
     2
 10
86.600014
 20
18.489126
 11
86.600014
 21
10.489126
  0
LINE
  8
0
  6
CENTER
 62
     2
 10
90.600014
 20
14.489126
 11
82.590012
 21
14.489126
  0
LINE
  8
0
 10
111.000015
 20
25.889126
 11
110.500015
 21
25.889126
  0
LINE
  8
0
 10
111.000015
 20
29.089127
 11
110.500015
 21
29.089127
  0
LINE
  8
0
 10
110.000015
 20
25.389126
 11
108.400017
 21
25.389126
  0
LINE
  8
0
 10
110.000015
 20
29.589127
 11
108.400017
 21
29.589127
  0
LINE
  8
0
 10
110.000015
 20
29.589127
 11
110.500015
 21
29.089125
  0
LINE
  8
0
 10
110.000015
 20
25.389126
 11
110.500015
 21
25.889126
  0
LINE
  8
0
 10
111.000015
 20
19.689125
 11
110.500015
 21
19.689125
  0
LINE
  8
0
 10
111.000015
 20
22.889126
 11
110.500015
 21
22.889126
  0
LINE
  8
0
 10
110.000015
 20
19.189125
 11
108.400017
 21
19.189125
  0
LINE
  8
0
 10
110.000015
 20
23.389126
 11
108.400017
 21
23.389126
  0
LINE
  8
0
 10
110.000015
 20
23.389124
 11
110.500015
 21
22.889126
  0
LINE
  8
0
 10
110.000023
 20
19.189123
 11
110.500023
 21
19.689125
  0
LINE
  8
0
 10
101.200012
 20
38.889126
 11
101.200012
 21
38.389126
  0
LINE
  8
0
 10
98.000015
 20
38.889126
 11
98.000015
 21
38.389126
  0
LINE
  8
0
 10
101.700012
 20
37.889126
 11
101.700012
 21
36.289124
  0
LINE
  8
0
 10
97.500015
 20
37.889126
 11
97.500015
 21
36.289124
  0
LINE
  8
0
 10
97.500015
 20
37.889126
 11
98.000015
 21
38.389126
  0
LINE
  8
0
 10
101.700012
 20
37.889130
 11
101.200012
 21
38.389126
  0
LINE
  8
0
 10
95.000015
 20
38.889126
 11
95.000015
 21
38.389126
  0
LINE
  8
0
 10
91.800018
 20
38.889126
 11
91.800018
 21
38.389126
  0
LINE
  8
0
 10
95.500015
 20
37.889126
 11
95.500015
 21
36.289124
  0
LINE
  8
0
 10
91.300018
 20
37.889126
 11
91.300018
 21
36.289124
  0
LINE
  8
0
 10
91.300018
 20
37.889122
 11
91.800018
 21
38.389122
  0
LINE
  8
0
 10
95.500015
 20
37.889126
 11
95.000015
 21
38.389122
  0
LINE
  8
0
  6
CENTER
 62
     2
 10
86.600014
 20
30.289125
 11
86.600014
 21
38.119125
  0
LINE
  8
0
  6
CENTER
 62
     2
 10
90.600014
 20
34.289124
 11
82.590012
 21
34.289124
  0
LINE
  8
0
  6
CENTER
 62
     2
 10
110.330017
 20
14.489126
 11
102.400017
 21
14.489126
  0
LINE
  8
0
  6
CENTER
 62
     2
 10
106.400017
 20
10.489126
 11
106.400017
 21
18.489126
  0
LINE
  8
0
 10
101.700012
 20
10.889126
 11
101.700012
 21
12.489126
  0
LINE
  8
0
 10
101.700005
 20
10.889127
 11
101.200005
 21
10.389127
  0
LINE
  8
0
 10
101.200012
 20
9.889126
 11
101.200012
 21
10.389126
  0
LINE
  8
0
 10
98.000015
 20
9.889126
 11
98.000015
 21
10.389126
  0
LINE
  8
0
 10
97.500015
 20
10.889127
 11
98.000015
 21
10.389130
  0
LINE
  8
0
 10
97.500015
 20
10.889126
 11
97.500015
 21
12.489126
  0
LINE
  8
0
 10
95.500015
 20
10.889126
 11
95.500015
 21
12.489126
  0
LINE
  8
0
 10
95.500015
 20
10.889127
 11
95.000015
 21
10.389127
  0
LINE
  8
0
 10
95.000015
 20
9.889126
 11
95.000015
 21
10.389126
  0
LINE
  8
0
 10
91.800018
 20
9.889126
 11
91.800018
 21
10.389126
  0
LINE
  8
0
 10
91.300018
 20
10.889124
 11
91.800018
 21
10.389127
  0
LINE
  8
0
 10
91.300018
 20
10.889126
 11
91.300018
 21
12.489126
  0
LINE
  8
0
 10
-105.099960
 20
36.599129
 11
-107.099960
 21
35.439129
  0
LINE
  8
0
 10
-107.099953
 20
33.129128
 11
-107.099953
 21
35.439125
  0
LINE
  8
0
 10
-105.099953
 20
31.979124
 11
-107.099953
 21
33.129124
  0
LINE
  8
0
 10
-105.099960
 20
31.979130
 11
-103.099953
 21
33.129135
  0
LINE
  8
0
 10
-103.099953
 20
33.129128
 11
-103.099953
 21
35.439125
  0
LINE
  8
0
 10
-103.099953
 20
35.439125
 11
-105.099960
 21
36.589127
  0
LINE
  8
0
 62
     4
 10
-117.999954
 20
21.739126
 11
-117.999954
 21
27.029125
  0
LINE
  8
0
 62
     4
 10
-111.999954
 20
21.739126
 11
-111.999954
 21
27.029125
  0
LINE
  8
0
 10
-124.899956
 20
12.179132
 11
-122.899956
 21
13.329131
  0
LINE
  8
0
 10
-122.899956
 20
13.329125
 11
-122.899956
 21
15.639126
  0
LINE
  8
0
 10
-122.899956
 20
15.639128
 11
-124.899956
 21
16.789125
  0
LINE
  8
0
 10
-124.899956
 20
16.799126
 11
-126.899963
 21
15.639124
  0
LINE
  8
0
 10
-126.899956
 20
13.329125
 11
-126.899956
 21
15.639126
  0
LINE
  8
0
 10
-124.899956
 20
12.179124
 11
-126.899963
 21
13.329127
  0
LINE
  8
0
  6
CENTER
 62
     2
 10
-101.099953
 20
14.489126
 11
-109.099953
 21
14.489126
  0
LINE
  8
0
  6
CENTER
 62
     2
 10
-105.099953
 20
18.489126
 11
-105.099953
 21
10.489126
  0
LINE
  8
0
  6
CENTER
 62
     2
 10
-117.899956
 20
14.489126
 11
-130.499954
 21
14.489126
  0
LINE
  8
0
  6
CENTER
 62
     2
 10
-120.899956
 20
34.289124
 11
-128.899948
 21
34.289124
  0
LINE
  8
0
  6
CENTER
 62
     2
 10
-124.899956
 20
38.289124
 11
-124.899956
 21
30.289125
  0
LINE
  8
0
  6
CENTER
 62
     2
 10
-99.499954
 20
34.289124
 11
-112.099953
 21
34.289124
  0
LINE
  8
0
  6
CENTER
 62
     2
 10
-105.099953
 20
39.889126
 11
-105.099953
 21
27.289125
  0
LINE
  8
0
 10
-127.277985
 20
9.889126
 11
-102.721924
 21
9.889126
  0
LINE
  8
0
 10
-127.277985
 20
38.889126
 11
-102.721924
 21
38.889126
  0
LINE
  8
0
 10
-129.499954
 20
12.111096
 11
-129.499954
 21
36.667156
  0
LINE
  8
0
 10
-100.499954
 20
12.111096
 11
-100.499954
 21
36.667156
  0
LINE
  8
0
  6
CENTER
 62
     2
 10
-130.999954
 20
24.389126
 11
-98.999954
 21
24.389126
  0
LINE
  8
0
  6
CENTER
 62
     2
 10
-114.999954
 20
8.389126
 11
-114.999954
 21
40.389126
  0
LINE
  8
0
  6
CENTER
 62
     2
 10
-124.899956
 20
21.489126
 11
-124.899956
 21
8.889126
  0
LINE
  8
0
  6
DASHED
 10
-8.627048
 20
12.339126
 11
-5.627048
 21
12.339126
  0
LINE
  8
0
  6
DASHED
 10
-8.627048
 20
16.639126
 11
-5.627048
 21
16.639126
  0
LINE
  8
0
  6
DASHED
 62
     2
 10
-13.627048
 20
11.989126
 11
-8.627048
 21
11.989126
  0
LINE
  8
0
  6
DASHED
 10
-8.627048
 20
12.422121
 11
-13.627048
 21
12.422121
  0
LINE
  8
0
  6
DASHED
 10
-28.127048
 20
11.239126
 11
-13.627048
 21
11.239126
  0
LINE
  8
0
  6
DASHED
 62
     2
 10
-13.627048
 20
16.989126
 11
-8.627048
 21
16.989126
  0
LINE
  8
0
  6
DASHED
 10
-8.627048
 20
16.556131
 11
-13.627048
 21
16.556131
  0
LINE
  8
0
  6
DASHED
 10
-8.627048
 20
16.989126
 11
-8.627048
 21
11.989126
  0
LINE
  8
0
  6
DASHED
 10
-28.127048
 20
17.739126
 11
-13.627048
 21
17.739126
  0
LINE
  8
0
  6
DASHED
 10
-13.627048
 20
17.739126
 11
-13.627048
 21
11.239126
  0
LINE
  8
0
  6
DASHED
 10
-5.627048
 20
12.422121
 11
-0.627048
 21
12.422121
  0
LINE
  8
0
  6
DASHED
 10
-5.627048
 20
16.556131
 11
-0.627048
 21
16.556131
  0
LINE
  8
0
  6
DASHED
 62
     2
 10
-20.627048
 20
14.889126
 11
-20.627048
 21
9.889126
  0
LINE
  8
0
 10
-28.127048
 20
9.889126
 11
3.872952
 21
9.889126
  0
LINE
  8
0
  6
DASHED
 62
     2
 10
-25.627048
 20
14.889126
 11
-25.627048
 21
9.889126
  0
LINE
  8
0
  6
CENTER
 62
     2
 10
-23.127048
 20
14.889126
 11
-23.127048
 21
8.269125
  0
LINE
  8
0
 10
-22.627048
 20
30.429127
 11
-28.127048
 21
30.429127
  0
LINE
  8
0
 10
-27.127048
 20
38.539124
 11
-27.127048
 21
30.429127
  0
LINE
  8
0
 10
-27.127048
 20
38.539127
 11
-27.627048
 21
38.039127
  0
LINE
  8
0
 10
-22.627048
 20
38.539124
 11
-27.127048
 21
38.539124
  0
LINE
  8
0
 10
-27.627048
 20
38.039124
 11
-27.627048
 21
30.429127
  0
LINE
  8
0
 10
-22.627048
 20
38.889126
 11
-22.627048
 21
30.429127
  0
LINE
  8
0
 10
-28.127048
 20
38.889126
 11
-28.127048
 21
9.889126
  0
LINE
  8
0
  6
CENTER
 62
     2
 10
-30.397049
 20
34.289124
 11
-16.877048
 21
34.289124
  0
LINE
  8
0
 10
-18.127048
 20
38.889126
 11
-18.127048
 21
9.889126
  0
LINE
  8
0
  6
CENTER
 62
     2
 10
-10.127048
 20
28.389126
 11
-10.127048
 21
20.389126
  0
LINE
  8
0
 10
-28.127048
 20
38.889126
 11
3.872952
 21
38.889126
  0
LINE
  8
0
 10
3.872952
 20
38.889126
 11
3.872952
 21
9.889126
  0
LINE
  8
0
  6
DASHED
 10
-5.627048
 20
16.989126
 11
-5.627048
 21
11.989126
  0
LINE
  8
0
  6
DASHED
 62
     2
 10
-0.627048
 20
16.989126
 11
-5.627048
 21
16.989126
  0
LINE
  8
0
  6
DASHED
 10
3.872952
 20
11.239126
 11
-0.627048
 21
11.239126
  0
LINE
  8
0
  6
DASHED
 10
3.872952
 20
17.739126
 11
-0.627048
 21
17.739126
  0
LINE
  8
0
  6
DASHED
 62
     2
 10
-0.627048
 20
11.989126
 11
-5.627048
 21
11.989126
  0
LINE
  8
0
  6
DASHED
 10
-0.627048
 20
17.739126
 11
-0.627048
 21
11.239126
  0
LINE
  8
0
 62
     1
 10
-30.627050
 20
27.029127
 11
-33.627052
 21
21.739126
  0
LINE
  8
0
 62
     1
 10
-30.627048
 20
21.739128
 11
-33.627048
 21
27.029125
  0
LINE
  8
0
 62
     4
 10
-31.887049
 20
21.739126
 11
-31.887049
 21
20.389126
  0
LINE
  8
0
 62
     4
 10
-31.887049
 20
28.389126
 11
-31.887049
 21
27.029125
  0
LINE
  8
0
 62
     4
 10
-33.627048
 20
21.389126
 11
-31.887049
 21
20.389126
  0
LINE
  8
0
 62
     4
 10
-33.627048
 20
27.389126
 11
-31.887049
 21
28.389128
  0
LINE
  8
0
  6
CENTER
 62
     2
 10
-30.011131
 20
14.489126
 11
6.112953
 21
14.489126
  0
LINE
  8
0
 62
     4
 10
-33.627048
 20
21.739126
 11
-30.627048
 21
21.739126
  0
LINE
  8
0
 62
     4
 10
-33.627048
 20
27.029125
 11
-30.627048
 21
27.029125
  0
LINE
  8
0
 62
     4
 10
-30.627048
 20
21.739126
 11
-30.627048
 21
27.029125
  0
LINE
  8
0
 62
     4
 10
-33.627048
 20
27.389126
 11
-33.627048
 21
21.389126
  0
LINE
  8
0
 62
     4
 10
-31.887049
 20
20.389126
 11
-28.127048
 21
20.389126
  0
LINE
  8
0
 62
     4
 10
-28.127048
 20
28.389126
 11
-31.887049
 21
28.389126
  0
LINE
  8
0
  6
CENTER
 62
     2
 10
-1.127048
 20
28.389126
 11
-1.127048
 21
20.389126
  0
LINE
  8
0
  6
CENTER
 62
     2
 10
-36.117050
 20
24.389126
 11
6.112953
 21
24.389126
  0
LINE
  8
0
 10
-28.127048
 20
12.111096
 11
3.872952
 21
12.111096
  0
LINE
  8
0
 10
-22.627048
 20
36.667156
 11
3.872952
 21
36.667156
  0
LINE
  8
0
  6
DASHED
 10
-21.060049
 20
14.889126
 11
-21.060049
 21
9.889126
  0
LINE
  8
0
  6
DASHED
 10
-25.194048
 20
14.889126
 11
-25.194048
 21
9.889126
  0
LINE
  8
0
  6
PHANTOM
 62
     3
 10
-6.627048
 20
5.307116
 11
-6.627048
 21
73.623146
  0
LINE
  8
0
  6
CENTER
 62
     2
 10
193.473495
 20
113.338158
 11
207.343506
 21
113.338158
  0
LINE
  8
0
 10
203.313492
 20
120.829582
 11
203.313492
 21
105.829582
  0
LINE
  8
0
  6
CENTER
 62
     2
 10
115.105560
 20
113.338158
 11
138.024918
 21
113.338158
  0
LINE
  8
0
 10
137.047546
 20
127.838158
 11
137.047546
 21
98.838158
  0
LINE
  8
0
 10
-79.250000
 20
-137.000000
 11
-79.250000
 21
-185.000000
  0
LINE
  8
0
 10
-101.250000
 20
-137.000000
 11
-101.250000
 21
-185.000000
  0
LINE
  8
0
 10
-123.250000
 20
-137.000000
 11
-123.250000
 21
-185.000000
  0
LINE
  8
0
 10
-145.250000
 20
-137.000000
 11
-145.250000
 21
-185.000000
  0
LINE
  8
0
 10
-167.250000
 20
-137.000000
 11
-167.250000
 21
-185.000000
  0
LINE
  8
0
 10
-189.250000
 20
-137.000000
 11
-189.250000
 21
-185.000000
  0
LINE
  8
0
 10
-211.250000
 20
-153.000000
 11
-271.250000
 21
-137.000000
  0
LINE
  8
0
 10
-211.250000
 20
-137.000000
 11
-211.250000
 21
-185.000000
  0
LINE
  8
0
 10
-271.250000
 20
-137.000000
 11
-79.250000
 21
-137.000000
  0
LINE
  8
0
 10
-271.250000
 20
-153.000000
 11
-79.250000
 21
-153.000000
  0
LINE
  8
0
 10
-271.250000
 20
-161.000000
 11
-79.250000
 21
-161.000000
  0
LINE
  8
0
 10
-271.250000
 20
-169.000000
 11
-79.250000
 21
-169.000000
  0
LINE
  8
0
 10
-271.250000
 20
-177.000000
 11
-79.250000
 21
-177.000000
  0
LINE
  8
0
 10
-271.250000
 20
-185.000000
 11
-79.250000
 21
-185.000000
  0
LINE
  8
0
 10
-271.250000
 20
-137.000000
 11
-271.250000
 21
-185.000000
  0
LINE
  8
0
 10
282.099854
 20
195.500000
 11
282.099854
 21
-195.000000
  0
LINE
  8
0
 10
-281.250000
 20
195.500000
 11
282.099854
 21
195.500000
  0
LINE
  8
0
 10
-281.250000
 20
195.500000
 11
-281.250000
 21
-195.000000
  0
LINE
  8
0
 10
-281.250000
 20
-195.000000
 11
282.099854
 21
-195.000000
  0
LINE
  8
0
 10
162.099976
 20
-175.000000
 11
162.099976
 21
-195.000000
  0
LINE
  8
0
 10
162.099976
 20
-175.000000
 11
282.099854
 21
-175.000000
  0
LINE
  8
0
 10
162.099976
 20
175.500000
 11
282.099854
 21
175.500000
  0
LINE
  8
0
 10
-281.250000
 20
175.500000
 11
-161.250000
 21
175.500000
  0
LINE
  8
0
 10
162.099976
 20
195.500000
 11
162.099976
 21
175.500000
  0
LINE
  8
0
 10
-161.250000
 20
195.500000
 11
-161.250000
 21
175.500000
  0
CIRCLE
  8
0
 62
     4
 10
108.248703
 20
-44.757622
 40
0.250000
  0
CIRCLE
  8
0
 62
     4
 10
108.860580
 20
-45.416779
 40
0.250000
  0
CIRCLE
  8
0
 62
     4
 10
108.248703
 20
-44.757622
 40
0.450000
  0
CIRCLE
  8
0
 62
     4
 10
108.860580
 20
-45.416779
 40
0.450000
  0
CIRCLE
  8
0
 62
     4
 10
108.538773
 20
-45.075775
 40
1.299999
  0
CIRCLE
  8
0
 62
     4
 10
91.131424
 20
-45.075775
 40
1.400000
  0
CIRCLE
  8
0
 62
     4
 10
91.131424
 20
-45.075775
 40
1.250000
  0
ARC
  8
0
 62
     4
 10
108.631424
 20
-45.075775
 40
3.304374
 50
137.084778
 51
222.915222
  0
ARC
  8
0
 62
     4
 10
46.093506
 20
-95.220901
 40
2.045202
 50
270.985901
 51
359.862793
  0
ARC
  8
0
 62
     4
 10
46.088703
 20
-95.225792
 40
2.050003
 50
180.000000
 51
269.999908
  0
CIRCLE
  8
0
 62
     4
 10
-66.679504
 20
-50.125793
 40
1.400000
  0
CIRCLE
  8
0
 62
     4
 10
-66.679504
 20
-50.125793
 40
1.250000
  0
ARC
  8
0
 62
     4
 10
-113.222244
 20
-95.225792
 40
2.050003
 50
270.000000
 51
0.000000
  0
ARC
  8
0
 62
     4
 10
-113.222244
 20
-95.225792
 40
2.050003
 50
180.000000
 51
270.000000
  0
ARC
  8
0
 62
     4
 10
197.813492
 20
113.338158
 40
3.996198
 50
318.652222
 51
41.347771
  0
ARC
  8
0
 10
108.400017
 20
27.489126
 40
2.100000
 50
90.000000
 51
270.000000
  0
ARC
  8
0
 10
108.400017
 20
21.289125
 40
2.100000
 50
90.000000
 51
270.000000
  0
ARC
  8
0
 10
99.600014
 20
36.289124
 40
2.099998
 50
180.000000
 51
0.000000
  0
ARC
  8
0
 10
93.400017
 20
36.289124
 40
2.099998
 50
180.000000
 51
0.000000
  0
ARC
  8
0
 10
99.600014
 20
12.489126
 40
2.099998
 50
0.000000
 51
180.000000
  0
ARC
  8
0
 10
93.400017
 20
12.489126
 40
2.099998
 50
0.000000
 51
180.000000
  0
ARC
  8
0
 10
96.500015
 20
24.389126
 40
19.000000
 50
40.256615
 51
49.743385
  0
ARC
  8
0
 10
96.500015
 20
24.389126
 40
19.000000
 50
220.256607
 51
229.743378
  0
ARC
  8
0
 10
96.500015
 20
24.389126
 40
19.000000
 50
310.256622
 51
319.743378
  0
ARC
  8
0
 10
96.500015
 20
24.389126
 40
19.000000
 50
130.256622
 51
139.743378
  0
CIRCLE
  8
0
 10
86.600014
 20
14.489126
 40
2.066999
  0
CIRCLE
  8
0
 62
     2
 10
86.600014
 20
14.489126
 40
2.500000
  0
CIRCLE
  8
0
 10
86.600014
 20
14.489126
 40
3.250000
  0
CIRCLE
  8
0
 10
106.400017
 20
14.489126
 40
2.066999
  0
CIRCLE
  8
0
 62
     2
 10
106.400017
 20
14.489126
 40
2.500000
  0
CIRCLE
  8
0
 10
106.400017
 20
14.489126
 40
3.250000
  0
CIRCLE
  8
0
 10
106.400017
 20
34.289124
 40
2.066999
  0
CIRCLE
  8
0
 62
     2
 10
106.400017
 20
34.289124
 40
2.500000
  0
CIRCLE
  8
0
 10
106.400017
 20
34.289124
 40
3.250000
  0
CIRCLE
  8
0
 10
86.600014
 20
34.289124
 40
2.066999
  0
CIRCLE
  8
0
 62
     2
 10
86.600014
 20
34.289124
 40
2.500000
  0
CIRCLE
  8
0
 10
86.600014
 20
34.289124
 40
3.250000
  0
CIRCLE
  8
0
 10
96.500015
 20
24.389126
 40
9.000000
  0
CIRCLE
  8
0
 10
-124.899956
 20
34.289124
 40
2.066999
  0
CIRCLE
  8
0
 62
     2
 10
-124.899956
 20
34.289124
 40
2.500000
  0
CIRCLE
  8
0
 10
-124.899956
 20
34.289124
 40
3.250000
  0
CIRCLE
  8
0
 62
     1
 10
-114.999954
 20
24.389126
 40
2.000000
  0
CIRCLE
  8
0
 10
-105.099953
 20
34.289124
 40
3.549999
  0
CIRCLE
  8
0
 10
-124.899956
 20
14.489126
 40
3.549999
  0
CIRCLE
  8
0
 62
     4
 10
-114.999954
 20
24.389126
 40
3.000000
  0
CIRCLE
  8
0
 62
     4
 10
-114.999954
 20
24.389126
 40
4.000000
  0
CIRCLE
  8
0
 10
-124.899956
 20
14.489126
 40
4.250000
  0
CIRCLE
  8
0
 10
-105.099953
 20
34.289124
 40
4.250000
  0
ARC
  8
0
 10
-114.999954
 20
24.389126
 40
19.000000
 50
130.256622
 51
139.743378
  0
ARC
  8
0
 10
-114.999954
 20
24.389126
 40
19.000000
 50
220.256607
 51
229.743378
  0
ARC
  8
0
 10
-114.999954
 20
24.389126
 40
19.000000
 50
40.256615
 51
49.743385
  0
ARC
  8
0
 10
-114.999954
 20
24.389126
 40
19.000000
 50
310.256622
 51
319.743378
  0
ARC
  8
0
 10
-105.099953
 20
34.289124
 40
5.999999
 50
129.944519
 51
320.055481
  0
ARC
  8
0
 10
-124.899956
 20
14.489126
 40
6.000000
 50
309.944489
 51
140.055481
  0
CIRCLE
  8
0
 10
-105.099953
 20
14.489126
 40
2.066999
  0
CIRCLE
  8
0
 62
     2
 10
-105.099953
 20
14.489126
 40
2.500000
  0
CIRCLE
  8
0
 10
-105.099953
 20
14.489126
 40
3.250000
  0
CIRCLE
  8
0
 62
     4
 10
-114.999954
 20
24.389126
 40
1.620999
  0
CIRCLE
  8
0
 10
-10.127048
 20
24.389126
 40
2.066999
  0
CIRCLE
  8
0
 62
     2
 10
-10.127048
 20
24.389126
 40
2.500000
  0
ARC
  8
0
 62
     4
 10
-33.627052
 20
24.384127
 40
3.999505
 50
318.598450
 51
41.401535
  0
CIRCLE
  8
0
 62
     2
 10
-1.127048
 20
24.389126
 40
2.500000
  0
CIRCLE
  8
0
 10
-1.127048
 20
24.389126
 40
2.066999
  0
POLYLINE
  8
0
 62
     4
 66
     1
  0
VERTEX
  8
0
 10
126.084915
 20
116.228157
  0
VERTEX
  8
0
 10
126.326904
 20
115.283241
  0
VERTEX
  8
0
 10
126.474800
 20
114.316238
  0
VERTEX
  8
0
 10
126.524918
 20
113.338158
  0
VERTEX
  8
0
 10
126.474800
 20
112.363411
  0
VERTEX
  8
0
 10
126.326904
 20
111.400848
  0
VERTEX
  8
0
 10
126.084915
 20
110.458160
  0
SEQEND
  0
POLYLINE
  8
0
 62
     4
 66
     1
  0
VERTEX
  8
0
 10
121.974915
 20
116.228157
  0
VERTEX
  8
0
 10
121.730339
 20
115.283241
  0
VERTEX
  8
0
 10
121.577629
 20
114.316238
  0
VERTEX
  8
0
 10
121.524918
 20
113.338158
  0
VERTEX
  8
0
 10
121.577629
 20
112.363411
  0
VERTEX
  8
0
 10
121.730339
 20
111.400848
  0
VERTEX
  8
0
 10
121.974915
 20
110.458160
  0
SEQEND
  0
POLYLINE
  8
0
 62
     4
 66
     1
  0
VERTEX
  8
0
 10
121.974915
 20
119.118156
  0
VERTEX
  8
0
 10
121.650536
 20
118.423492
  0
VERTEX
  8
0
 10
121.524918
 20
117.668159
  0
VERTEX
  8
0
 10
121.650536
 20
116.918427
  0
VERTEX
  8
0
 10
121.974915
 20
116.228157
  0
SEQEND
  0
POLYLINE
  8
0
 62
     4
 66
     1
  0
VERTEX
  8
0
 10
126.084915
 20
119.118156
  0
VERTEX
  8
0
 10
126.404297
 20
118.423500
  0
VERTEX
  8
0
 10
126.524918
 20
117.668159
  0
VERTEX
  8
0
 10
126.404297
 20
116.918427
  0
VERTEX
  8
0
 10
126.084915
 20
116.228157
  0
SEQEND
  0
POLYLINE
  8
0
 62
     4
 66
     1
  0
VERTEX
  8
0
 10
135.524918
 20
115.988159
  0
VERTEX
  8
0
 10
135.795578
 20
115.129036
  0
VERTEX
  8
0
 10
135.965805
 20
114.240738
  0
VERTEX
  8
0
 10
136.024918
 20
113.338158
  0
VERTEX
  8
0
 10
135.965805
 20
112.438904
  0
VERTEX
  8
0
 10
135.795578
 20
111.555054
  0
VERTEX
  8
0
 10
135.524918
 20
110.698158
  0
SEQEND
  0
POLYLINE
  8
0
 62
     4
 66
     1
  0
VERTEX
  8
0
 10
121.974915
 20
107.568161
  0
VERTEX
  8
0
 10
121.650536
 20
108.259018
  0
VERTEX
  8
0
 10
121.524918
 20
109.008156
  0
VERTEX
  8
0
 10
121.650536
 20
109.762894
  0
VERTEX
  8
0
 10
121.974915
 20
110.458160
  0
SEQEND
  0
POLYLINE
  8
0
 62
     4
 66
     1
  0
VERTEX
  8
0
 10
126.084915
 20
107.568161
  0
VERTEX
  8
0
 10
126.404297
 20
108.259026
  0
VERTEX
  8
0
 10
126.524918
 20
109.008156
  0
VERTEX
  8
0
 10
126.404297
 20
109.762894
  0
VERTEX
  8
0
 10
126.084915
 20
110.458160
  0
SEQEND
  0
TEXT
  8
0
 62
     3
 10
-44.866112
 20
147.937820
 40
6.300000
  1
STRETCH LINE
 50
0.000000
 41
1.052632
 51
0.000000
  7
STANDARD
  0
TEXT
  8
0
 10
-95.142654
 20
-160.050003
 40
4.500000
  1
25
 50
0.000000
 41
1.052632
 51
0.000000
  7
STANDARD
  0
TEXT
  8
0
 10
202.719482
 20
136.868668
 40
6.300000
  1
-G
 50
0.000000
 41
1.052632
 51
0.000000
  7
STANDARD
  0
TEXT
  8
0
 10
121.994667
 20
136.868622
 40
6.300000
  1
-B
 50
0.000000
 41
1.052632
 51
0.000000
  7
STANDARD
  0
TEXT
  8
0
 10
-205.142654
 20
-184.050003
 40
4.500000
  1
10
 50
0.000000
 41
1.052632
 51
0.000000
  7
STANDARD
  0
TEXT
  8
0
 10
-202.892654
 20
-168.050003
 40
4.500000
  1
5
 50
0.000000
 41
1.052632
 51
0.000000
  7
STANDARD
  0
TEXT
  8
0
 10
-99.642654
 20
-136.050003
 40
4.500000
  1
üiéìéìüj
 50
0.000000
 41
0.833333
 51
0.000000
  7
STANDARD
  0
TEXT
  8
0
 10
-232.249710
 20
135.830002
 40
6.300000
  1
CS-CDA16*ST-R
 50
0.000000
 41
1.052632
 51
0.000000
  7
STANDARD
  0
TEXT
  8
0
 10
-232.249710
 20
145.830002
 40
6.300000
  1
CS-CDAS16*ST
 50
0.000000
 41
1.052632
 51
0.000000
  7
STANDARD
  0
TEXT
  8
0
 10
-270.049713
 20
155.830002
 40
6.300000
  1
MODEL:CS-CDA16*ST(5)
 50
0.000000
 41
1.052632
 51
0.000000
  7
STANDARD
  0
TEXT
  8
0
 10
-202.642654
 20
-135.050003
 40
4.500000
  1
STRETCH LIST
 50
0.000000
 41
1.052632
 51
0.000000
  7
STANDARD
  0
TEXT
  8
0
 10
-117.142654
 20
-160.050003
 40
4.500000
  1
20
 50
0.000000
 41
1.052632
 51
0.000000
  7
STANDARD
  0
TEXT
  8
0
 10
-139.142654
 20
-160.050003
 40
4.500000
  1
15
 50
0.000000
 41
1.052632
 51
0.000000
  7
STANDARD
  0
TEXT
  8
0
 10
-161.142654
 20
-160.050003
 40
4.500000
  1
10
 50
0.000000
 41
1.052632
 51
0.000000
  7
STANDARD
  0
TEXT
  8
0
 10
-180.892654
 20
-160.050003
 40
4.500000
  1
5
 50
0.000000
 41
1.052632
 51
0.000000
  7
STANDARD
  0
TEXT
  8
0
 10
-202.892654
 20
-160.050003
 40
4.500000
  1
0
 50
0.000000
 41
1.052632
 51
0.000000
  7
STANDARD
  0
TEXT
  8
0
 10
-183.142654
 20
-168.050003
 40
4.500000
  1
10
 50
0.000000
 41
1.052632
 51
0.000000
  7
STANDARD
  0
TEXT
  8
0
 10
-161.142654
 20
-168.050003
 40
4.500000
  1
15
 50
0.000000
 41
1.052632
 51
0.000000
  7
STANDARD
  0
TEXT
  8
0
 10
-139.142654
 20
-168.050003
 40
4.500000
  1
20
 50
0.000000
 41
1.052632
 51
0.000000
  7
STANDARD
  0
TEXT
  8
0
 10
-117.142654
 20
-168.050003
 40
4.500000
  1
25
 50
0.000000
 41
1.052632
 51
0.000000
  7
STANDARD
  0
TEXT
  8
0
 10
-95.142654
 20
-168.050003
 40
4.500000
  1
30
 50
0.000000
 41
1.052632
 51
0.000000
  7
STANDARD
  0
TEXT
  8
0
 10
-95.142654
 20
-184.050003
 40
4.500000
  1
35
 50
0.000000
 41
1.052632
 51
0.000000
  7
STANDARD
  0
TEXT
  8
0
 10
-117.142654
 20
-184.050003
 40
4.500000
  1
30
 50
0.000000
 41
1.052632
 51
0.000000
  7
STANDARD
  0
TEXT
  8
0
 10
-139.142654
 20
-184.050003
 40
4.500000
  1
25
 50
0.000000
 41
1.052632
 51
0.000000
  7
STANDARD
  0
TEXT
  8
0
 10
-161.142654
 20
-184.050003
 40
4.500000
  1
20
 50
0.000000
 41
1.052632
 51
0.000000
  7
STANDARD
  0
TEXT
  8
0
 10
-183.142654
 20
-184.050003
 40
4.500000
  1
15
 50
0.000000
 41
1.052632
 51
0.000000
  7
STANDARD
  0
TEXT
  8
0
 10
-95.142654
 20
-176.050003
 40
4.500000
  1
30
 50
0.000000
 41
1.052632
 51
0.000000
  7
STANDARD
  0
TEXT
  8
0
 10
-117.142654
 20
-176.050003
 40
4.500000
  1
25
 50
0.000000
 41
1.052632
 51
0.000000
  7
STANDARD
  0
TEXT
  8
0
 10
-139.142654
 20
-176.050003
 40
4.500000
  1
20
 50
0.000000
 41
1.052632
 51
0.000000
  7
STANDARD
  0
TEXT
  8
0
 10
-161.142654
 20
-176.050003
 40
4.500000
  1
15
 50
0.000000
 41
1.052632
 51
0.000000
  7
STANDARD
  0
TEXT
  8
0
 10
-183.142654
 20
-176.050003
 40
4.500000
  1
10
 50
0.000000
 41
1.052632
 51
0.000000
  7
STANDARD
  0
TEXT
  8
0
 10
-202.892654
 20
-176.050003
 40
4.500000
  1
5
 50
0.000000
 41
1.052632
 51
0.000000
  7
STANDARD
  0
TEXT
  8
0
 10
-95.142654
 20
-148.050003
 40
4.500000
  1
30
 50
0.000000
 41
1.052632
 51
0.000000
  7
STANDARD
  0
TEXT
  8
0
 10
-117.142654
 20
-148.050003
 40
4.500000
  1
25
 50
0.000000
 41
1.052632
 51
0.000000
  7
STANDARD
  0
TEXT
  8
0
 10
-139.142654
 20
-148.050003
 40
4.500000
  1
20
 50
0.000000
 41
1.052632
 51
0.000000
  7
STANDARD
  0
TEXT
  8
0
 10
-161.142654
 20
-148.050003
 40
4.500000
  1
15
 50
0.000000
 41
1.052632
 51
0.000000
  7
STANDARD
  0
TEXT
  8
0
 10
-183.142654
 20
-148.050003
 40
4.500000
  1
10
 50
0.000000
 41
1.052632
 51
0.000000
  7
STANDARD
  0
TEXT
  8
0
 10
-202.892654
 20
-148.050003
 40
4.500000
  1
5
 50
0.000000
 41
1.052632
 51
0.000000
  7
STANDARD
  0
TEXT
  8
0
 10
-240.142654
 20
-144.050003
 40
4.500000
  1
STROKE
 50
0.000000
 41
1.052632
 51
0.000000
  7
STANDARD
  0
TEXT
  8
0
 10
-265.642670
 20
-152.050003
 40
4.500000
  1
TYPE
 50
0.000000
 41
1.052632
 51
0.000000
  7
STANDARD
  0
TEXT
  8
0
 10
-264.000000
 20
-184.050003
 40
4.500000
  1
CS-CDAS16-R
 50
0.000000
 41
1.052632
 51
0.000000
  7
STANDARD
  0
TEXT
  8
0
 10
-264.000000
 20
-158.699997
 40
4.500000
  1
CS-CDA16
 50
0.000000
 41
1.052632
 51
0.000000
  7
STANDARD
  0
TEXT
  8
0
 10
-264.000000
 20
-166.699997
 40
4.500000
  1
CS-CDAS16
 50
0.000000
 41
1.052632
 51
0.000000
  7
STANDARD
  0
TEXT
  8
0
 10
-264.000000
 20
-174.699997
 40
4.500000
  1
CS-CDA16-R
 50
0.000000
 41
1.052632
 51
0.000000
  7
STANDARD
  0
TEXT
  8
0
 10
-232.249710
 20
125.830002
 40
6.300000
  1
CS-CDAS16*ST-R
 50
0.000000
 41
1.052632
 51
0.000000
  7
STANDARD
  0
TEXT
  8
0
 10
-269.149719
 20
180.830002
 40
6.300000
  1
CS JIG CYLINDER
 50
0.000000
 41
1.052632
 51
0.000000
  7
STANDARD
  0
TEXT
  8
0
 10
196.250259
 20
180.830002
 40
6.300000
  1
éuüvÕú‗.ü@éPüDéO
 50
0.000000
 41
0.833333
 51
0.000000
  7
STANDARD
  0
TEXT
  8
0
 10
167.564667
 20
-192.100006
 40
9.000000
  1
KOGANEI CORP.
 50
0.000000
 41
1.052632
 51
0.000000
  7
STANDARD
  0
ENDSEC
  0
EOF
