  0
SECTION
  2
HEADER
  0
ENDSEC
  0
SECTION
  2
TABLES
  0
TABLE
  2
LTYPE
 70
     4
  0
LTYPE
  2
CONTINUOUS
 70
    64
  3
Solid line
 72
    65
 73
     0
 40
0.000000
  0
LTYPE
  2
DASHED
 70
    64
  3
__ __ __ __ __ __ __ __ __ __ __ __ __ __ __
 72
    65
 73
     2
 40
3.500000
 49
2.000000
 49
-1.500000
  0
LTYPE
  2
CENTER
 70
    64
  3
____ _ ____ _ ____ _ ____ _ ____ _ ____ _ ____
 72
    65
 73
     4
 40
17.500000
 49
13.000000
 49
-1.500000
 49
1.500000
 49
-1.500000
  0
LTYPE
  2
PHANTOM
 70
    64
  3
_____ _ _ _____ _ _ _____ _ _ _____ _ _ ____  
 72
    65
 73
     6
 40
15.500000
 49
8.000000
 49
-1.500000
 49
1.500000
 49
-1.500000
 49
1.500000
 49
-1.500000
  0
LTYPE
  2
DASHED1
 70
    64
  3
__ __ __ __ __ __ __ __ __ __ __ __ __ __ __
 72
    65
 73
     2
 40
1.500000
 49
1.000000
 49
-0.500000
  0
LTYPE
  2
DASHED2
 70
    64
  3
__ __ __ __ __ __ __ __ __ __ __ __ __ __ __
 72
    65
 73
     2
 40
3.500000
 49
2.500000
 49
-1.000000
  0
LTYPE
  2
DASHED3
 70
    64
  3
__ __ __ __ __ __ __ __ __ __ __ __ __ __ __
 72
    65
 73
     2
 40
6.000000
 49
4.000000
 49
-2.000000
  0
LTYPE
  2
DASHED4
 70
    64
  3
__ __ __ __ __ __ __ __ __ __ __ __ __ __ __
 72
    65
 73
     2
 40
12.000000
 49
10.000000
 49
-2.000000
  0
LTYPE
  2
DASHED5
 70
    64
  3
__ __ __ __ __ __ __ __ __ __ __ __ __ __ __
 72
    65
 73
     2
 40
17.000000
 49
15.000000
 49
-2.000000
  0
LTYPE
  2
DASHED6
 70
    64
  3
__ __ __ __ __ __ __ __ __ __ __ __ __ __ __
 72
    65
 73
     2
 40
29.000000
 49
27.000000
 49
-2.000000
  0
LTYPE
  2
PHANTOM1
 70
    64
  3
_____ _ _ _____ _ _ _____ _ _ _____ _ _ ____  
 72
    65
 73
     6
 40
31.000000
 49
25.000000
 49
-1.500000
 49
1.000000
 49
-1.000000
 49
1.000000
 49
-1.500000
  0
LTYPE
  2
PHANTOM2
 70
    64
  3
_____ _ _ _____ _ _ _____ _ _ _____ _ _ ____  
 72
    65
 73
     6
 40
36.000000
 49
27.000000
 49
-1.500000
 49
2.500000
 49
-1.000000
 49
2.500000
 49
-1.500000
  0
LTYPE
  2
PHANTOM3
 70
    64
  3
_____ _ _ _____ _ _ _____ _ _ _____ _ _ ____  
 72
    65
 73
     6
 40
78.000000
 49
64.000000
 49
-2.000000
 49
4.000000
 49
-2.000000
 49
4.000000
 49
-2.000000
  0
LTYPE
  2
CENTER1
 70
    64
  3
____ _ ____ _ ____ _ ____ _ ____ _ ____ _ ____
 72
    65
 73
     4
 40
19.000000
 49
14.000000
 49
-1.000000
 49
3.000000
 49
-1.000000
  0
LTYPE
  2
CENTER2
 70
    64
  3
____ _ ____ _ ____ _ ____ _ ____ _ ____ _ ____
 72
    65
 73
     4
 40
28.500000
 49
25.000000
 49
-1.000000
 49
1.500000
 49
-1.000000
  0
LTYPE
  2
CENTER3
 70
    64
  3
____ _ ____ _ ____ _ ____ _ ____ _ ____ _ ____
 72
    65
 73
     4
 40
31.500000
 49
27.000000
 49
-1.000000
 49
2.500000
 49
-1.000000
  0
LTYPE
  2
CENTER4
 70
    64
  3
____ _ ____ _ ____ _ ____ _ ____ _ ____ _ ____
 72
    65
 73
     4
 40
50.000000
 49
45.000000
 49
-1.000000
 49
3.000000
 49
-1.000000
  0
LTYPE
  2
CENTER5
 70
    64
  3
____ _ ____ _ ____ _ ____ _ ____ _ ____ _ ____
 72
    65
 73
     4
 40
100.000000
 49
92.000000
 49
-2.000000
 49
4.000000
 49
-2.000000
  0
LTYPE
  2
SBK1
 70
    64
  3
______ _ _ _ ______ _ _ _ ______ _ _ _ _____  
 72
    65
 73
     8
 40
60.500000
 49
45.000000
 49
-2.000000
 49
2.500000
 49
-2.000000
 49
2.500000
 49
-2.000000
 49
2.500000
 49
-2.000000
  0
LTYPE
  2
SBK2
 70
    64
  3
______ _ _ _ ______ _ _ _ ______ _ _ _ _____  
 72
    65
 73
     8
 40
84.000000
 49
64.000000
 49
-2.000000
 49
4.000000
 49
-2.000000
 49
4.000000
 49
-2.000000
 49
4.000000
 49
-2.000000
  0
LTYPE
  2
STCH
 70
    64
  3
__ __ __ __ __ __ __ __ __ __ __ __ __ __ __
 72
    65
 73
     2
 40
3.000000
 49
1.000000
 49
-2.000000
  0
LTYPE
  2
MTCH
 70
    64
  3
_____ _ _ _____ _ _ _____ _ _ _____ _ _ ____  
 72
    65
 73
     6
 40
80.000000
 49
66.000000
 49
-2.000000
 49
4.000000
 49
-2.000000
 49
4.000000
 49
-2.000000
  0
ENDTAB
  0
TABLE
  2
LAYER
 70
     1
  0
LAYER
  2
0
 70
     0
 62
     7
  6
CONTINUOUS
  0
ENDTAB
  0
TABLE
  2
STYLE
 70
     1
  0
STYLE
  2
STANDARD
 70
     0
 40
0.000000
 41
1.000000
 50
0.000000
 71
     0
 42
0.200000
  3
txt
  4
BIGFONT
  0
ENDTAB
  0
TABLE
  2
VIEW
 70
     0
  0
ENDTAB
  0
ENDSEC
  0
SECTION
  2
BLOCKS
  0
ENDSEC
  0
SECTION
  2
ENTITIES
  0
LINE
  8
0
 62
     4
 10
-68.679535
 20
-92.675903
 11
-46.679535
 21
-92.675903
  0
LINE
  8
0
 62
     4
 10
-63.979534
 20
-97.275902
 11
-46.679535
 21
-97.275902
  0
LINE
  8
0
 62
     4
 10
-46.679535
 20
-92.675903
 11
-46.679535
 21
-97.275902
  0
LINE
  8
0
 62
     4
 10
-68.679535
 20
-94.475906
 11
-68.679535
 21
-92.675903
  0
LINE
  8
0
 62
     4
 10
-63.979534
 20
-95.715904
 11
-63.979534
 21
-97.275902
  0
LINE
  8
0
 62
     4
 10
-68.679535
 20
-94.475906
 11
-64.429535
 21
-94.475906
  0
LINE
  8
0
  6
CENTER
 62
     1
 10
-66.679535
 20
-91.875900
 11
-66.679535
 21
-98.105904
  0
LINE
  8
0
 62
     4
 10
-64.429535
 20
-94.475906
 11
-64.429535
 21
-95.715904
  0
LINE
  8
0
 62
     4
 10
-64.679535
 20
-94.475906
 11
-64.679535
 21
-95.275902
  0
LINE
  8
0
 62
     4
 10
-68.679535
 20
-94.475906
 11
-68.679535
 21
-95.275902
  0
LINE
  8
0
 62
     4
 10
-68.679535
 20
-95.275902
 11
-64.679535
 21
-95.275902
  0
LINE
  8
0
 62
     4
 10
-64.479538
 20
-94.475906
 11
-64.479538
 21
-96.475906
  0
LINE
  8
0
 62
     4
 10
-64.479538
 20
-96.475906
 11
-63.979534
 21
-96.475906
  0
LINE
  8
0
 62
     4
 10
-64.429535
 20
-95.715904
 11
-63.979534
 21
-95.715904
  0
LINE
  8
0
 62
     4
 10
-38.179535
 20
-93.675903
 11
-38.179535
 21
-96.275902
  0
LINE
  8
0
  6
CENTER
 62
     1
 10
-39.909534
 20
-94.525902
 11
-27.979534
 21
-94.525902
  0
LINE
  8
0
  6
CENTER
 62
     1
 10
-39.859535
 20
-95.425903
 11
-27.929535
 21
-95.425903
  0
LINE
  8
0
 62
     4
 10
-28.179535
 20
-94.275902
 11
-28.179535
 21
-94.775902
  0
LINE
  8
0
 62
     4
 10
-28.179535
 20
-95.175903
 11
-28.179535
 21
-95.675903
  0
LINE
  8
0
 62
     4
 10
-31.179535
 20
-94.075905
 11
-31.179535
 21
-95.875900
  0
LINE
  8
0
 62
     4
 10
-38.179535
 20
-95.875900
 11
-34.179535
 21
-95.875900
  0
LINE
  8
0
 62
     4
 10
-38.179535
 20
-94.975906
 11
-34.699535
 21
-94.975906
  0
LINE
  8
0
 62
     4
 10
-33.199535
 20
-94.975906
 11
-31.179535
 21
-94.975906
  0
LINE
  8
0
 62
     4
 10
-32.679535
 20
-95.875900
 11
-31.179535
 21
-95.875900
  0
LINE
  8
0
 62
     4
 10
-38.179535
 20
-94.075905
 11
-35.219536
 21
-94.075905
  0
LINE
  8
0
 62
     4
 10
-33.719536
 20
-94.075905
 11
-31.179535
 21
-94.075905
  0
LINE
  8
0
 62
     4
 10
-31.179535
 20
-94.275902
 11
-28.179535
 21
-94.275902
  0
LINE
  8
0
 62
     4
 10
-31.179535
 20
-94.775902
 11
-28.179535
 21
-94.775902
  0
LINE
  8
0
 62
     4
 10
-31.179535
 20
-95.175903
 11
-28.179535
 21
-95.175903
  0
LINE
  8
0
 62
     4
 10
-31.179535
 20
-95.675903
 11
-28.179535
 21
-95.675903
  0
LINE
  8
0
 62
     1
 10
-34.449535
 20
-92.805901
 11
-31.949532
 21
-97.135902
  0
LINE
  8
0
  6
CENTER
 62
     1
 10
-47.999535
 20
-94.975906
 11
-38.179535
 21
-94.975906
  0
LINE
  8
0
 62
     1
 10
-35.949532
 20
-92.805901
 11
-33.449532
 21
-97.135902
  0
LINE
  8
0
 62
     1
 10
-43.429531
 20
-92.805901
 11
-40.929531
 21
-97.135902
  0
LINE
  8
0
 62
     1
 10
-44.929535
 20
-92.805901
 11
-42.429535
 21
-97.135902
  0
LINE
  8
0
 62
     4
 10
-67.709534
 20
-96.675903
 11
-65.659538
 21
-96.675903
  0
LINE
  8
0
 62
     4
 10
-65.659538
 20
-96.675903
 11
-65.429535
 21
-96.445900
  0
LINE
  8
0
 62
     4
 10
-67.709534
 20
-96.675903
 11
-67.929535
 21
-96.445900
  0
LINE
  8
0
 62
     4
 10
-67.929535
 20
-95.265900
 11
-67.929535
 21
-96.445900
  0
LINE
  8
0
 62
     1
 10
-67.709534
 20
-95.265900
 11
-67.709534
 21
-96.675903
  0
LINE
  8
0
 62
     1
 10
-65.659538
 20
-95.265900
 11
-65.659538
 21
-96.675903
  0
LINE
  8
0
 62
     4
 10
-65.429535
 20
-95.265900
 11
-65.429535
 21
-96.445900
  0
LINE
  8
0
 62
     4
 10
-67.929535
 20
-96.445900
 11
-65.429535
 21
-96.445900
  0
LINE
  8
0
 62
     4
 10
-67.929535
 20
-92.175903
 11
-67.929535
 21
-92.675903
  0
LINE
  8
0
 62
     1
 10
-67.709534
 20
-92.175903
 11
-67.709534
 21
-92.675903
  0
LINE
  8
0
 62
     1
 10
-65.659538
 20
-92.175903
 11
-65.659538
 21
-92.675903
  0
LINE
  8
0
 62
     4
 10
-65.429535
 20
-92.175903
 11
-65.429535
 21
-92.675903
  0
LINE
  8
0
 62
     4
 10
-67.929535
 20
-92.175903
 11
-65.429535
 21
-92.175903
  0
LINE
  8
0
 62
     4
 10
-68.679535
 20
-93.675903
 11
-46.679535
 21
-93.675903
  0
LINE
  8
0
 62
     4
 10
-68.679535
 20
-93.125900
 11
-46.679535
 21
-93.125900
  0
LINE
  8
0
 62
     4
 10
-46.679535
 20
-93.675903
 11
-44.429535
 21
-93.675903
  0
LINE
  8
0
 62
     4
 10
-46.679535
 20
-96.275902
 11
-42.929535
 21
-96.275902
  0
LINE
  8
0
 62
     4
 10
-42.929535
 20
-93.675903
 11
-38.179535
 21
-93.675903
  0
LINE
  8
0
 62
     4
 10
-41.429535
 20
-96.275902
 11
-38.179535
 21
-96.275902
  0
LINE
  8
0
 62
     4
 10
-115.272247
 20
-93.675797
 11
-115.272247
 21
-95.225800
  0
LINE
  8
0
 62
     4
 10
-115.272247
 20
-93.675797
 11
-114.722244
 21
-93.125793
  0
LINE
  8
0
 62
     4
 10
-114.722244
 20
-92.675797
 11
-114.722244
 21
-93.125793
  0
LINE
  8
0
 62
     4
 10
-114.722244
 20
-92.675797
 11
-111.722244
 21
-92.675797
  0
LINE
  8
0
 62
     4
 10
-111.722244
 20
-92.675797
 11
-111.722244
 21
-93.125793
  0
LINE
  8
0
 62
     4
 10
-111.172241
 20
-93.675797
 11
-111.722244
 21
-93.125793
  0
LINE
  8
0
 62
     4
 10
-111.172241
 20
-93.675797
 11
-111.172241
 21
-95.225800
  0
LINE
  8
0
 62
     4
 10
-115.272247
 20
-94.475800
 11
-111.172241
 21
-94.475800
  0
LINE
  8
0
 62
     4
 10
-115.272247
 20
-95.265793
 11
-111.172241
 21
-95.265793
  0
LINE
  8
0
 62
     4
 10
-114.242241
 20
-96.675797
 11
-112.202248
 21
-96.675797
  0
LINE
  8
0
 62
     4
 10
-112.202248
 20
-96.675797
 11
-111.972244
 21
-96.445793
  0
LINE
  8
0
 62
     4
 10
-114.242233
 20
-96.675789
 11
-114.472237
 21
-96.445786
  0
LINE
  8
0
 62
     4
 10
-114.472244
 20
-95.265793
 11
-114.472244
 21
-96.445793
  0
LINE
  8
0
 62
     1
 10
-114.242241
 20
-95.265793
 11
-114.242241
 21
-96.675797
  0
LINE
  8
0
 62
     1
 10
-112.202248
 20
-95.265793
 11
-112.202248
 21
-96.675797
  0
LINE
  8
0
 62
     4
 10
-111.972244
 20
-95.265793
 11
-111.972244
 21
-96.445793
  0
LINE
  8
0
 62
     4
 10
-114.472244
 20
-96.445793
 11
-111.972244
 21
-96.445793
  0
LINE
  8
0
 62
     4
 10
-114.472244
 20
-92.175797
 11
-114.472244
 21
-92.675797
  0
LINE
  8
0
 62
     1
 10
-114.242241
 20
-92.175797
 11
-114.242241
 21
-92.675797
  0
LINE
  8
0
 62
     1
 10
-112.202248
 20
-92.175797
 11
-112.202248
 21
-92.675797
  0
LINE
  8
0
 62
     4
 10
-111.972244
 20
-92.175797
 11
-111.972244
 21
-92.675797
  0
LINE
  8
0
 62
     4
 10
-114.472244
 20
-92.175797
 11
-111.972244
 21
-92.175797
  0
LINE
  8
0
  6
CENTER
 62
     1
 10
-113.222244
 20
-90.625793
 11
-113.222244
 21
-99.335800
  0
LINE
  8
0
  6
CENTER
 62
     1
 10
-71.479523
 20
-50.125793
 11
-41.279518
 21
-50.125793
  0
LINE
  8
0
 62
     4
 10
-68.679520
 20
-51.625793
 11
-46.679520
 21
-51.625793
  0
LINE
  8
0
 62
     4
 10
-68.679520
 20
-48.625793
 11
-46.679520
 21
-48.625793
  0
LINE
  8
0
 62
     4
 10
-68.679520
 20
-52.175793
 11
-46.679520
 21
-52.175793
  0
LINE
  8
0
 62
     4
 10
-68.679520
 20
-48.075794
 11
-46.679520
 21
-48.075794
  0
LINE
  8
0
 62
     4
 10
-68.679520
 20
-48.075794
 11
-68.679520
 21
-52.175793
  0
LINE
  8
0
 62
     4
 10
-46.679520
 20
-48.075794
 11
-46.679520
 21
-52.175793
  0
LINE
  8
0
  6
CENTER
 62
     1
 10
-66.679520
 20
-47.295792
 11
-66.679520
 21
-52.875793
  0
LINE
  8
0
 62
     4
 10
-67.729515
 20
-50.835789
 11
-65.999519
 21
-49.105793
  0
LINE
  8
0
 62
     4
 10
-67.379517
 20
-51.185799
 11
-65.739517
 21
-49.565796
  0
LINE
  8
0
 62
     1
 10
-45.599518
 20
-47.965794
 11
-43.099518
 21
-52.285793
  0
LINE
  8
0
 62
     4
 10
-46.679520
 20
-48.825794
 11
-45.099518
 21
-48.825794
  0
LINE
  8
0
 62
     4
 10
-46.679520
 20
-51.425793
 11
-43.589520
 21
-51.425793
  0
LINE
  8
0
 62
     4
 10
89.131424
 20
-92.675797
 11
105.231422
 21
-92.675797
  0
LINE
  8
0
 62
     4
 10
93.831421
 20
-97.275795
 11
111.131424
 21
-97.275795
  0
LINE
  8
0
 62
     4
 10
111.131424
 20
-85.775795
 11
111.131424
 21
-97.275795
  0
LINE
  8
0
 62
     4
 10
89.131424
 20
-95.275795
 11
89.131424
 21
-92.675797
  0
LINE
  8
0
 62
     4
 10
93.831421
 20
-95.655800
 11
93.831421
 21
-97.275795
  0
LINE
  8
0
  6
CENTER
 62
     1
 10
91.131424
 20
-91.945793
 11
91.131424
 21
-97.845795
  0
LINE
  8
0
 62
     4
 10
105.231422
 20
-85.775795
 11
105.231422
 21
-92.675797
  0
LINE
  8
0
 62
     4
 10
89.131424
 20
-94.475800
 11
93.401421
 21
-94.475800
  0
LINE
  8
0
 62
     4
 10
89.131424
 20
-95.275795
 11
93.131424
 21
-95.275795
  0
LINE
  8
0
 62
     4
 10
93.131424
 20
-94.475800
 11
93.131424
 21
-95.275795
  0
LINE
  8
0
 62
     4
 10
105.231422
 20
-85.775795
 11
111.131424
 21
-85.775795
  0
LINE
  8
0
 62
     4
 10
93.331421
 20
-96.475800
 11
93.831421
 21
-96.475800
  0
LINE
  8
0
 62
     4
 10
93.331421
 20
-94.475800
 11
93.331421
 21
-96.475800
  0
LINE
  8
0
 62
     4
 10
93.401421
 20
-95.655800
 11
93.831421
 21
-95.655800
  0
LINE
  8
0
 62
     4
 10
93.401421
 20
-94.475800
 11
93.401421
 21
-95.655800
  0
LINE
  8
0
 62
     4
 10
89.131424
 20
-93.675797
 11
111.131424
 21
-93.675797
  0
LINE
  8
0
 62
     4
 10
89.131424
 20
-93.125793
 11
111.131424
 21
-93.125793
  0
LINE
  8
0
 62
     4
 10
105.231422
 20
-91.525795
 11
111.131424
 21
-91.525795
  0
LINE
  8
0
 62
     4
 10
105.231422
 20
-92.275795
 11
111.131424
 21
-92.275795
  0
LINE
  8
0
 62
     4
 10
105.231422
 20
-87.275795
 11
111.131424
 21
-87.275795
  0
LINE
  8
0
 62
     4
 10
107.231422
 20
-77.275795
 11
109.831421
 21
-77.275795
  0
LINE
  8
0
  6
CENTER
 62
     1
 10
108.081421
 20
-79.005798
 11
108.081421
 21
-67.075798
  0
LINE
  8
0
  6
CENTER
 62
     1
 10
108.981422
 20
-78.955795
 11
108.981422
 21
-67.025795
  0
LINE
  8
0
 62
     4
 10
107.831421
 20
-67.275795
 11
108.331421
 21
-67.275795
  0
LINE
  8
0
 62
     4
 10
108.731422
 20
-67.275795
 11
109.231422
 21
-67.275795
  0
LINE
  8
0
 62
     4
 10
107.631424
 20
-70.275795
 11
109.431427
 21
-70.275795
  0
LINE
  8
0
 62
     4
 10
109.431427
 20
-77.275795
 11
109.431427
 21
-73.275795
  0
LINE
  8
0
 62
     4
 10
108.531425
 20
-77.275795
 11
108.531425
 21
-73.795799
  0
LINE
  8
0
 62
     4
 10
108.531425
 20
-72.295799
 11
108.531425
 21
-70.275795
  0
LINE
  8
0
 62
     4
 10
109.431427
 20
-71.775795
 11
109.431427
 21
-70.275795
  0
LINE
  8
0
 62
     4
 10
107.631424
 20
-77.275795
 11
107.631424
 21
-74.315796
  0
LINE
  8
0
 62
     4
 10
107.631424
 20
-72.815796
 11
107.631424
 21
-70.275795
  0
LINE
  8
0
 62
     4
 10
107.831421
 20
-70.275795
 11
107.831421
 21
-67.275795
  0
LINE
  8
0
 62
     4
 10
108.331421
 20
-70.275795
 11
108.331421
 21
-67.275795
  0
LINE
  8
0
 62
     4
 10
108.731422
 20
-70.275795
 11
108.731422
 21
-67.275795
  0
LINE
  8
0
 62
     4
 10
109.231422
 20
-70.275795
 11
109.231422
 21
-67.275795
  0
LINE
  8
0
 62
     1
 10
106.371422
 20
-73.545799
 11
110.701424
 21
-71.045799
  0
LINE
  8
0
  6
CENTER
 62
     1
 10
108.531425
 20
-87.095795
 11
108.531425
 21
-77.275795
  0
LINE
  8
0
 62
     1
 10
106.371422
 20
-75.045799
 11
110.701424
 21
-72.545799
  0
LINE
  8
0
 62
     1
 10
106.371422
 20
-82.525795
 11
110.701424
 21
-80.025795
  0
LINE
  8
0
 62
     1
 10
106.371422
 20
-84.025795
 11
110.701424
 21
-81.525795
  0
LINE
  8
0
 62
     4
 10
90.101425
 20
-96.675797
 11
92.151421
 21
-96.675797
  0
LINE
  8
0
 62
     4
 10
92.151421
 20
-96.675797
 11
92.381424
 21
-96.445793
  0
LINE
  8
0
 62
     4
 10
90.101433
 20
-96.675804
 11
89.881424
 21
-96.445793
  0
LINE
  8
0
 62
     4
 10
89.881424
 20
-95.275795
 11
89.881424
 21
-96.445793
  0
LINE
  8
0
 62
     1
 10
90.101425
 20
-95.275795
 11
90.101425
 21
-96.675797
  0
LINE
  8
0
 62
     1
 10
92.151421
 20
-95.275795
 11
92.151421
 21
-96.675797
  0
LINE
  8
0
 62
     4
 10
92.381424
 20
-95.275795
 11
92.381424
 21
-96.445793
  0
LINE
  8
0
 62
     4
 10
89.881424
 20
-96.445793
 11
92.381424
 21
-96.445793
  0
LINE
  8
0
 62
     4
 10
89.881424
 20
-92.175797
 11
89.881424
 21
-92.675797
  0
LINE
  8
0
 62
     1
 10
90.101425
 20
-92.175797
 11
90.101425
 21
-92.675797
  0
LINE
  8
0
 62
     1
 10
92.151421
 20
-92.175797
 11
92.151421
 21
-92.675797
  0
LINE
  8
0
 62
     4
 10
92.381424
 20
-92.175797
 11
92.381424
 21
-92.675797
  0
LINE
  8
0
 62
     4
 10
89.881424
 20
-92.175797
 11
92.381424
 21
-92.175797
  0
LINE
  8
0
 62
     4
 10
109.831421
 20
-85.775795
 11
109.831421
 21
-82.025795
  0
LINE
  8
0
 62
     4
 10
107.231422
 20
-85.775795
 11
107.231422
 21
-83.525795
  0
LINE
  8
0
 62
     4
 10
107.231422
 20
-82.025795
 11
107.231422
 21
-77.275795
  0
LINE
  8
0
 62
     4
 10
109.831421
 20
-80.525795
 11
109.831421
 21
-77.275795
  0
LINE
  8
0
 62
     4
 10
43.838699
 20
-87.275795
 11
48.338699
 21
-87.275795
  0
LINE
  8
0
 62
     4
 10
43.838699
 20
-85.775795
 11
43.838699
 21
-91.525795
  0
LINE
  8
0
 62
     4
 10
44.588696
 20
-92.275787
 11
43.838703
 21
-91.525795
  0
LINE
  8
0
 62
     4
 10
44.588699
 20
-93.125793
 11
44.588699
 21
-92.275795
  0
LINE
  8
0
 62
     4
 10
44.038696
 20
-93.675797
 11
44.588696
 21
-93.125793
  0
LINE
  8
0
 62
     4
 10
44.038700
 20
-93.675797
 11
44.038700
 21
-95.225800
  0
LINE
  8
0
 62
     4
 10
48.138699
 20
-93.675797
 11
48.138699
 21
-95.225800
  0
LINE
  8
0
 62
     4
 10
48.138699
 20
-93.675789
 11
47.588699
 21
-93.125786
  0
LINE
  8
0
 62
     4
 10
47.588699
 20
-93.125793
 11
47.588699
 21
-92.275795
  0
LINE
  8
0
 62
     4
 10
47.588699
 20
-92.275795
 11
48.338699
 21
-91.525795
  0
LINE
  8
0
 62
     4
 10
48.338699
 20
-85.775795
 11
48.338699
 21
-91.525795
  0
LINE
  8
0
  6
CENTER
 62
     1
 10
46.088699
 20
-80.115799
 11
46.088699
 21
-98.735794
  0
LINE
  8
0
 62
     4
 10
44.588699
 20
-92.675797
 11
47.588699
 21
-92.675797
  0
LINE
  8
0
 62
     4
 10
44.038700
 20
-94.475800
 11
48.138699
 21
-94.475800
  0
LINE
  8
0
 62
     4
 10
44.038700
 20
-95.275795
 11
48.138699
 21
-95.275795
  0
LINE
  8
0
 62
     4
 10
43.838699
 20
-85.775795
 11
48.338699
 21
-85.775795
  0
LINE
  8
0
 62
     1
 10
43.928699
 20
-84.025787
 11
48.248699
 21
-81.525787
  0
LINE
  8
0
 62
     4
 10
45.068699
 20
-96.675797
 11
47.108700
 21
-96.675797
  0
LINE
  8
0
 62
     4
 10
47.108704
 20
-96.675797
 11
47.338699
 21
-96.445793
  0
LINE
  8
0
 62
     4
 10
45.068699
 20
-96.675804
 11
44.838699
 21
-96.445801
  0
LINE
  8
0
 62
     4
 10
44.838699
 20
-95.275795
 11
44.838699
 21
-96.445793
  0
LINE
  8
0
 62
     1
 10
45.068699
 20
-95.275795
 11
45.068699
 21
-96.675797
  0
LINE
  8
0
 62
     1
 10
47.108700
 20
-95.275795
 11
47.108700
 21
-96.675797
  0
LINE
  8
0
 62
     4
 10
47.338699
 20
-95.275795
 11
47.338699
 21
-96.445793
  0
LINE
  8
0
 62
     4
 10
44.838699
 20
-96.445793
 11
47.338699
 21
-96.445793
  0
LINE
  8
0
 62
     4
 10
44.838699
 20
-92.175797
 11
44.838699
 21
-92.675797
  0
LINE
  8
0
 62
     1
 10
45.068699
 20
-92.175797
 11
45.068699
 21
-92.675797
  0
LINE
  8
0
 62
     1
 10
47.108700
 20
-92.175797
 11
47.108700
 21
-92.675797
  0
LINE
  8
0
 62
     4
 10
47.338699
 20
-92.175797
 11
47.338699
 21
-92.675797
  0
LINE
  8
0
 62
     4
 10
44.838699
 20
-92.175797
 11
47.338699
 21
-92.175797
  0
LINE
  8
0
 62
     4
 10
44.788700
 20
-83.525795
 11
44.788700
 21
-85.775795
  0
LINE
  8
0
 62
     4
 10
47.388699
 20
-82.025795
 11
47.388699
 21
-85.775795
  0
LINE
  8
0
  6
CENTER
 62
     1
 10
87.811424
 20
-45.075775
 11
112.711426
 21
-45.075775
  0
LINE
  8
0
 62
     4
 10
89.131424
 20
-46.575775
 11
105.691422
 21
-46.575775
  0
LINE
  8
0
 62
     4
 10
89.131424
 20
-43.575775
 11
105.691422
 21
-43.575775
  0
LINE
  8
0
 62
     4
 10
89.131424
 20
-47.125774
 11
106.041428
 21
-47.125774
  0
LINE
  8
0
 62
     4
 10
89.131424
 20
-43.025776
 11
106.041428
 21
-43.025776
  0
LINE
  8
0
 62
     4
 10
89.131424
 20
-43.025776
 11
89.131424
 21
-47.125774
  0
LINE
  8
0
  6
CENTER
 62
     1
 10
91.131424
 20
-42.245773
 11
91.131424
 21
-47.825775
  0
LINE
  8
0
 62
     4
 10
106.211426
 20
-42.825775
 11
111.131424
 21
-42.825775
  0
LINE
  8
0
 62
     4
 10
106.211426
 20
-47.325775
 11
111.131424
 21
-47.325775
  0
LINE
  8
0
 62
     4
 10
111.131424
 20
-42.825775
 11
111.131424
 21
-47.325775
  0
LINE
  8
0
 62
     4
 10
90.481422
 20
-46.145775
 11
92.201424
 21
-44.435776
  0
LINE
  8
0
 62
     4
 10
90.061424
 20
-45.715775
 11
91.771423
 21
-44.005775
  0
LINE
  8
0
 62
     4
 10
206.880325
 20
118.201385
 11
206.880325
 21
110.201385
  0
LINE
  8
0
 62
     4
 10
206.880325
 20
117.201385
 11
209.880325
 21
117.201385
  0
LINE
  8
0
 62
     4
 10
206.880341
 20
118.201385
 11
208.610321
 21
119.201378
  0
LINE
  8
0
 62
     4
 10
208.610321
 20
119.201385
 11
208.610321
 21
117.201385
  0
LINE
  8
0
 62
     1
 10
209.880325
 20
111.201385
 11
206.880325
 21
117.201385
  0
LINE
  8
0
 62
     1
 10
209.880325
 20
117.201378
 11
206.880325
 21
111.201378
  0
LINE
  8
0
 62
     4
 10
209.880325
 20
117.201385
 11
209.880325
 21
111.201385
  0
LINE
  8
0
 62
     4
 10
208.610321
 20
111.201385
 11
208.610321
 21
109.201385
  0
LINE
  8
0
 62
     4
 10
206.880325
 20
111.201385
 11
209.880325
 21
111.201385
  0
LINE
  8
0
 62
     4
 10
206.880325
 20
110.201393
 11
208.610321
 21
109.201393
  0
LINE
  8
0
 62
     4
 10
208.610321
 20
119.201385
 11
212.380325
 21
119.201385
  0
LINE
  8
0
 62
     4
 10
208.610321
 20
109.201385
 11
212.380325
 21
109.201385
  0
LINE
  8
0
 62
     1
 10
118.044525
 20
110.877884
 11
123.044525
 21
110.877884
  0
LINE
  8
0
 62
     1
 10
128.044525
 20
110.877884
 11
133.044525
 21
110.877884
  0
LINE
  8
0
 62
     1
 10
133.044525
 20
110.877884
 11
134.219940
 21
110.201385
  0
LINE
  8
0
 62
     4
 10
118.044518
 20
117.524879
 11
118.721024
 21
118.201385
  0
LINE
  8
0
 62
     4
 10
118.721024
 20
118.201385
 11
118.721024
 21
110.201385
  0
LINE
  8
0
 62
     4
 10
118.044525
 20
110.877884
 11
118.721024
 21
110.201385
  0
LINE
  8
0
 62
     1
 10
118.044525
 20
117.524887
 11
123.044525
 21
117.524887
  0
LINE
  8
0
 62
     1
 10
128.044525
 20
117.524887
 11
133.044525
 21
117.524887
  0
LINE
  8
0
 62
     1
 10
133.044525
 20
117.524887
 11
134.219940
 21
118.201393
  0
LINE
  8
0
 62
     4
 10
136.044525
 20
119.201385
 11
140.544525
 21
119.201385
  0
LINE
  8
0
 62
     4
 10
136.044525
 20
111.201385
 11
136.044525
 21
109.201385
  0
LINE
  8
0
 62
     4
 10
135.044525
 20
110.201378
 11
136.044525
 21
109.201378
  0
LINE
  8
0
 62
     4
 10
135.044525
 20
118.201385
 11
136.044525
 21
119.201385
  0
LINE
  8
0
 62
     4
 10
136.044525
 20
119.201385
 11
136.044525
 21
117.201385
  0
LINE
  8
0
 62
     4
 10
123.584526
 20
107.281387
 11
127.514526
 21
107.281387
  0
LINE
  8
0
 62
     4
 10
123.584526
 20
110.741386
 11
127.514526
 21
110.741386
  0
LINE
  8
0
 10
123.044518
 20
108.201385
 11
123.584518
 21
107.281387
  0
LINE
  8
0
 10
127.514526
 20
107.281387
 11
128.044525
 21
108.201378
  0
LINE
  8
0
 62
     4
 10
128.044525
 20
110.201385
 11
135.044525
 21
110.201385
  0
LINE
  8
0
 62
     4
 10
123.584526
 20
117.671387
 11
127.514526
 21
117.671387
  0
LINE
  8
0
 62
     4
 10
128.044525
 20
118.201385
 11
135.044525
 21
118.201385
  0
LINE
  8
0
 62
     4
 10
123.044533
 20
120.201385
 11
123.584534
 21
121.131393
  0
LINE
  8
0
 62
     4
 10
127.514534
 20
121.131393
 11
128.044540
 21
120.201385
  0
LINE
  8
0
 62
     4
 10
128.044525
 20
120.201385
 11
128.044525
 21
108.201385
  0
LINE
  8
0
 62
     4
 10
123.044525
 20
120.201385
 11
123.044525
 21
108.201385
  0
LINE
  8
0
 62
     4
 10
123.584526
 20
121.131386
 11
127.514526
 21
121.131386
  0
LINE
  8
0
 62
     4
 10
133.044525
 20
118.201385
 11
133.044525
 21
110.201385
  0
LINE
  8
0
 62
     4
 10
118.044525
 20
117.524887
 11
118.044525
 21
110.877884
  0
LINE
  8
0
 62
     4
 10
118.721024
 20
110.201385
 11
123.044525
 21
110.201385
  0
LINE
  8
0
 62
     4
 10
118.721024
 20
118.201385
 11
123.044525
 21
118.201385
  0
LINE
  8
0
 62
     4
 10
136.044525
 20
109.201385
 11
140.544525
 21
109.201385
  0
LINE
  8
0
 62
     1
 10
138.044525
 20
117.201378
 11
135.044525
 21
111.201378
  0
LINE
  8
0
 62
     1
 10
135.044525
 20
117.201385
 11
138.044525
 21
111.201385
  0
LINE
  8
0
 62
     4
 10
138.044525
 20
117.201385
 11
138.044525
 21
111.201385
  0
LINE
  8
0
 62
     4
 10
135.044525
 20
118.201385
 11
135.044525
 21
110.201385
  0
LINE
  8
0
 62
     4
 10
135.044525
 20
117.201385
 11
138.044525
 21
117.201385
  0
LINE
  8
0
 62
     4
 10
135.044525
 20
111.201385
 11
138.044525
 21
111.201385
  0
LINE
  8
0
 62
     4
 10
-32.828201
 20
134.525757
 11
-32.828201
 21
126.525757
  0
LINE
  8
0
 62
     4
 10
-31.098200
 20
134.525757
 11
-31.098200
 21
126.525757
  0
LINE
  8
0
 10
7.171801
 20
147.525757
 11
7.171801
 21
113.525757
  0
LINE
  8
0
 10
-17.328199
 20
138.225754
 11
7.171801
 21
138.225754
  0
LINE
  8
0
 10
-17.328199
 20
135.025757
 11
7.171801
 21
135.025757
  0
LINE
  8
0
 10
-27.328199
 20
147.525757
 11
7.171801
 21
147.525757
  0
LINE
  8
0
 10
-27.328199
 20
113.525757
 11
7.171801
 21
113.525757
  0
LINE
  8
0
 62
     4
 10
-28.828823
 20
135.525757
 11
-27.328199
 21
135.525757
  0
LINE
  8
0
 62
     4
 10
-28.828823
 20
125.525757
 11
-27.328199
 21
125.525757
  0
LINE
  8
0
 10
-27.328199
 20
147.525757
 11
-27.328199
 21
113.525757
  0
LINE
  8
0
 10
-17.328199
 20
147.525757
 11
-17.328199
 21
113.525757
  0
LINE
  8
0
 10
-21.928200
 20
113.525757
 11
-21.928200
 21
121.835754
  0
LINE
  8
0
 10
-27.328199
 20
121.835754
 11
-21.928200
 21
121.835754
  0
LINE
  8
0
 10
-26.928200
 20
114.575760
 11
-26.928200
 21
121.835754
  0
LINE
  8
0
 10
-26.628199
 20
114.275757
 11
-26.628199
 21
121.835754
  0
LINE
  8
0
 10
-26.628199
 20
114.275757
 11
-21.928200
 21
114.275757
  0
LINE
  8
0
 10
-26.628197
 20
114.275757
 11
-26.928200
 21
114.575760
  0
LINE
  8
0
  6
CENTER
 62
     2
 10
-28.698200
 20
118.525757
 11
-15.238199
 21
118.525757
  0
LINE
  8
0
 10
-17.328199
 20
126.025757
 11
7.171801
 21
126.025757
  0
LINE
  8
0
 10
-17.328199
 20
122.825760
 11
7.171801
 21
122.825760
  0
LINE
  8
0
  6
CENTER
 62
     2
 10
-35.338200
 20
130.525757
 11
11.401800
 21
130.525757
  0
LINE
  8
0
 10
-21.928200
 20
116.561516
 11
7.171801
 21
116.561516
  0
LINE
  8
0
 10
-27.328199
 20
144.489990
 11
7.171801
 21
144.489990
  0
LINE
  8
0
 62
     4
 10
-32.828201
 20
134.525757
 11
-29.828199
 21
134.525757
  0
LINE
  8
0
 62
     4
 10
-32.828201
 20
126.525757
 11
-29.828199
 21
126.525757
  0
LINE
  8
0
 62
     4
 10
-29.828196
 20
134.525757
 11
-28.828819
 21
135.525757
  0
LINE
  8
0
 62
     4
 10
-29.828205
 20
126.525757
 11
-28.828829
 21
125.525757
  0
LINE
  8
0
  6
PHANTOM
 62
     3
 10
-2.328199
 20
78.985703
 11
-2.328199
 21
159.781937
  0
LINE
  8
0
  6
CENTER
 62
     2
 10
95.210014
 20
18.525753
 11
103.870018
 21
18.525753
  0
LINE
  8
0
  6
CENTER
 62
     2
 10
99.500015
 20
23.109352
 11
99.500015
 21
14.625753
  0
LINE
  8
0
  6
CENTER
 62
     2
 10
119.210014
 20
18.525753
 11
127.870018
 21
18.525753
  0
LINE
  8
0
  6
CENTER
 62
     2
 10
123.500015
 20
23.109352
 11
123.500015
 21
14.625753
  0
LINE
  8
0
  6
CENTER
 62
     2
 10
119.210014
 20
42.525753
 11
127.870018
 21
42.525753
  0
LINE
  8
0
  6
CENTER
 62
     2
 10
123.500015
 20
47.109352
 11
123.500015
 21
38.625755
  0
LINE
  8
0
  6
CENTER
 62
     2
 10
95.210014
 20
42.525753
 11
103.870018
 21
42.525753
  0
LINE
  8
0
  6
CENTER
 62
     2
 10
99.500015
 20
47.109352
 11
99.500015
 21
38.625755
  0
LINE
  8
0
 10
128.500015
 20
44.489994
 11
128.500015
 21
16.561512
  0
LINE
  8
0
 10
125.464256
 20
47.525753
 11
97.535774
 21
47.525753
  0
LINE
  8
0
 10
107.500015
 20
14.525754
 11
107.000008
 21
14.025753
  0
LINE
  8
0
 10
103.300011
 20
14.525751
 11
103.800018
 21
14.025751
  0
LINE
  8
0
 10
103.300018
 20
14.525753
 11
103.300018
 21
16.125753
  0
LINE
  8
0
 10
107.500015
 20
14.525753
 11
107.500015
 21
16.125753
  0
LINE
  8
0
 10
103.800018
 20
13.525753
 11
103.800018
 21
14.025753
  0
LINE
  8
0
 10
107.000015
 20
13.525753
 11
107.000015
 21
14.025753
  0
LINE
  8
0
 10
95.500015
 20
34.525749
 11
95.000015
 21
35.025753
  0
LINE
  8
0
 10
95.500015
 20
38.725750
 11
95.000015
 21
38.225750
  0
LINE
  8
0
 10
95.500015
 20
38.725754
 11
97.100014
 21
38.725754
  0
LINE
  8
0
 10
95.500015
 20
34.525753
 11
97.100014
 21
34.525753
  0
LINE
  8
0
 10
94.500015
 20
38.225754
 11
95.000015
 21
38.225754
  0
LINE
  8
0
 10
94.500015
 20
35.025753
 11
95.000015
 21
35.025753
  0
LINE
  8
0
 10
95.500015
 20
22.325752
 11
95.000015
 21
22.825750
  0
LINE
  8
0
 10
95.500015
 20
26.525753
 11
95.000015
 21
26.025753
  0
LINE
  8
0
 10
95.500015
 20
26.525753
 11
97.100014
 21
26.525753
  0
LINE
  8
0
 10
95.500015
 20
22.325752
 11
97.100014
 21
22.325752
  0
LINE
  8
0
 10
94.500015
 20
26.025753
 11
95.000015
 21
26.025753
  0
LINE
  8
0
 10
94.500015
 20
22.825752
 11
95.000015
 21
22.825752
  0
LINE
  8
0
 10
127.500008
 20
26.525757
 11
128.000015
 21
26.025755
  0
LINE
  8
0
 10
127.500015
 20
22.325750
 11
128.000015
 21
22.825750
  0
LINE
  8
0
 10
127.500015
 20
22.325752
 11
125.900017
 21
22.325752
  0
LINE
  8
0
 10
127.500015
 20
26.525753
 11
125.900017
 21
26.525753
  0
LINE
  8
0
 10
128.500015
 20
22.825752
 11
128.000015
 21
22.825752
  0
LINE
  8
0
 10
128.500015
 20
26.025753
 11
128.000015
 21
26.025753
  0
LINE
  8
0
 10
127.500008
 20
38.725754
 11
128.000015
 21
38.225754
  0
LINE
  8
0
 10
127.500008
 20
34.525753
 11
128.000015
 21
35.025753
  0
LINE
  8
0
 10
127.500015
 20
34.525753
 11
125.900017
 21
34.525753
  0
LINE
  8
0
 10
127.500015
 20
38.725754
 11
125.900017
 21
38.725754
  0
LINE
  8
0
 10
128.500015
 20
35.025753
 11
128.000015
 21
35.025753
  0
LINE
  8
0
 10
128.500015
 20
38.225754
 11
128.000015
 21
38.225754
  0
LINE
  8
0
 10
103.300018
 20
46.525749
 11
103.800018
 21
47.025749
  0
LINE
  8
0
 10
107.500015
 20
46.525753
 11
107.000015
 21
47.025753
  0
LINE
  8
0
 10
107.500015
 20
46.525753
 11
107.500015
 21
44.925751
  0
LINE
  8
0
 10
103.300018
 20
46.525753
 11
103.300018
 21
44.925751
  0
LINE
  8
0
 10
107.000015
 20
47.525753
 11
107.000015
 21
47.025753
  0
LINE
  8
0
 10
103.800018
 20
47.525753
 11
103.800018
 21
47.025753
  0
LINE
  8
0
 10
115.500015
 20
46.525753
 11
116.000015
 21
47.025753
  0
LINE
  8
0
 10
119.700012
 20
46.525753
 11
119.200012
 21
47.025753
  0
LINE
  8
0
 10
119.700012
 20
46.525753
 11
119.700012
 21
44.925751
  0
LINE
  8
0
 10
115.500015
 20
46.525753
 11
115.500015
 21
44.925751
  0
LINE
  8
0
 10
119.200012
 20
47.525753
 11
119.200012
 21
47.025753
  0
LINE
  8
0
 10
116.000015
 20
47.525753
 11
116.000015
 21
47.025753
  0
LINE
  8
0
 10
125.464256
 20
13.525753
 11
97.535774
 21
13.525753
  0
LINE
  8
0
 10
94.500015
 20
44.489994
 11
94.500015
 21
16.561512
  0
LINE
  8
0
  6
CENTER
 62
     2
 10
129.960022
 20
30.525753
 11
93.310013
 21
30.525753
  0
LINE
  8
0
  6
CENTER
 62
     2
 10
111.500015
 20
48.915752
 11
111.500015
 21
12.475754
  0
LINE
  8
0
 10
119.700012
 20
14.525754
 11
119.200012
 21
14.025753
  0
LINE
  8
0
 10
115.500008
 20
14.525754
 11
116.000008
 21
14.025753
  0
LINE
  8
0
 10
115.500015
 20
14.525753
 11
115.500015
 21
16.125753
  0
LINE
  8
0
 10
119.700012
 20
14.525753
 11
119.700012
 21
16.125753
  0
LINE
  8
0
 10
116.000015
 20
13.525753
 11
116.000015
 21
14.025753
  0
LINE
  8
0
 10
119.200012
 20
13.525753
 11
119.200012
 21
14.025753
  0
LINE
  8
0
 62
     4
 10
-118.999954
 20
33.525753
 11
-118.999954
 21
27.525753
  0
LINE
  8
0
 62
     4
 10
-110.999954
 20
33.525753
 11
-110.999954
 21
27.525753
  0
LINE
  8
0
  6
CENTER
 62
     2
 10
-107.289955
 20
18.525753
 11
-98.629951
 21
18.525753
  0
LINE
  8
0
  6
CENTER
 62
     2
 10
-102.999954
 20
23.109352
 11
-102.999954
 21
14.625753
  0
LINE
  8
0
  6
CENTER
 62
     2
 10
-114.999954
 20
49.055756
 11
-114.999954
 21
12.525753
  0
LINE
  8
0
 10
-126.999947
 20
20.835751
 11
-124.999947
 21
19.685751
  0
LINE
  8
0
 10
-124.999954
 20
19.685753
 11
-124.999954
 21
17.375753
  0
LINE
  8
0
 10
-124.999954
 20
17.375761
 11
-126.999962
 21
16.225756
  0
LINE
  8
0
 10
-126.999962
 20
16.225752
 11
-128.999954
 21
17.375753
  0
LINE
  8
0
 10
-128.999954
 20
19.685753
 11
-128.999954
 21
17.375753
  0
LINE
  8
0
 10
-126.999947
 20
20.835749
 11
-128.999954
 21
19.685751
  0
LINE
  8
0
 10
-102.999962
 20
44.835754
 11
-100.999954
 21
43.685749
  0
LINE
  8
0
 10
-100.999954
 20
43.685753
 11
-100.999954
 21
41.375755
  0
LINE
  8
0
 10
-100.999947
 20
41.375748
 11
-102.999947
 21
40.225750
  0
LINE
  8
0
 10
-102.999947
 20
40.225750
 11
-104.999954
 21
41.375751
  0
LINE
  8
0
 10
-104.999954
 20
43.685753
 11
-104.999954
 21
41.375755
  0
LINE
  8
0
 10
-102.999962
 20
44.835754
 11
-104.999954
 21
43.685753
  0
LINE
  8
0
  6
CENTER
 62
     2
 10
-133.239960
 20
18.525753
 11
-120.239952
 21
18.525753
  0
LINE
  8
0
  6
CENTER
 62
     2
 10
-126.999954
 20
25.645752
 11
-126.999954
 21
13.525753
  0
LINE
  8
0
  6
CENTER
 62
     2
 10
-109.719955
 20
42.525753
 11
-96.349953
 21
42.525753
  0
LINE
  8
0
  6
CENTER
 62
     2
 10
-102.999954
 20
50.165752
 11
-102.999954
 21
35.635754
  0
LINE
  8
0
  6
CENTER
 62
     2
 10
-131.289948
 20
42.525753
 11
-122.629951
 21
42.525753
  0
LINE
  8
0
  6
CENTER
 62
     2
 10
-126.999954
 20
47.109352
 11
-126.999954
 21
38.625755
  0
LINE
  8
0
 10
-131.999954
 20
44.489994
 11
-131.999954
 21
16.561512
  0
LINE
  8
0
 10
-128.964188
 20
13.525753
 11
-101.035713
 21
13.525753
  0
LINE
  8
0
 10
-128.964188
 20
47.525753
 11
-101.035713
 21
47.525753
  0
LINE
  8
0
 10
-97.999954
 20
44.489994
 11
-97.999954
 21
16.561512
  0
LINE
  8
0
  6
CENTER
 62
     2
 10
-133.219955
 20
30.525753
 11
-96.849953
 21
30.525753
  0
LINE
  8
0
  6
DASHED
 10
-2.328199
 20
16.458754
 11
2.671801
 21
16.458754
  0
LINE
  8
0
  6
DASHED
 10
-2.328199
 20
20.592752
 11
2.671801
 21
20.592752
  0
LINE
  8
0
  6
DASHED
 10
-12.828199
 20
16.458754
 11
-7.828199
 21
16.458754
  0
LINE
  8
0
  6
DASHED
 10
-12.828199
 20
20.592752
 11
-7.828199
 21
20.592752
  0
LINE
  8
0
  6
DASHED
 10
-7.828199
 20
16.375753
 11
-2.328199
 21
16.375753
  0
LINE
  8
0
  6
DASHED
 10
-7.828199
 20
20.675753
 11
-2.328199
 21
20.675753
  0
LINE
  8
0
  6
DASHED
 10
-7.828199
 20
21.025753
 11
-7.828199
 21
16.025753
  0
LINE
  8
0
  6
DASHED
 10
-27.328199
 20
15.275753
 11
-12.828199
 21
15.275753
  0
LINE
  8
0
  6
DASHED
 62
     2
 10
-12.828199
 20
16.025753
 11
-7.828199
 21
16.025753
  0
LINE
  8
0
  6
DASHED
 10
-12.828199
 20
21.775753
 11
-12.828199
 21
15.275753
  0
LINE
  8
0
  6
DASHED
 62
     2
 10
-12.828199
 20
21.025753
 11
-7.828199
 21
21.025753
  0
LINE
  8
0
  6
DASHED
 10
-27.328199
 20
21.775753
 11
-12.828199
 21
21.775753
  0
LINE
  8
0
  6
DASHED
 62
     2
 10
-24.828199
 20
17.685753
 11
-24.828199
 21
13.525753
  0
LINE
  8
0
  6
DASHED
 62
     2
 10
-19.828199
 20
17.685753
 11
-19.828199
 21
13.525753
  0
LINE
  8
0
  6
CENTER
 62
     2
 10
-35.338200
 20
30.525753
 11
11.401800
 21
30.525753
  0
LINE
  8
0
 10
-17.328199
 20
22.825752
 11
7.171801
 21
22.825752
  0
LINE
  8
0
 10
-17.328199
 20
26.025753
 11
7.171801
 21
26.025753
  0
LINE
  8
0
  6
CENTER
 62
     2
 10
-28.698200
 20
42.525753
 11
-15.238199
 21
42.525753
  0
LINE
  8
0
 10
-26.628197
 20
46.775753
 11
-26.928198
 21
46.475754
  0
LINE
  8
0
 10
-26.628199
 20
46.775753
 11
-21.928200
 21
46.775753
  0
LINE
  8
0
 10
-26.628199
 20
46.775753
 11
-26.628199
 21
39.215752
  0
LINE
  8
0
 10
-26.928200
 20
46.475754
 11
-26.928200
 21
39.215752
  0
LINE
  8
0
 10
-27.328199
 20
39.215752
 11
-21.928200
 21
39.215752
  0
LINE
  8
0
 10
-21.928200
 20
47.525753
 11
-21.928200
 21
39.215752
  0
LINE
  8
0
 10
-17.328199
 20
47.525753
 11
-17.328199
 21
13.525753
  0
LINE
  8
0
 10
-27.328199
 20
47.525753
 11
-27.328199
 21
13.525753
  0
LINE
  8
0
 62
     4
 10
-31.098200
 20
25.525753
 11
-27.328199
 21
25.525753
  0
LINE
  8
0
 62
     4
 10
-31.098200
 20
35.525753
 11
-27.328199
 21
35.525753
  0
LINE
  8
0
 10
-27.328199
 20
13.525753
 11
7.171801
 21
13.525753
  0
LINE
  8
0
  6
CENTER
 62
     2
 10
-22.328199
 20
17.685753
 11
-22.328199
 21
12.205753
  0
LINE
  8
0
  6
DASHED
 62
     2
 10
2.671801
 20
16.025753
 11
-2.328199
 21
16.025753
  0
LINE
  8
0
  6
DASHED
 62
     2
 10
2.671801
 20
21.025753
 11
-2.328199
 21
21.025753
  0
LINE
  8
0
  6
DASHED
 10
7.171801
 20
15.275753
 11
2.671801
 21
15.275753
  0
LINE
  8
0
  6
DASHED
 10
7.171801
 20
21.775753
 11
2.671801
 21
21.775753
  0
LINE
  8
0
  6
DASHED
 10
2.671801
 20
21.775753
 11
2.671801
 21
15.275753
  0
LINE
  8
0
  6
DASHED
 10
-2.328199
 20
21.025753
 11
-2.328199
 21
16.025753
  0
LINE
  8
0
  6
CENTER
 62
     2
 10
-27.928200
 20
18.525753
 11
11.401800
 21
18.525753
  0
LINE
  8
0
 10
-27.328199
 20
47.525753
 11
7.171801
 21
47.525753
  0
LINE
  8
0
 10
-17.328199
 20
35.025753
 11
7.171801
 21
35.025753
  0
LINE
  8
0
 10
-17.328199
 20
38.225754
 11
7.171801
 21
38.225754
  0
LINE
  8
0
  6
CENTER
 62
     2
 10
-6.828199
 20
33.947540
 11
-6.828199
 21
26.951986
  0
LINE
  8
0
  6
CENTER
 62
     2
 10
2.171801
 20
33.947540
 11
2.171801
 21
26.951986
  0
LINE
  8
0
 10
7.171801
 20
47.525753
 11
7.171801
 21
13.525753
  0
LINE
  8
0
 62
     4
 10
-32.828201
 20
26.525753
 11
-31.098198
 21
25.525753
  0
LINE
  8
0
 62
     4
 10
-32.828201
 20
27.525753
 11
-29.828199
 21
27.525753
  0
LINE
  8
0
 62
     4
 10
-31.098200
 20
27.525753
 11
-31.098200
 21
25.525753
  0
LINE
  8
0
 62
     4
 10
-29.828199
 20
33.525753
 11
-29.828199
 21
27.525753
  0
LINE
  8
0
 62
     1
 10
-29.828199
 20
33.525753
 11
-32.828197
 21
27.525755
  0
LINE
  8
0
 62
     1
 10
-29.828199
 20
27.525753
 11
-32.828197
 21
33.525753
  0
LINE
  8
0
 62
     4
 10
-31.098200
 20
35.525753
 11
-31.098200
 21
33.525753
  0
LINE
  8
0
 62
     4
 10
-32.828201
 20
34.525753
 11
-31.098202
 21
35.525753
  0
LINE
  8
0
 62
     4
 10
-32.828201
 20
33.525753
 11
-29.828199
 21
33.525753
  0
LINE
  8
0
 62
     4
 10
-32.828201
 20
34.525753
 11
-32.828201
 21
26.525753
  0
LINE
  8
0
 10
-21.928200
 20
44.489994
 11
7.171801
 21
44.489994
  0
LINE
  8
0
 10
-27.328199
 20
16.561512
 11
7.171801
 21
16.561512
  0
LINE
  8
0
  6
DASHED
 10
-20.261200
 20
17.685753
 11
-20.261200
 21
13.525753
  0
LINE
  8
0
  6
DASHED
 10
-24.395199
 20
17.685753
 11
-24.395199
 21
13.525753
  0
LINE
  8
0
  6
PHANTOM
 62
     3
 10
-2.328200
 20
27.494913
 11
-4.828200
 21
24.116388
  0
LINE
  8
0
  6
PHANTOM
 62
     3
 10
-2.328199
 20
27.494913
 11
-2.328199
 21
78.985703
  0
LINE
  8
0
  6
PHANTOM
 62
     3
 10
-4.828199
 20
2.203451
 11
-4.828199
 21
24.116386
  0
LINE
  8
0
 10
212.380325
 20
131.201385
 11
212.380325
 21
97.201385
  0
LINE
  8
0
  6
CENTER
 62
     2
 10
204.370316
 20
114.201385
 11
218.031464
 21
114.201385
  0
LINE
  8
0
 10
140.544525
 20
131.201385
 11
140.544525
 21
97.201385
  0
LINE
  8
0
  6
PHANTOM
 62
     2
 10
115.044533
 20
114.201385
 11
142.793182
 21
114.201385
  0
LINE
  8
0
 10
8.750000
 20
-137.000000
 11
8.750000
 21
-185.000000
  0
LINE
  8
0
 10
-13.250000
 20
-137.000000
 11
-13.250000
 21
-185.000000
  0
LINE
  8
0
 10
-35.250000
 20
-137.000000
 11
-35.250000
 21
-185.000000
  0
LINE
  8
0
 10
-57.250000
 20
-137.000000
 11
-57.250000
 21
-185.000000
  0
LINE
  8
0
 10
-79.250000
 20
-137.000000
 11
-79.250000
 21
-185.000000
  0
LINE
  8
0
 10
-101.250000
 20
-137.000000
 11
-101.250000
 21
-185.000000
  0
LINE
  8
0
 10
-123.250000
 20
-137.000000
 11
-123.250000
 21
-185.000000
  0
LINE
  8
0
 10
-145.250000
 20
-137.000000
 11
-145.250000
 21
-185.000000
  0
LINE
  8
0
 10
-167.250000
 20
-137.000000
 11
-167.250000
 21
-185.000000
  0
LINE
  8
0
 10
-189.250000
 20
-137.000000
 11
-189.250000
 21
-185.000000
  0
LINE
  8
0
 10
-211.250000
 20
-153.000000
 11
-271.250000
 21
-137.000000
  0
LINE
  8
0
 10
-211.250000
 20
-137.000000
 11
-211.250000
 21
-185.000000
  0
LINE
  8
0
 10
-271.250000
 20
-137.000000
 11
8.750000
 21
-137.000000
  0
LINE
  8
0
 10
-271.250000
 20
-153.000000
 11
8.750000
 21
-153.000000
  0
LINE
  8
0
 10
-271.250000
 20
-161.000000
 11
8.750000
 21
-161.000000
  0
LINE
  8
0
 10
-271.250000
 20
-169.000000
 11
8.750000
 21
-169.000000
  0
LINE
  8
0
 10
-271.250000
 20
-177.000000
 11
8.750000
 21
-177.000000
  0
LINE
  8
0
 10
-271.250000
 20
-185.000000
 11
8.750000
 21
-185.000000
  0
LINE
  8
0
 10
-271.250000
 20
-137.000000
 11
-271.250000
 21
-185.000000
  0
LINE
  8
0
 10
282.099854
 20
195.500000
 11
282.099854
 21
-195.000000
  0
LINE
  8
0
 10
-281.250000
 20
195.500000
 11
282.099854
 21
195.500000
  0
LINE
  8
0
 10
-281.250000
 20
195.500000
 11
-281.250000
 21
-195.000000
  0
LINE
  8
0
 10
-281.250000
 20
-195.000000
 11
282.099854
 21
-195.000000
  0
LINE
  8
0
 10
162.099976
 20
-175.000000
 11
162.099976
 21
-195.000000
  0
LINE
  8
0
 10
162.099976
 20
-175.000000
 11
282.099854
 21
-175.000000
  0
LINE
  8
0
 10
162.099976
 20
175.500000
 11
282.099854
 21
175.500000
  0
LINE
  8
0
 10
-281.250000
 20
175.500000
 11
-161.250000
 21
175.500000
  0
LINE
  8
0
 10
162.099976
 20
195.500000
 11
162.099976
 21
175.500000
  0
LINE
  8
0
 10
-161.250000
 20
195.500000
 11
-161.250000
 21
175.500000
  0
ARC
  8
0
 62
     4
 10
-113.222244
 20
-95.225792
 40
2.050003
 50
180.000000
 51
270.000000
  0
ARC
  8
0
 62
     4
 10
-113.222244
 20
-95.225792
 40
2.050003
 50
270.000000
 51
0.000000
  0
CIRCLE
  8
0
 62
     4
 10
-66.679504
 20
-50.125793
 40
1.250000
  0
CIRCLE
  8
0
 62
     4
 10
-66.679504
 20
-50.125793
 40
1.400000
  0
ARC
  8
0
 62
     4
 10
46.088703
 20
-95.225792
 40
2.050003
 50
180.000000
 51
269.999908
  0
ARC
  8
0
 62
     4
 10
46.093506
 20
-95.220901
 40
2.045202
 50
270.985901
 51
359.862793
  0
ARC
  8
0
 62
     4
 10
108.631424
 20
-45.075775
 40
3.304374
 50
137.084778
 51
222.915222
  0
CIRCLE
  8
0
 62
     4
 10
91.131424
 20
-45.075775
 40
1.250000
  0
CIRCLE
  8
0
 62
     4
 10
91.131424
 20
-45.075775
 40
1.400000
  0
CIRCLE
  8
0
 62
     4
 10
108.538773
 20
-45.075775
 40
1.299999
  0
CIRCLE
  8
0
 62
     4
 10
108.860580
 20
-45.416779
 40
0.450000
  0
CIRCLE
  8
0
 62
     4
 10
108.248703
 20
-44.757622
 40
0.450000
  0
CIRCLE
  8
0
 62
     4
 10
108.860580
 20
-45.416779
 40
0.250000
  0
CIRCLE
  8
0
 62
     4
 10
108.248703
 20
-44.757622
 40
0.250000
  0
ARC
  8
0
 62
     4
 10
205.877197
 20
114.201385
 40
5.002503
 50
323.151611
 51
36.848400
  0
CIRCLE
  8
0
 10
111.500015
 20
30.525753
 40
11.000000
  0
CIRCLE
  8
0
 10
99.500015
 20
18.525753
 40
2.066999
  0
CIRCLE
  8
0
 62
     2
 10
99.500015
 20
18.525753
 40
2.500000
  0
CIRCLE
  8
0
 10
99.500015
 20
18.525753
 40
3.250000
  0
CIRCLE
  8
0
 10
123.500015
 20
18.525753
 40
2.066999
  0
CIRCLE
  8
0
 62
     2
 10
123.500015
 20
18.525753
 40
2.500000
  0
CIRCLE
  8
0
 10
123.500015
 20
18.525753
 40
3.250000
  0
CIRCLE
  8
0
 10
123.500015
 20
42.525753
 40
2.066999
  0
CIRCLE
  8
0
 62
     2
 10
123.500015
 20
42.525753
 40
2.500000
  0
CIRCLE
  8
0
 10
123.500015
 20
42.525753
 40
3.250000
  0
CIRCLE
  8
0
 10
99.500015
 20
42.525753
 40
2.066999
  0
CIRCLE
  8
0
 62
     2
 10
99.500015
 20
42.525753
 40
2.500000
  0
CIRCLE
  8
0
 10
99.500015
 20
42.525753
 40
3.250000
  0
ARC
  8
0
 10
111.500015
 20
30.525753
 40
22.000000
 50
39.400570
 51
50.599430
  0
ARC
  8
0
 10
111.500015
 20
30.525753
 40
22.000000
 50
309.400574
 51
320.599426
  0
ARC
  8
0
 10
111.500015
 20
30.525753
 40
22.000000
 50
219.400574
 51
230.599426
  0
ARC
  8
0
 10
111.500015
 20
30.525753
 40
22.000000
 50
129.400574
 51
140.599426
  0
ARC
  8
0
 10
105.400017
 20
16.135117
 40
2.100019
 50
359.744537
 51
180.255463
  0
ARC
  8
0
 10
97.106857
 20
36.625751
 40
2.100010
 50
269.813293
 51
90.186714
  0
ARC
  8
0
 10
97.106857
 20
24.425753
 40
2.100012
 50
269.813293
 51
90.186714
  0
ARC
  8
0
 10
125.906876
 20
24.425753
 40
2.100012
 50
90.187340
 51
269.812653
  0
ARC
  8
0
 10
125.906876
 20
36.625751
 40
2.100010
 50
90.187340
 51
269.812653
  0
ARC
  8
0
 10
105.400017
 20
44.935104
 40
2.100019
 50
180.255203
 51
359.744812
  0
ARC
  8
0
 10
117.600014
 20
44.935104
 40
2.100019
 50
180.255203
 51
359.744812
  0
ARC
  8
0
 10
117.600014
 20
16.135117
 40
2.100019
 50
359.744537
 51
180.255463
  0
CIRCLE
  8
0
 62
     4
 10
-114.999954
 20
30.525753
 40
2.066999
  0
CIRCLE
  8
0
 10
-102.999954
 20
42.525753
 40
3.950000
  0
CIRCLE
  8
0
 10
-102.999954
 20
42.525753
 40
4.250000
  0
CIRCLE
  8
0
 10
-102.999954
 20
18.525753
 40
2.066999
  0
CIRCLE
  8
0
 62
     2
 10
-102.999954
 20
18.525753
 40
2.500000
  0
CIRCLE
  8
0
 10
-102.999954
 20
18.525753
 40
3.250000
  0
CIRCLE
  8
0
 10
-126.999954
 20
42.525753
 40
2.066999
  0
CIRCLE
  8
0
 62
     2
 10
-126.999954
 20
42.525753
 40
2.500000
  0
CIRCLE
  8
0
 10
-126.999954
 20
42.525753
 40
3.250000
  0
ARC
  8
0
 10
-114.999954
 20
30.525753
 40
22.000000
 50
219.400574
 51
230.599442
  0
ARC
  8
0
 10
-114.999954
 20
30.525753
 40
22.000000
 50
309.400574
 51
320.599426
  0
ARC
  8
0
 10
-114.999954
 20
30.525753
 40
22.000000
 50
39.400570
 51
50.599430
  0
ARC
  8
0
 10
-114.999954
 20
30.525753
 40
21.999996
 50
129.400558
 51
140.599426
  0
CIRCLE
  8
0
 10
-126.999954
 20
18.525753
 40
3.950000
  0
CIRCLE
  8
0
 10
-126.999954
 20
18.525753
 40
4.250000
  0
ARC
  8
0
 10
-126.999954
 20
18.525753
 40
6.002744
 50
303.542755
 51
146.457245
  0
ARC
  8
0
 10
-102.999954
 20
42.525753
 40
5.998227
 50
123.531761
 51
326.468262
  0
CIRCLE
  8
0
 62
     1
 10
-114.999954
 20
30.525753
 40
2.500000
  0
CIRCLE
  8
0
 62
     4
 10
-114.999954
 20
30.525753
 40
4.000000
  0
CIRCLE
  8
0
 62
     4
 10
-114.999954
 20
30.525753
 40
5.000000
  0
CIRCLE
  8
0
 10
-6.828199
 20
30.525753
 40
2.066999
  0
CIRCLE
  8
0
 10
2.171801
 20
30.525753
 40
2.066999
  0
CIRCLE
  8
0
 62
     2
 10
-6.828199
 20
30.525753
 40
2.500000
  0
CIRCLE
  8
0
 62
     2
 10
2.171801
 20
30.525753
 40
2.500000
  0
ARC
  8
0
 62
     4
 10
-33.831322
 20
30.525753
 40
5.002498
 50
323.151550
 51
36.848442
  0
POLYLINE
  8
0
 62
     4
 66
     1
  0
VERTEX
  8
0
 10
123.584526
 20
121.131386
  0
VERTEX
  8
0
 10
123.195267
 20
120.302063
  0
VERTEX
  8
0
 10
123.044525
 20
119.401382
  0
VERTEX
  8
0
 10
123.195274
 20
118.500702
  0
VERTEX
  8
0
 10
123.584526
 20
117.671387
  0
SEQEND
  0
POLYLINE
  8
0
 62
     4
 66
     1
  0
VERTEX
  8
0
 10
138.044525
 20
117.201385
  0
VERTEX
  8
0
 10
138.447449
 20
116.511894
  0
VERTEX
  8
0
 10
138.763794
 20
115.770538
  0
VERTEX
  8
0
 10
138.970505
 20
114.994606
  0
VERTEX
  8
0
 10
139.044525
 20
114.201385
  0
VERTEX
  8
0
 10
138.970505
 20
113.408165
  0
VERTEX
  8
0
 10
138.763794
 20
112.632233
  0
VERTEX
  8
0
 10
138.447449
 20
111.890877
  0
VERTEX
  8
0
 10
138.044525
 20
111.201385
  0
SEQEND
  0
POLYLINE
  8
0
 62
     4
 66
     1
  0
VERTEX
  8
0
 10
127.514526
 20
121.131386
  0
VERTEX
  8
0
 10
127.898781
 20
120.302063
  0
VERTEX
  8
0
 10
128.044525
 20
119.401382
  0
VERTEX
  8
0
 10
127.898781
 20
118.500702
  0
VERTEX
  8
0
 10
127.514526
 20
117.671387
  0
SEQEND
  0
POLYLINE
  8
0
 62
     4
 66
     1
  0
VERTEX
  8
0
 10
127.514526
 20
117.671387
  0
VERTEX
  8
0
 10
127.743042
 20
116.823608
  0
VERTEX
  8
0
 10
127.909035
 20
115.958649
  0
VERTEX
  8
0
 10
128.010284
 20
115.082558
  0
VERTEX
  8
0
 10
128.044525
 20
114.201385
  0
VERTEX
  8
0
 10
128.010284
 20
113.322479
  0
VERTEX
  8
0
 10
127.909035
 20
112.449745
  0
VERTEX
  8
0
 10
127.743042
 20
111.587837
  0
VERTEX
  8
0
 10
127.514526
 20
110.741386
  0
SEQEND
  0
POLYLINE
  8
0
 62
     4
 66
     1
  0
VERTEX
  8
0
 10
123.584526
 20
107.281387
  0
VERTEX
  8
0
 10
123.195267
 20
108.110703
  0
VERTEX
  8
0
 10
123.044525
 20
109.011383
  0
VERTEX
  8
0
 10
123.195267
 20
109.912064
  0
VERTEX
  8
0
 10
123.584526
 20
110.741386
  0
SEQEND
  0
POLYLINE
  8
0
 62
     4
 66
     1
  0
VERTEX
  8
0
 10
123.584526
 20
117.671387
  0
VERTEX
  8
0
 10
123.354454
 20
116.823608
  0
VERTEX
  8
0
 10
123.185013
 20
115.958649
  0
VERTEX
  8
0
 10
123.080330
 20
115.082558
  0
VERTEX
  8
0
 10
123.044525
 20
114.201385
  0
VERTEX
  8
0
 10
123.080330
 20
113.322479
  0
VERTEX
  8
0
 10
123.185013
 20
112.449745
  0
VERTEX
  8
0
 10
123.354454
 20
111.587837
  0
VERTEX
  8
0
 10
123.584526
 20
110.741386
  0
SEQEND
  0
POLYLINE
  8
0
 62
     4
 66
     1
  0
VERTEX
  8
0
 10
127.514526
 20
107.281387
  0
VERTEX
  8
0
 10
127.898781
 20
108.110703
  0
VERTEX
  8
0
 10
128.044525
 20
109.011383
  0
VERTEX
  8
0
 10
127.898781
 20
109.912064
  0
VERTEX
  8
0
 10
127.514526
 20
110.741386
  0
SEQEND
  0
TEXT
  8
0
 62
     3
 10
-29.720856
 20
161.731934
 40
4.500000
  1
STRETCH LINE
 50
0.000000
 41
1.052632
 51
0.000000
  7
STANDARD
  0
TEXT
  8
0
 10
-7.142656
 20
-184.050003
 40
4.500000
  1
60
 50
0.000000
 41
1.052632
 51
0.000000
  7
STANDARD
  0
TEXT
  8
0
 10
-29.142656
 20
-184.050003
 40
4.500000
  1
55
 50
0.000000
 41
1.052632
 51
0.000000
  7
STANDARD
  0
TEXT
  8
0
 10
-205.142654
 20
-184.050003
 40
4.500000
  1
15
 50
0.000000
 41
1.052632
 51
0.000000
  7
STANDARD
  0
TEXT
  8
0
 10
-183.142654
 20
-184.050003
 40
4.500000
  1
20
 50
0.000000
 41
1.052632
 51
0.000000
  7
STANDARD
  0
TEXT
  8
0
 10
-161.142654
 20
-184.050003
 40
4.500000
  1
25
 50
0.000000
 41
1.052632
 51
0.000000
  7
STANDARD
  0
TEXT
  8
0
 10
-139.142654
 20
-184.050003
 40
4.500000
  1
30
 50
0.000000
 41
1.052632
 51
0.000000
  7
STANDARD
  0
TEXT
  8
0
 10
-117.142654
 20
-184.050003
 40
4.500000
  1
35
 50
0.000000
 41
1.052632
 51
0.000000
  7
STANDARD
  0
TEXT
  8
0
 10
-95.142654
 20
-184.050003
 40
4.500000
  1
40
 50
0.000000
 41
1.052632
 51
0.000000
  7
STANDARD
  0
TEXT
  8
0
 10
-73.142654
 20
-184.050003
 40
4.500000
  1
45
 50
0.000000
 41
1.052632
 51
0.000000
  7
STANDARD
  0
TEXT
  8
0
 10
-51.142658
 20
-184.050003
 40
4.500000
  1
50
 50
0.000000
 41
1.052632
 51
0.000000
  7
STANDARD
  0
TEXT
  8
0
 10
-7.142656
 20
-176.050003
 40
4.500000
  1
50
 50
0.000000
 41
1.052632
 51
0.000000
  7
STANDARD
  0
TEXT
  8
0
 10
-7.142656
 20
-168.050003
 40
4.500000
  1
55
 50
0.000000
 41
1.052632
 51
0.000000
  7
STANDARD
  0
TEXT
  8
0
 10
-7.142656
 20
-160.050003
 40
4.500000
  1
45
 50
0.000000
 41
1.052632
 51
0.000000
  7
STANDARD
  0
TEXT
  8
0
 10
202.719482
 20
136.868668
 40
6.300000
  1
-G
 50
0.000000
 41
1.052632
 51
0.000000
  7
STANDARD
  0
TEXT
  8
0
 10
121.994667
 20
136.868622
 40
6.300000
  1
-B
 50
0.000000
 41
1.052632
 51
0.000000
  7
STANDARD
  0
TEXT
  8
0
 10
-11.642657
 20
-136.050003
 40
4.500000
  1
üiéìéìüj
 50
0.000000
 41
0.833333
 51
0.000000
  7
STANDARD
  0
TEXT
  8
0
 10
-232.249710
 20
135.830002
 40
6.300000
  1
CS-CDA20*ST-R
 50
0.000000
 41
1.052632
 51
0.000000
  7
STANDARD
  0
TEXT
  8
0
 10
-232.249710
 20
145.830002
 40
6.300000
  1
CS-CDAS20*ST
 50
0.000000
 41
1.052632
 51
0.000000
  7
STANDARD
  0
TEXT
  8
0
 10
-270.049713
 20
155.830002
 40
6.300000
  1
MODEL:CS-CDA20*ST(5)
 50
0.000000
 41
1.052632
 51
0.000000
  7
STANDARD
  0
TEXT
  8
0
 10
-158.642654
 20
-135.050003
 40
4.500000
  1
STRETCH LIST
 50
0.000000
 41
1.052632
 51
0.000000
  7
STANDARD
  0
TEXT
  8
0
 10
-29.142656
 20
-160.050003
 40
4.500000
  1
40
 50
0.000000
 41
1.052632
 51
0.000000
  7
STANDARD
  0
TEXT
  8
0
 10
-51.142658
 20
-160.050003
 40
4.500000
  1
35
 50
0.000000
 41
1.052632
 51
0.000000
  7
STANDARD
  0
TEXT
  8
0
 10
-73.142654
 20
-160.050003
 40
4.500000
  1
30
 50
0.000000
 41
1.052632
 51
0.000000
  7
STANDARD
  0
TEXT
  8
0
 10
-95.142654
 20
-160.050003
 40
4.500000
  1
25
 50
0.000000
 41
1.052632
 51
0.000000
  7
STANDARD
  0
TEXT
  8
0
 10
-117.142654
 20
-160.050003
 40
4.500000
  1
20
 50
0.000000
 41
1.052632
 51
0.000000
  7
STANDARD
  0
TEXT
  8
0
 10
-139.142654
 20
-160.050003
 40
4.500000
  1
15
 50
0.000000
 41
1.052632
 51
0.000000
  7
STANDARD
  0
TEXT
  8
0
 10
-161.142654
 20
-160.050003
 40
4.500000
  1
10
 50
0.000000
 41
1.052632
 51
0.000000
  7
STANDARD
  0
TEXT
  8
0
 10
-180.892654
 20
-160.050003
 40
4.500000
  1
5
 50
0.000000
 41
1.052632
 51
0.000000
  7
STANDARD
  0
TEXT
  8
0
 10
-202.892654
 20
-160.050003
 40
4.500000
  1
0
 50
0.000000
 41
1.052632
 51
0.000000
  7
STANDARD
  0
TEXT
  8
0
 10
-205.142654
 20
-168.050003
 40
4.500000
  1
10
 50
0.000000
 41
1.052632
 51
0.000000
  7
STANDARD
  0
TEXT
  8
0
 10
-183.142654
 20
-168.050003
 40
4.500000
  1
15
 50
0.000000
 41
1.052632
 51
0.000000
  7
STANDARD
  0
TEXT
  8
0
 10
-161.142654
 20
-168.050003
 40
4.500000
  1
20
 50
0.000000
 41
1.052632
 51
0.000000
  7
STANDARD
  0
TEXT
  8
0
 10
-139.142654
 20
-168.050003
 40
4.500000
  1
25
 50
0.000000
 41
1.052632
 51
0.000000
  7
STANDARD
  0
TEXT
  8
0
 10
-117.142654
 20
-168.050003
 40
4.500000
  1
30
 50
0.000000
 41
1.052632
 51
0.000000
  7
STANDARD
  0
TEXT
  8
0
 10
-95.142654
 20
-168.050003
 40
4.500000
  1
35
 50
0.000000
 41
1.052632
 51
0.000000
  7
STANDARD
  0
TEXT
  8
0
 10
-73.142654
 20
-168.050003
 40
4.500000
  1
40
 50
0.000000
 41
1.052632
 51
0.000000
  7
STANDARD
  0
TEXT
  8
0
 10
-51.142658
 20
-168.050003
 40
4.500000
  1
45
 50
0.000000
 41
1.052632
 51
0.000000
  7
STANDARD
  0
TEXT
  8
0
 10
-29.142656
 20
-168.050003
 40
4.500000
  1
50
 50
0.000000
 41
1.052632
 51
0.000000
  7
STANDARD
  0
TEXT
  8
0
 10
-29.142656
 20
-176.050003
 40
4.500000
  1
45
 50
0.000000
 41
1.052632
 51
0.000000
  7
STANDARD
  0
TEXT
  8
0
 10
-51.142658
 20
-176.050003
 40
4.500000
  1
40
 50
0.000000
 41
1.052632
 51
0.000000
  7
STANDARD
  0
TEXT
  8
0
 10
-73.142654
 20
-176.050003
 40
4.500000
  1
35
 50
0.000000
 41
1.052632
 51
0.000000
  7
STANDARD
  0
TEXT
  8
0
 10
-95.142654
 20
-176.050003
 40
4.500000
  1
30
 50
0.000000
 41
1.052632
 51
0.000000
  7
STANDARD
  0
TEXT
  8
0
 10
-117.142654
 20
-176.050003
 40
4.500000
  1
25
 50
0.000000
 41
1.052632
 51
0.000000
  7
STANDARD
  0
TEXT
  8
0
 10
-139.142654
 20
-176.050003
 40
4.500000
  1
20
 50
0.000000
 41
1.052632
 51
0.000000
  7
STANDARD
  0
TEXT
  8
0
 10
-161.142654
 20
-176.050003
 40
4.500000
  1
15
 50
0.000000
 41
1.052632
 51
0.000000
  7
STANDARD
  0
TEXT
  8
0
 10
-183.142654
 20
-176.050003
 40
4.500000
  1
10
 50
0.000000
 41
1.052632
 51
0.000000
  7
STANDARD
  0
TEXT
  8
0
 10
-202.892654
 20
-176.050003
 40
4.500000
  1
5
 50
0.000000
 41
1.052632
 51
0.000000
  7
STANDARD
  0
TEXT
  8
0
 10
-29.142656
 20
-148.050003
 40
4.500000
  1
45
 50
0.000000
 41
1.052632
 51
0.000000
  7
STANDARD
  0
TEXT
  8
0
 10
-51.142658
 20
-148.050003
 40
4.500000
  1
40
 50
0.000000
 41
1.052632
 51
0.000000
  7
STANDARD
  0
TEXT
  8
0
 10
-73.142654
 20
-148.050003
 40
4.500000
  1
35
 50
0.000000
 41
1.052632
 51
0.000000
  7
STANDARD
  0
TEXT
  8
0
 10
-95.142654
 20
-148.050003
 40
4.500000
  1
30
 50
0.000000
 41
1.052632
 51
0.000000
  7
STANDARD
  0
TEXT
  8
0
 10
-117.142654
 20
-148.050003
 40
4.500000
  1
25
 50
0.000000
 41
1.052632
 51
0.000000
  7
STANDARD
  0
TEXT
  8
0
 10
-139.142654
 20
-148.050003
 40
4.500000
  1
20
 50
0.000000
 41
1.052632
 51
0.000000
  7
STANDARD
  0
TEXT
  8
0
 10
-161.142654
 20
-148.050003
 40
4.500000
  1
15
 50
0.000000
 41
1.052632
 51
0.000000
  7
STANDARD
  0
TEXT
  8
0
 10
-183.142654
 20
-148.050003
 40
4.500000
  1
10
 50
0.000000
 41
1.052632
 51
0.000000
  7
STANDARD
  0
TEXT
  8
0
 10
-202.892654
 20
-148.050003
 40
4.500000
  1
5
 50
0.000000
 41
1.052632
 51
0.000000
  7
STANDARD
  0
TEXT
  8
0
 10
-240.142654
 20
-144.050003
 40
4.500000
  1
STROKE
 50
0.000000
 41
1.052632
 51
0.000000
  7
STANDARD
  0
TEXT
  8
0
 10
-265.642670
 20
-152.050003
 40
4.500000
  1
TYPE
 50
0.000000
 41
1.052632
 51
0.000000
  7
STANDARD
  0
TEXT
  8
0
 10
-264.000000
 20
-184.050003
 40
4.500000
  1
CS-CDAS20-R
 50
0.000000
 41
1.052632
 51
0.000000
  7
STANDARD
  0
TEXT
  8
0
 10
-7.142656
 20
-148.050003
 40
4.500000
  1
50
 50
0.000000
 41
1.052632
 51
0.000000
  7
STANDARD
  0
TEXT
  8
0
 10
-264.000000
 20
-158.699997
 40
4.500000
  1
CS-CDA20
 50
0.000000
 41
1.052632
 51
0.000000
  7
STANDARD
  0
TEXT
  8
0
 10
-264.000000
 20
-166.699997
 40
4.500000
  1
CS-CDAS20
 50
0.000000
 41
1.052632
 51
0.000000
  7
STANDARD
  0
TEXT
  8
0
 10
-264.000000
 20
-174.699997
 40
4.500000
  1
CS-CDA20-R
 50
0.000000
 41
1.052632
 51
0.000000
  7
STANDARD
  0
TEXT
  8
0
 10
-232.249710
 20
125.830002
 40
6.300000
  1
CS-CDAS20*ST-R
 50
0.000000
 41
1.052632
 51
0.000000
  7
STANDARD
  0
TEXT
  8
0
 10
-269.149719
 20
180.830002
 40
6.300000
  1
CS JIG CYLINDER
 50
0.000000
 41
1.052632
 51
0.000000
  7
STANDARD
  0
TEXT
  8
0
 10
196.250259
 20
180.830002
 40
6.300000
  1
éuüvÕú‗.ü@éPüDéO
 50
0.000000
 41
0.833333
 51
0.000000
  7
STANDARD
  0
TEXT
  8
0
 10
167.564667
 20
-192.100006
 40
9.000000
  1
KOGANEI CORP.
 50
0.000000
 41
1.052632
 51
0.000000
  7
STANDARD
  0
ENDSEC
  0
EOF
