  0
SECTION
  2
HEADER
  0
ENDSEC
  0
SECTION
  2
TABLES
  0
TABLE
  2
LTYPE
 70
     4
  0
LTYPE
  2
CONTINUOUS
 70
    64
  3
Solid line
 72
    65
 73
     0
 40
0.000000
  0
LTYPE
  2
DASHED
 70
    64
  3
__ __ __ __ __ __ __ __ __ __ __ __ __ __ __
 72
    65
 73
     2
 40
3.500000
 49
2.000000
 49
-1.500000
  0
LTYPE
  2
CENTER
 70
    64
  3
____ _ ____ _ ____ _ ____ _ ____ _ ____ _ ____
 72
    65
 73
     4
 40
17.500000
 49
13.000000
 49
-1.500000
 49
1.500000
 49
-1.500000
  0
LTYPE
  2
PHANTOM
 70
    64
  3
_____ _ _ _____ _ _ _____ _ _ _____ _ _ ____  
 72
    65
 73
     6
 40
15.500000
 49
8.000000
 49
-1.500000
 49
1.500000
 49
-1.500000
 49
1.500000
 49
-1.500000
  0
LTYPE
  2
DASHED1
 70
    64
  3
__ __ __ __ __ __ __ __ __ __ __ __ __ __ __
 72
    65
 73
     2
 40
1.500000
 49
1.000000
 49
-0.500000
  0
LTYPE
  2
DASHED2
 70
    64
  3
__ __ __ __ __ __ __ __ __ __ __ __ __ __ __
 72
    65
 73
     2
 40
3.500000
 49
2.500000
 49
-1.000000
  0
LTYPE
  2
DASHED3
 70
    64
  3
__ __ __ __ __ __ __ __ __ __ __ __ __ __ __
 72
    65
 73
     2
 40
6.000000
 49
4.000000
 49
-2.000000
  0
LTYPE
  2
DASHED4
 70
    64
  3
__ __ __ __ __ __ __ __ __ __ __ __ __ __ __
 72
    65
 73
     2
 40
12.000000
 49
10.000000
 49
-2.000000
  0
LTYPE
  2
DASHED5
 70
    64
  3
__ __ __ __ __ __ __ __ __ __ __ __ __ __ __
 72
    65
 73
     2
 40
17.000000
 49
15.000000
 49
-2.000000
  0
LTYPE
  2
DASHED6
 70
    64
  3
__ __ __ __ __ __ __ __ __ __ __ __ __ __ __
 72
    65
 73
     2
 40
29.000000
 49
27.000000
 49
-2.000000
  0
LTYPE
  2
PHANTOM1
 70
    64
  3
_____ _ _ _____ _ _ _____ _ _ _____ _ _ ____  
 72
    65
 73
     6
 40
31.000000
 49
25.000000
 49
-1.500000
 49
1.000000
 49
-1.000000
 49
1.000000
 49
-1.500000
  0
LTYPE
  2
PHANTOM2
 70
    64
  3
_____ _ _ _____ _ _ _____ _ _ _____ _ _ ____  
 72
    65
 73
     6
 40
36.000000
 49
27.000000
 49
-1.500000
 49
2.500000
 49
-1.000000
 49
2.500000
 49
-1.500000
  0
LTYPE
  2
PHANTOM3
 70
    64
  3
_____ _ _ _____ _ _ _____ _ _ _____ _ _ ____  
 72
    65
 73
     6
 40
78.000000
 49
64.000000
 49
-2.000000
 49
4.000000
 49
-2.000000
 49
4.000000
 49
-2.000000
  0
LTYPE
  2
CENTER1
 70
    64
  3
____ _ ____ _ ____ _ ____ _ ____ _ ____ _ ____
 72
    65
 73
     4
 40
19.000000
 49
14.000000
 49
-1.000000
 49
3.000000
 49
-1.000000
  0
LTYPE
  2
CENTER2
 70
    64
  3
____ _ ____ _ ____ _ ____ _ ____ _ ____ _ ____
 72
    65
 73
     4
 40
28.500000
 49
25.000000
 49
-1.000000
 49
1.500000
 49
-1.000000
  0
LTYPE
  2
CENTER3
 70
    64
  3
____ _ ____ _ ____ _ ____ _ ____ _ ____ _ ____
 72
    65
 73
     4
 40
31.500000
 49
27.000000
 49
-1.000000
 49
2.500000
 49
-1.000000
  0
LTYPE
  2
CENTER4
 70
    64
  3
____ _ ____ _ ____ _ ____ _ ____ _ ____ _ ____
 72
    65
 73
     4
 40
50.000000
 49
45.000000
 49
-1.000000
 49
3.000000
 49
-1.000000
  0
LTYPE
  2
CENTER5
 70
    64
  3
____ _ ____ _ ____ _ ____ _ ____ _ ____ _ ____
 72
    65
 73
     4
 40
100.000000
 49
92.000000
 49
-2.000000
 49
4.000000
 49
-2.000000
  0
LTYPE
  2
SBK1
 70
    64
  3
______ _ _ _ ______ _ _ _ ______ _ _ _ _____  
 72
    65
 73
     8
 40
60.500000
 49
45.000000
 49
-2.000000
 49
2.500000
 49
-2.000000
 49
2.500000
 49
-2.000000
 49
2.500000
 49
-2.000000
  0
LTYPE
  2
SBK2
 70
    64
  3
______ _ _ _ ______ _ _ _ ______ _ _ _ _____  
 72
    65
 73
     8
 40
84.000000
 49
64.000000
 49
-2.000000
 49
4.000000
 49
-2.000000
 49
4.000000
 49
-2.000000
 49
4.000000
 49
-2.000000
  0
LTYPE
  2
STCH
 70
    64
  3
__ __ __ __ __ __ __ __ __ __ __ __ __ __ __
 72
    65
 73
     2
 40
3.000000
 49
1.000000
 49
-2.000000
  0
LTYPE
  2
MTCH
 70
    64
  3
_____ _ _ _____ _ _ _____ _ _ _____ _ _ ____  
 72
    65
 73
     6
 40
80.000000
 49
66.000000
 49
-2.000000
 49
4.000000
 49
-2.000000
 49
4.000000
 49
-2.000000
  0
ENDTAB
  0
TABLE
  2
LAYER
 70
     1
  0
LAYER
  2
0
 70
     0
 62
     7
  6
CONTINUOUS
  0
ENDTAB
  0
TABLE
  2
STYLE
 70
     1
  0
STYLE
  2
STANDARD
 70
     0
 40
0.000000
 41
1.000000
 50
0.000000
 71
     0
 42
0.200000
  3
txt
  4
BIGFONT
  0
ENDTAB
  0
TABLE
  2
VIEW
 70
     0
  0
ENDTAB
  0
ENDSEC
  0
SECTION
  2
BLOCKS
  0
ENDSEC
  0
SECTION
  2
ENTITIES
  0
LINE
  8
0
 62
     4
 10
-68.679535
 20
-92.675903
 11
-46.679535
 21
-92.675903
  0
LINE
  8
0
 62
     4
 10
-63.979534
 20
-97.275902
 11
-46.679535
 21
-97.275902
  0
LINE
  8
0
 62
     4
 10
-46.679535
 20
-92.675903
 11
-46.679535
 21
-97.275902
  0
LINE
  8
0
 62
     4
 10
-68.679535
 20
-94.475906
 11
-68.679535
 21
-92.675903
  0
LINE
  8
0
 62
     4
 10
-63.979534
 20
-95.715904
 11
-63.979534
 21
-97.275902
  0
LINE
  8
0
 62
     4
 10
-68.679535
 20
-94.475906
 11
-64.429535
 21
-94.475906
  0
LINE
  8
0
  6
CENTER
 62
     1
 10
-66.679535
 20
-91.875900
 11
-66.679535
 21
-98.105904
  0
LINE
  8
0
 62
     4
 10
-64.429535
 20
-94.475906
 11
-64.429535
 21
-95.715904
  0
LINE
  8
0
 62
     4
 10
-64.679535
 20
-94.475906
 11
-64.679535
 21
-95.275902
  0
LINE
  8
0
 62
     4
 10
-68.679535
 20
-94.475906
 11
-68.679535
 21
-95.275902
  0
LINE
  8
0
 62
     4
 10
-68.679535
 20
-95.275902
 11
-64.679535
 21
-95.275902
  0
LINE
  8
0
 62
     4
 10
-64.479538
 20
-94.475906
 11
-64.479538
 21
-96.475906
  0
LINE
  8
0
 62
     4
 10
-64.479538
 20
-96.475906
 11
-63.979534
 21
-96.475906
  0
LINE
  8
0
 62
     4
 10
-64.429535
 20
-95.715904
 11
-63.979534
 21
-95.715904
  0
LINE
  8
0
 62
     4
 10
-38.179535
 20
-93.675903
 11
-38.179535
 21
-96.275902
  0
LINE
  8
0
  6
CENTER
 62
     1
 10
-39.909534
 20
-94.525902
 11
-27.979534
 21
-94.525902
  0
LINE
  8
0
  6
CENTER
 62
     1
 10
-39.859535
 20
-95.425903
 11
-27.929535
 21
-95.425903
  0
LINE
  8
0
 62
     4
 10
-28.179535
 20
-94.275902
 11
-28.179535
 21
-94.775902
  0
LINE
  8
0
 62
     4
 10
-28.179535
 20
-95.175903
 11
-28.179535
 21
-95.675903
  0
LINE
  8
0
 62
     4
 10
-31.179535
 20
-94.075905
 11
-31.179535
 21
-95.875900
  0
LINE
  8
0
 62
     4
 10
-38.179535
 20
-95.875900
 11
-34.179535
 21
-95.875900
  0
LINE
  8
0
 62
     4
 10
-38.179535
 20
-94.975906
 11
-34.699535
 21
-94.975906
  0
LINE
  8
0
 62
     4
 10
-33.199535
 20
-94.975906
 11
-31.179535
 21
-94.975906
  0
LINE
  8
0
 62
     4
 10
-32.679535
 20
-95.875900
 11
-31.179535
 21
-95.875900
  0
LINE
  8
0
 62
     4
 10
-38.179535
 20
-94.075905
 11
-35.219536
 21
-94.075905
  0
LINE
  8
0
 62
     4
 10
-33.719536
 20
-94.075905
 11
-31.179535
 21
-94.075905
  0
LINE
  8
0
 62
     4
 10
-31.179535
 20
-94.275902
 11
-28.179535
 21
-94.275902
  0
LINE
  8
0
 62
     4
 10
-31.179535
 20
-94.775902
 11
-28.179535
 21
-94.775902
  0
LINE
  8
0
 62
     4
 10
-31.179535
 20
-95.175903
 11
-28.179535
 21
-95.175903
  0
LINE
  8
0
 62
     4
 10
-31.179535
 20
-95.675903
 11
-28.179535
 21
-95.675903
  0
LINE
  8
0
 62
     1
 10
-34.449535
 20
-92.805901
 11
-31.949532
 21
-97.135902
  0
LINE
  8
0
  6
CENTER
 62
     1
 10
-47.999535
 20
-94.975906
 11
-38.179535
 21
-94.975906
  0
LINE
  8
0
 62
     1
 10
-35.949532
 20
-92.805901
 11
-33.449532
 21
-97.135902
  0
LINE
  8
0
 62
     1
 10
-43.429531
 20
-92.805901
 11
-40.929531
 21
-97.135902
  0
LINE
  8
0
 62
     1
 10
-44.929535
 20
-92.805901
 11
-42.429535
 21
-97.135902
  0
LINE
  8
0
 62
     4
 10
-67.709534
 20
-96.675903
 11
-65.659538
 21
-96.675903
  0
LINE
  8
0
 62
     4
 10
-65.659538
 20
-96.675903
 11
-65.429535
 21
-96.445900
  0
LINE
  8
0
 62
     4
 10
-67.709534
 20
-96.675903
 11
-67.929535
 21
-96.445900
  0
LINE
  8
0
 62
     4
 10
-67.929535
 20
-95.265900
 11
-67.929535
 21
-96.445900
  0
LINE
  8
0
 62
     1
 10
-67.709534
 20
-95.265900
 11
-67.709534
 21
-96.675903
  0
LINE
  8
0
 62
     1
 10
-65.659538
 20
-95.265900
 11
-65.659538
 21
-96.675903
  0
LINE
  8
0
 62
     4
 10
-65.429535
 20
-95.265900
 11
-65.429535
 21
-96.445900
  0
LINE
  8
0
 62
     4
 10
-67.929535
 20
-96.445900
 11
-65.429535
 21
-96.445900
  0
LINE
  8
0
 62
     4
 10
-67.929535
 20
-92.175903
 11
-67.929535
 21
-92.675903
  0
LINE
  8
0
 62
     1
 10
-67.709534
 20
-92.175903
 11
-67.709534
 21
-92.675903
  0
LINE
  8
0
 62
     1
 10
-65.659538
 20
-92.175903
 11
-65.659538
 21
-92.675903
  0
LINE
  8
0
 62
     4
 10
-65.429535
 20
-92.175903
 11
-65.429535
 21
-92.675903
  0
LINE
  8
0
 62
     4
 10
-67.929535
 20
-92.175903
 11
-65.429535
 21
-92.175903
  0
LINE
  8
0
 62
     4
 10
-68.679535
 20
-93.675903
 11
-46.679535
 21
-93.675903
  0
LINE
  8
0
 62
     4
 10
-68.679535
 20
-93.125900
 11
-46.679535
 21
-93.125900
  0
LINE
  8
0
 62
     4
 10
-46.679535
 20
-93.675903
 11
-44.429535
 21
-93.675903
  0
LINE
  8
0
 62
     4
 10
-46.679535
 20
-96.275902
 11
-42.929535
 21
-96.275902
  0
LINE
  8
0
 62
     4
 10
-42.929535
 20
-93.675903
 11
-38.179535
 21
-93.675903
  0
LINE
  8
0
 62
     4
 10
-41.429535
 20
-96.275902
 11
-38.179535
 21
-96.275902
  0
LINE
  8
0
 62
     4
 10
-115.272247
 20
-93.675797
 11
-115.272247
 21
-95.225800
  0
LINE
  8
0
 62
     4
 10
-115.272247
 20
-93.675797
 11
-114.722244
 21
-93.125793
  0
LINE
  8
0
 62
     4
 10
-114.722244
 20
-92.675797
 11
-114.722244
 21
-93.125793
  0
LINE
  8
0
 62
     4
 10
-114.722244
 20
-92.675797
 11
-111.722244
 21
-92.675797
  0
LINE
  8
0
 62
     4
 10
-111.722244
 20
-92.675797
 11
-111.722244
 21
-93.125793
  0
LINE
  8
0
 62
     4
 10
-111.172241
 20
-93.675797
 11
-111.722244
 21
-93.125793
  0
LINE
  8
0
 62
     4
 10
-111.172241
 20
-93.675797
 11
-111.172241
 21
-95.225800
  0
LINE
  8
0
 62
     4
 10
-115.272247
 20
-94.475800
 11
-111.172241
 21
-94.475800
  0
LINE
  8
0
 62
     4
 10
-115.272247
 20
-95.265793
 11
-111.172241
 21
-95.265793
  0
LINE
  8
0
 62
     4
 10
-114.242241
 20
-96.675797
 11
-112.202248
 21
-96.675797
  0
LINE
  8
0
 62
     4
 10
-112.202248
 20
-96.675797
 11
-111.972244
 21
-96.445793
  0
LINE
  8
0
 62
     4
 10
-114.242233
 20
-96.675789
 11
-114.472237
 21
-96.445786
  0
LINE
  8
0
 62
     4
 10
-114.472244
 20
-95.265793
 11
-114.472244
 21
-96.445793
  0
LINE
  8
0
 62
     1
 10
-114.242241
 20
-95.265793
 11
-114.242241
 21
-96.675797
  0
LINE
  8
0
 62
     1
 10
-112.202248
 20
-95.265793
 11
-112.202248
 21
-96.675797
  0
LINE
  8
0
 62
     4
 10
-111.972244
 20
-95.265793
 11
-111.972244
 21
-96.445793
  0
LINE
  8
0
 62
     4
 10
-114.472244
 20
-96.445793
 11
-111.972244
 21
-96.445793
  0
LINE
  8
0
 62
     4
 10
-114.472244
 20
-92.175797
 11
-114.472244
 21
-92.675797
  0
LINE
  8
0
 62
     1
 10
-114.242241
 20
-92.175797
 11
-114.242241
 21
-92.675797
  0
LINE
  8
0
 62
     1
 10
-112.202248
 20
-92.175797
 11
-112.202248
 21
-92.675797
  0
LINE
  8
0
 62
     4
 10
-111.972244
 20
-92.175797
 11
-111.972244
 21
-92.675797
  0
LINE
  8
0
 62
     4
 10
-114.472244
 20
-92.175797
 11
-111.972244
 21
-92.175797
  0
LINE
  8
0
  6
CENTER
 62
     1
 10
-113.222244
 20
-90.625793
 11
-113.222244
 21
-99.335800
  0
LINE
  8
0
  6
CENTER
 62
     1
 10
-71.479523
 20
-50.125793
 11
-41.279518
 21
-50.125793
  0
LINE
  8
0
 62
     4
 10
-68.679520
 20
-51.625793
 11
-46.679520
 21
-51.625793
  0
LINE
  8
0
 62
     4
 10
-68.679520
 20
-48.625793
 11
-46.679520
 21
-48.625793
  0
LINE
  8
0
 62
     4
 10
-68.679520
 20
-52.175793
 11
-46.679520
 21
-52.175793
  0
LINE
  8
0
 62
     4
 10
-68.679520
 20
-48.075794
 11
-46.679520
 21
-48.075794
  0
LINE
  8
0
 62
     4
 10
-68.679520
 20
-48.075794
 11
-68.679520
 21
-52.175793
  0
LINE
  8
0
 62
     4
 10
-46.679520
 20
-48.075794
 11
-46.679520
 21
-52.175793
  0
LINE
  8
0
  6
CENTER
 62
     1
 10
-66.679520
 20
-47.295792
 11
-66.679520
 21
-52.875793
  0
LINE
  8
0
 62
     4
 10
-67.729515
 20
-50.835789
 11
-65.999519
 21
-49.105793
  0
LINE
  8
0
 62
     4
 10
-67.379517
 20
-51.185799
 11
-65.739517
 21
-49.565796
  0
LINE
  8
0
 62
     1
 10
-45.599518
 20
-47.965794
 11
-43.099518
 21
-52.285793
  0
LINE
  8
0
 62
     4
 10
-46.679520
 20
-48.825794
 11
-45.099518
 21
-48.825794
  0
LINE
  8
0
 62
     4
 10
-46.679520
 20
-51.425793
 11
-43.589520
 21
-51.425793
  0
LINE
  8
0
 62
     4
 10
89.131424
 20
-92.675797
 11
105.231422
 21
-92.675797
  0
LINE
  8
0
 62
     4
 10
93.831421
 20
-97.275795
 11
111.131424
 21
-97.275795
  0
LINE
  8
0
 62
     4
 10
111.131424
 20
-85.775795
 11
111.131424
 21
-97.275795
  0
LINE
  8
0
 62
     4
 10
89.131424
 20
-95.275795
 11
89.131424
 21
-92.675797
  0
LINE
  8
0
 62
     4
 10
93.831421
 20
-95.655800
 11
93.831421
 21
-97.275795
  0
LINE
  8
0
  6
CENTER
 62
     1
 10
91.131424
 20
-91.945793
 11
91.131424
 21
-97.845795
  0
LINE
  8
0
 62
     4
 10
105.231422
 20
-85.775795
 11
105.231422
 21
-92.675797
  0
LINE
  8
0
 62
     4
 10
89.131424
 20
-94.475800
 11
93.401421
 21
-94.475800
  0
LINE
  8
0
 62
     4
 10
89.131424
 20
-95.275795
 11
93.131424
 21
-95.275795
  0
LINE
  8
0
 62
     4
 10
93.131424
 20
-94.475800
 11
93.131424
 21
-95.275795
  0
LINE
  8
0
 62
     4
 10
105.231422
 20
-85.775795
 11
111.131424
 21
-85.775795
  0
LINE
  8
0
 62
     4
 10
93.331421
 20
-96.475800
 11
93.831421
 21
-96.475800
  0
LINE
  8
0
 62
     4
 10
93.331421
 20
-94.475800
 11
93.331421
 21
-96.475800
  0
LINE
  8
0
 62
     4
 10
93.401421
 20
-95.655800
 11
93.831421
 21
-95.655800
  0
LINE
  8
0
 62
     4
 10
93.401421
 20
-94.475800
 11
93.401421
 21
-95.655800
  0
LINE
  8
0
 62
     4
 10
89.131424
 20
-93.675797
 11
111.131424
 21
-93.675797
  0
LINE
  8
0
 62
     4
 10
89.131424
 20
-93.125793
 11
111.131424
 21
-93.125793
  0
LINE
  8
0
 62
     4
 10
105.231422
 20
-91.525795
 11
111.131424
 21
-91.525795
  0
LINE
  8
0
 62
     4
 10
105.231422
 20
-92.275795
 11
111.131424
 21
-92.275795
  0
LINE
  8
0
 62
     4
 10
105.231422
 20
-87.275795
 11
111.131424
 21
-87.275795
  0
LINE
  8
0
 62
     4
 10
107.231422
 20
-77.275795
 11
109.831421
 21
-77.275795
  0
LINE
  8
0
  6
CENTER
 62
     1
 10
108.081421
 20
-79.005798
 11
108.081421
 21
-67.075798
  0
LINE
  8
0
  6
CENTER
 62
     1
 10
108.981422
 20
-78.955795
 11
108.981422
 21
-67.025795
  0
LINE
  8
0
 62
     4
 10
107.831421
 20
-67.275795
 11
108.331421
 21
-67.275795
  0
LINE
  8
0
 62
     4
 10
108.731422
 20
-67.275795
 11
109.231422
 21
-67.275795
  0
LINE
  8
0
 62
     4
 10
107.631424
 20
-70.275795
 11
109.431427
 21
-70.275795
  0
LINE
  8
0
 62
     4
 10
109.431427
 20
-77.275795
 11
109.431427
 21
-73.275795
  0
LINE
  8
0
 62
     4
 10
108.531425
 20
-77.275795
 11
108.531425
 21
-73.795799
  0
LINE
  8
0
 62
     4
 10
108.531425
 20
-72.295799
 11
108.531425
 21
-70.275795
  0
LINE
  8
0
 62
     4
 10
109.431427
 20
-71.775795
 11
109.431427
 21
-70.275795
  0
LINE
  8
0
 62
     4
 10
107.631424
 20
-77.275795
 11
107.631424
 21
-74.315796
  0
LINE
  8
0
 62
     4
 10
107.631424
 20
-72.815796
 11
107.631424
 21
-70.275795
  0
LINE
  8
0
 62
     4
 10
107.831421
 20
-70.275795
 11
107.831421
 21
-67.275795
  0
LINE
  8
0
 62
     4
 10
108.331421
 20
-70.275795
 11
108.331421
 21
-67.275795
  0
LINE
  8
0
 62
     4
 10
108.731422
 20
-70.275795
 11
108.731422
 21
-67.275795
  0
LINE
  8
0
 62
     4
 10
109.231422
 20
-70.275795
 11
109.231422
 21
-67.275795
  0
LINE
  8
0
 62
     1
 10
106.371422
 20
-73.545799
 11
110.701424
 21
-71.045799
  0
LINE
  8
0
  6
CENTER
 62
     1
 10
108.531425
 20
-87.095795
 11
108.531425
 21
-77.275795
  0
LINE
  8
0
 62
     1
 10
106.371422
 20
-75.045799
 11
110.701424
 21
-72.545799
  0
LINE
  8
0
 62
     1
 10
106.371422
 20
-82.525795
 11
110.701424
 21
-80.025795
  0
LINE
  8
0
 62
     1
 10
106.371422
 20
-84.025795
 11
110.701424
 21
-81.525795
  0
LINE
  8
0
 62
     4
 10
90.101425
 20
-96.675797
 11
92.151421
 21
-96.675797
  0
LINE
  8
0
 62
     4
 10
92.151421
 20
-96.675797
 11
92.381424
 21
-96.445793
  0
LINE
  8
0
 62
     4
 10
90.101433
 20
-96.675804
 11
89.881424
 21
-96.445793
  0
LINE
  8
0
 62
     4
 10
89.881424
 20
-95.275795
 11
89.881424
 21
-96.445793
  0
LINE
  8
0
 62
     1
 10
90.101425
 20
-95.275795
 11
90.101425
 21
-96.675797
  0
LINE
  8
0
 62
     1
 10
92.151421
 20
-95.275795
 11
92.151421
 21
-96.675797
  0
LINE
  8
0
 62
     4
 10
92.381424
 20
-95.275795
 11
92.381424
 21
-96.445793
  0
LINE
  8
0
 62
     4
 10
89.881424
 20
-96.445793
 11
92.381424
 21
-96.445793
  0
LINE
  8
0
 62
     4
 10
89.881424
 20
-92.175797
 11
89.881424
 21
-92.675797
  0
LINE
  8
0
 62
     1
 10
90.101425
 20
-92.175797
 11
90.101425
 21
-92.675797
  0
LINE
  8
0
 62
     1
 10
92.151421
 20
-92.175797
 11
92.151421
 21
-92.675797
  0
LINE
  8
0
 62
     4
 10
92.381424
 20
-92.175797
 11
92.381424
 21
-92.675797
  0
LINE
  8
0
 62
     4
 10
89.881424
 20
-92.175797
 11
92.381424
 21
-92.175797
  0
LINE
  8
0
 62
     4
 10
109.831421
 20
-85.775795
 11
109.831421
 21
-82.025795
  0
LINE
  8
0
 62
     4
 10
107.231422
 20
-85.775795
 11
107.231422
 21
-83.525795
  0
LINE
  8
0
 62
     4
 10
107.231422
 20
-82.025795
 11
107.231422
 21
-77.275795
  0
LINE
  8
0
 62
     4
 10
109.831421
 20
-80.525795
 11
109.831421
 21
-77.275795
  0
LINE
  8
0
 62
     4
 10
43.838699
 20
-87.275795
 11
48.338699
 21
-87.275795
  0
LINE
  8
0
 62
     4
 10
43.838699
 20
-85.775795
 11
43.838699
 21
-91.525795
  0
LINE
  8
0
 62
     4
 10
44.588696
 20
-92.275787
 11
43.838703
 21
-91.525795
  0
LINE
  8
0
 62
     4
 10
44.588699
 20
-93.125793
 11
44.588699
 21
-92.275795
  0
LINE
  8
0
 62
     4
 10
44.038696
 20
-93.675797
 11
44.588696
 21
-93.125793
  0
LINE
  8
0
 62
     4
 10
44.038700
 20
-93.675797
 11
44.038700
 21
-95.225800
  0
LINE
  8
0
 62
     4
 10
48.138699
 20
-93.675797
 11
48.138699
 21
-95.225800
  0
LINE
  8
0
 62
     4
 10
48.138699
 20
-93.675789
 11
47.588699
 21
-93.125786
  0
LINE
  8
0
 62
     4
 10
47.588699
 20
-93.125793
 11
47.588699
 21
-92.275795
  0
LINE
  8
0
 62
     4
 10
47.588699
 20
-92.275795
 11
48.338699
 21
-91.525795
  0
LINE
  8
0
 62
     4
 10
48.338699
 20
-85.775795
 11
48.338699
 21
-91.525795
  0
LINE
  8
0
  6
CENTER
 62
     1
 10
46.088699
 20
-80.115799
 11
46.088699
 21
-98.735794
  0
LINE
  8
0
 62
     4
 10
44.588699
 20
-92.675797
 11
47.588699
 21
-92.675797
  0
LINE
  8
0
 62
     4
 10
44.038700
 20
-94.475800
 11
48.138699
 21
-94.475800
  0
LINE
  8
0
 62
     4
 10
44.038700
 20
-95.275795
 11
48.138699
 21
-95.275795
  0
LINE
  8
0
 62
     4
 10
43.838699
 20
-85.775795
 11
48.338699
 21
-85.775795
  0
LINE
  8
0
 62
     1
 10
43.928699
 20
-84.025787
 11
48.248699
 21
-81.525787
  0
LINE
  8
0
 62
     4
 10
45.068699
 20
-96.675797
 11
47.108700
 21
-96.675797
  0
LINE
  8
0
 62
     4
 10
47.108704
 20
-96.675797
 11
47.338699
 21
-96.445793
  0
LINE
  8
0
 62
     4
 10
45.068699
 20
-96.675804
 11
44.838699
 21
-96.445801
  0
LINE
  8
0
 62
     4
 10
44.838699
 20
-95.275795
 11
44.838699
 21
-96.445793
  0
LINE
  8
0
 62
     1
 10
45.068699
 20
-95.275795
 11
45.068699
 21
-96.675797
  0
LINE
  8
0
 62
     1
 10
47.108700
 20
-95.275795
 11
47.108700
 21
-96.675797
  0
LINE
  8
0
 62
     4
 10
47.338699
 20
-95.275795
 11
47.338699
 21
-96.445793
  0
LINE
  8
0
 62
     4
 10
44.838699
 20
-96.445793
 11
47.338699
 21
-96.445793
  0
LINE
  8
0
 62
     4
 10
44.838699
 20
-92.175797
 11
44.838699
 21
-92.675797
  0
LINE
  8
0
 62
     1
 10
45.068699
 20
-92.175797
 11
45.068699
 21
-92.675797
  0
LINE
  8
0
 62
     1
 10
47.108700
 20
-92.175797
 11
47.108700
 21
-92.675797
  0
LINE
  8
0
 62
     4
 10
47.338699
 20
-92.175797
 11
47.338699
 21
-92.675797
  0
LINE
  8
0
 62
     4
 10
44.838699
 20
-92.175797
 11
47.338699
 21
-92.175797
  0
LINE
  8
0
 62
     4
 10
44.788700
 20
-83.525795
 11
44.788700
 21
-85.775795
  0
LINE
  8
0
 62
     4
 10
47.388699
 20
-82.025795
 11
47.388699
 21
-85.775795
  0
LINE
  8
0
  6
CENTER
 62
     1
 10
87.811424
 20
-45.075775
 11
112.711426
 21
-45.075775
  0
LINE
  8
0
 62
     4
 10
89.131424
 20
-46.575775
 11
105.691422
 21
-46.575775
  0
LINE
  8
0
 62
     4
 10
89.131424
 20
-43.575775
 11
105.691422
 21
-43.575775
  0
LINE
  8
0
 62
     4
 10
89.131424
 20
-47.125774
 11
106.041428
 21
-47.125774
  0
LINE
  8
0
 62
     4
 10
89.131424
 20
-43.025776
 11
106.041428
 21
-43.025776
  0
LINE
  8
0
 62
     4
 10
89.131424
 20
-43.025776
 11
89.131424
 21
-47.125774
  0
LINE
  8
0
  6
CENTER
 62
     1
 10
91.131424
 20
-42.245773
 11
91.131424
 21
-47.825775
  0
LINE
  8
0
 62
     4
 10
106.211426
 20
-42.825775
 11
111.131424
 21
-42.825775
  0
LINE
  8
0
 62
     4
 10
106.211426
 20
-47.325775
 11
111.131424
 21
-47.325775
  0
LINE
  8
0
 62
     4
 10
111.131424
 20
-42.825775
 11
111.131424
 21
-47.325775
  0
LINE
  8
0
 62
     4
 10
90.481422
 20
-46.145775
 11
92.201424
 21
-44.435776
  0
LINE
  8
0
 62
     4
 10
90.061424
 20
-45.715775
 11
91.771423
 21
-44.005775
  0
LINE
  8
0
 62
     1
 10
200.186279
 20
117.635002
 11
203.186279
 21
111.001747
  0
LINE
  8
0
 62
     1
 10
203.186295
 20
117.635010
 11
200.186295
 21
111.001755
  0
LINE
  8
0
 62
     4
 10
200.186279
 20
117.635002
 11
203.186279
 21
117.635002
  0
LINE
  8
0
 62
     4
 10
200.186279
 20
111.001747
 11
203.186279
 21
111.001747
  0
LINE
  8
0
 62
     4
 10
203.186279
 20
117.635002
 11
203.186279
 21
111.001747
  0
LINE
  8
0
 62
     4
 10
201.926285
 20
108.318375
 11
201.926285
 21
111.008377
  0
LINE
  8
0
 62
     4
 10
201.926285
 20
120.318375
 11
201.926285
 21
117.638374
  0
LINE
  8
0
 62
     4
 10
200.186279
 20
109.318375
 11
201.926285
 21
108.318375
  0
LINE
  8
0
 62
     4
 10
200.186279
 20
119.318375
 11
201.926285
 21
120.318375
  0
LINE
  8
0
 62
     4
 10
200.186279
 20
119.318375
 11
200.186279
 21
109.318375
  0
LINE
  8
0
 62
     4
 10
201.926285
 20
108.318375
 11
204.186279
 21
108.318375
  0
LINE
  8
0
 62
     4
 10
201.926285
 20
120.318375
 11
204.186279
 21
120.318375
  0
LINE
  8
0
 62
     4
 10
204.186279
 20
121.818375
 11
204.186279
 21
106.818375
  0
LINE
  8
0
 62
     4
 10
204.186279
 20
121.818375
 11
206.186279
 21
121.818375
  0
LINE
  8
0
 62
     4
 10
204.186279
 20
106.818375
 11
206.186279
 21
106.818375
  0
LINE
  8
0
 62
     4
 10
130.234314
 20
120.318375
 11
134.494308
 21
120.318375
  0
LINE
  8
0
 62
     4
 10
128.494308
 20
119.318375
 11
128.494308
 21
109.318375
  0
LINE
  8
0
 62
     4
 10
130.234314
 20
108.318375
 11
134.494308
 21
108.318375
  0
LINE
  8
0
 62
     4
 10
128.494308
 20
117.638374
 11
131.494308
 21
117.638374
  0
LINE
  8
0
 62
     4
 10
128.494308
 20
110.998375
 11
131.494308
 21
110.998375
  0
LINE
  8
0
 62
     4
 10
111.119308
 20
119.318375
 11
114.994308
 21
119.318375
  0
LINE
  8
0
 62
     4
 10
111.119308
 20
109.318375
 11
114.994308
 21
109.318375
  0
LINE
  8
0
 62
     4
 10
110.494308
 20
118.693375
 11
110.494308
 21
109.943375
  0
LINE
  8
0
 62
     4
 10
125.494308
 20
119.318375
 11
125.494308
 21
109.318375
  0
LINE
  8
0
 62
     4
 10
115.624306
 20
122.398376
 11
120.374306
 21
122.398376
  0
LINE
  8
0
 62
     4
 10
115.624306
 20
118.358376
 11
120.374306
 21
118.358376
  0
LINE
  8
0
 62
     4
 10
114.994308
 20
121.318375
 11
114.994308
 21
107.318375
  0
LINE
  8
0
 62
     4
 10
120.994308
 20
121.318375
 11
120.994308
 21
107.318375
  0
LINE
  8
0
 62
     4
 10
114.994308
 20
121.318367
 11
115.624306
 21
122.398369
  0
LINE
  8
0
 62
     4
 10
120.374313
 20
122.398376
 11
120.994316
 21
121.318375
  0
LINE
  8
0
 62
     4
 10
120.994308
 20
119.318375
 11
128.494308
 21
119.318375
  0
LINE
  8
0
 62
     4
 10
114.994308
 20
107.318375
 11
115.624306
 21
106.238380
  0
LINE
  8
0
 62
     4
 10
115.624306
 20
106.238373
 11
120.374306
 21
106.238373
  0
LINE
  8
0
 62
     4
 10
115.624306
 20
110.278374
 11
120.374306
 21
110.278374
  0
LINE
  8
0
 62
     4
 10
120.374306
 20
106.238373
 11
120.994308
 21
107.318375
  0
LINE
  8
0
 62
     4
 10
120.994308
 20
109.318375
 11
128.494308
 21
109.318375
  0
LINE
  8
0
 62
     4
 10
128.494324
 20
119.318382
 11
130.234314
 21
120.318375
  0
LINE
  8
0
 62
     4
 10
128.494308
 20
109.318375
 11
130.234314
 21
108.318375
  0
LINE
  8
0
 62
     4
 10
130.234314
 20
120.318375
 11
130.234314
 21
117.638374
  0
LINE
  8
0
 62
     4
 10
130.234314
 20
110.998375
 11
130.234314
 21
108.318375
  0
LINE
  8
0
 62
     1
 10
110.494308
 20
118.693375
 11
114.994308
 21
118.693375
  0
LINE
  8
0
 62
     1
 10
120.994308
 20
118.693375
 11
125.494308
 21
118.693375
  0
LINE
  8
0
 62
     1
 10
125.494316
 20
118.693382
 11
126.580246
 21
119.318375
  0
LINE
  8
0
 62
     4
 10
110.494308
 20
118.693375
 11
111.119308
 21
119.318367
  0
LINE
  8
0
 62
     4
 10
111.119308
 20
119.318375
 11
111.119308
 21
109.318375
  0
LINE
  8
0
 62
     1
 10
120.994308
 20
109.943375
 11
125.494308
 21
109.943375
  0
LINE
  8
0
 62
     1
 10
125.494316
 20
109.943382
 11
126.580246
 21
109.318382
  0
LINE
  8
0
 62
     1
 10
110.494308
 20
109.943375
 11
114.994308
 21
109.943375
  0
LINE
  8
0
 62
     4
 10
110.494308
 20
109.943375
 11
111.119308
 21
109.318375
  0
LINE
  8
0
 62
     4
 10
131.494308
 20
117.638374
 11
131.494308
 21
110.998375
  0
LINE
  8
0
 62
     1
 10
131.494308
 20
117.638374
 11
128.494308
 21
110.998367
  0
LINE
  8
0
 62
     1
 10
128.494308
 20
117.638374
 11
131.494308
 21
110.998375
  0
LINE
  8
0
 10
5.236591
 20
146.429687
 11
5.236591
 21
106.429687
  0
LINE
  8
0
 10
-20.763409
 20
121.929687
 11
5.236591
 21
121.929687
  0
LINE
  8
0
  6
CENTER
 62
     2
 10
-45.883408
 20
126.429687
 11
8.856560
 21
126.429687
  0
LINE
  8
0
 10
-35.763409
 20
146.429687
 11
5.236591
 21
146.429687
  0
LINE
  8
0
 10
-24.263409
 20
111.429687
 11
5.236591
 21
111.429687
  0
LINE
  8
0
 10
-35.763409
 20
106.429687
 11
5.236591
 21
106.429687
  0
LINE
  8
0
 62
     4
 10
-37.763409
 20
120.429687
 11
-35.763409
 21
120.429687
  0
LINE
  8
0
 62
     4
 10
-37.763409
 20
132.429687
 11
-35.763409
 21
132.429687
  0
LINE
  8
0
 62
     4
 10
-41.763409
 20
131.429687
 11
-41.763409
 21
121.429687
  0
LINE
  8
0
 62
     4
 10
-40.023407
 20
121.429687
 11
-40.023407
 21
131.429687
  0
LINE
  8
0
 10
-35.763409
 20
146.429687
 11
-35.763409
 21
106.429687
  0
LINE
  8
0
 10
-35.763409
 20
116.929687
 11
-24.263409
 21
116.929687
  0
LINE
  8
0
 10
-24.263409
 20
106.429687
 11
-24.263409
 21
116.929687
  0
LINE
  8
0
  6
CENTER
 62
     2
 10
-33.563408
 20
112.429687
 11
-17.803410
 21
112.429687
  0
LINE
  8
0
 10
-29.763409
 20
107.429687
 11
-24.263409
 21
107.429687
  0
LINE
  8
0
 10
-30.263409
 20
107.929687
 11
-30.263409
 21
116.929687
  0
LINE
  8
0
 10
-29.763409
 20
107.429687
 11
-30.263409
 21
107.929687
  0
LINE
  8
0
 10
-29.763409
 20
107.429687
 11
-29.763409
 21
116.929687
  0
LINE
  8
0
 10
-20.763409
 20
146.429687
 11
-20.763409
 21
106.429687
  0
LINE
  8
0
 10
-20.763409
 20
134.129684
 11
5.236591
 21
134.129684
  0
LINE
  8
0
 10
-20.763409
 20
130.929687
 11
5.236591
 21
130.929687
  0
LINE
  8
0
 10
-20.763409
 20
121.929687
 11
5.236591
 21
121.929687
  0
LINE
  8
0
 10
-20.763409
 20
118.729691
 11
5.236591
 21
118.729691
  0
LINE
  8
0
 10
-35.763409
 20
141.429687
 11
5.236591
 21
141.429687
  0
LINE
  8
0
 62
     4
 10
-41.763409
 20
131.429687
 11
-38.763409
 21
131.429687
  0
LINE
  8
0
 62
     4
 10
-41.763409
 20
121.429687
 11
-38.763409
 21
121.429687
  0
LINE
  8
0
 62
     4
 10
-38.763409
 20
131.429687
 11
-37.763409
 21
132.429687
  0
LINE
  8
0
 62
     4
 10
-38.763409
 20
121.429687
 11
-37.763409
 21
120.429687
  0
LINE
  8
0
  6
CENTER
 62
     3
 10
-4.759583
 20
74.481186
 11
-4.759583
 21
151.968124
  0
LINE
  8
0
  6
CENTER
 62
     2
 10
120.580017
 20
17.429686
 11
130.330017
 21
17.429686
  0
LINE
  8
0
  6
CENTER
 62
     2
 10
125.500015
 20
22.688862
 11
125.500015
 21
12.479685
  0
LINE
  8
0
  6
CENTER
 62
     2
 10
92.580017
 20
17.429686
 11
102.330017
 21
17.429686
  0
LINE
  8
0
  6
CENTER
 62
     2
 10
97.500015
 20
22.688862
 11
97.500015
 21
12.479685
  0
LINE
  8
0
  6
CENTER
 62
     2
 10
92.580017
 20
45.429687
 11
102.330017
 21
45.429687
  0
LINE
  8
0
  6
CENTER
 62
     2
 10
97.500015
 20
50.688862
 11
97.500015
 21
40.479687
  0
LINE
  8
0
  6
CENTER
 62
     2
 10
125.500015
 20
50.688862
 11
125.500015
 21
40.479687
  0
LINE
  8
0
  6
CENTER
 62
     2
 10
120.580017
 20
45.429687
 11
130.330017
 21
45.429687
  0
LINE
  8
0
 10
91.500015
 20
46.429687
 11
91.500015
 21
16.429686
  0
LINE
  8
0
 10
96.500015
 20
11.429686
 11
126.500015
 21
11.429686
  0
LINE
  8
0
 10
130.500015
 20
23.229687
 11
131.000015
 21
23.729687
  0
LINE
  8
0
 10
130.500015
 20
27.429686
 11
131.000015
 21
26.929686
  0
LINE
  8
0
 10
130.500015
 20
27.429686
 11
128.900009
 21
27.429686
  0
LINE
  8
0
 10
130.500015
 20
23.229687
 11
128.900009
 21
23.229687
  0
LINE
  8
0
 10
131.500015
 20
26.929686
 11
131.000015
 21
26.929686
  0
LINE
  8
0
 10
131.500015
 20
23.729687
 11
131.000015
 21
23.729687
  0
LINE
  8
0
 10
115.500015
 20
12.429691
 11
116.000023
 21
11.929691
  0
LINE
  8
0
 10
119.700012
 20
12.429682
 11
119.200012
 21
11.929687
  0
LINE
  8
0
 10
119.700012
 20
12.429686
 11
119.700012
 21
14.029686
  0
LINE
  8
0
 10
115.500015
 20
12.429686
 11
115.500015
 21
14.029686
  0
LINE
  8
0
 10
119.200012
 20
11.429686
 11
119.200012
 21
11.929686
  0
LINE
  8
0
 10
116.000015
 20
11.429686
 11
116.000015
 21
11.929686
  0
LINE
  8
0
 10
103.300018
 20
12.429687
 11
103.800018
 21
11.929687
  0
LINE
  8
0
 10
107.500015
 20
12.429686
 11
107.000015
 21
11.929686
  0
LINE
  8
0
 10
107.500015
 20
12.429686
 11
107.500015
 21
14.029686
  0
LINE
  8
0
 10
103.300018
 20
12.429686
 11
103.300018
 21
14.029686
  0
LINE
  8
0
 10
107.000015
 20
11.429686
 11
107.000015
 21
11.929686
  0
LINE
  8
0
 10
103.800018
 20
11.429686
 11
103.800018
 21
11.929686
  0
LINE
  8
0
 10
92.500015
 20
27.429686
 11
92.000015
 21
26.929686
  0
LINE
  8
0
 10
92.500015
 20
23.229681
 11
92.000008
 21
23.729681
  0
LINE
  8
0
 10
92.500015
 20
23.229687
 11
94.100014
 21
23.229687
  0
LINE
  8
0
 10
92.500015
 20
27.429686
 11
94.100014
 21
27.429686
  0
LINE
  8
0
 10
91.500015
 20
23.729687
 11
92.000015
 21
23.729687
  0
LINE
  8
0
 10
91.500015
 20
26.929686
 11
92.000015
 21
26.929686
  0
LINE
  8
0
 10
92.500015
 20
39.629688
 11
92.000015
 21
39.129688
  0
LINE
  8
0
 10
92.500015
 20
35.429687
 11
92.000015
 21
35.929684
  0
LINE
  8
0
 10
92.500015
 20
35.429687
 11
94.100014
 21
35.429687
  0
LINE
  8
0
 10
92.500015
 20
39.629684
 11
94.100014
 21
39.629684
  0
LINE
  8
0
 10
91.500015
 20
35.929687
 11
92.000015
 21
35.929687
  0
LINE
  8
0
 10
91.500015
 20
39.129684
 11
92.000015
 21
39.129684
  0
LINE
  8
0
 10
119.700012
 20
50.429687
 11
119.200012
 21
50.929687
  0
LINE
  8
0
 10
115.500015
 20
50.429687
 11
116.000015
 21
50.929687
  0
LINE
  8
0
 10
115.500015
 20
50.429687
 11
115.500015
 21
48.829685
  0
LINE
  8
0
 10
119.700012
 20
50.429687
 11
119.700012
 21
48.829685
  0
LINE
  8
0
 10
116.000015
 20
51.429687
 11
116.000015
 21
50.929687
  0
LINE
  8
0
 10
119.200012
 20
51.429687
 11
119.200012
 21
50.929687
  0
LINE
  8
0
 10
107.500015
 20
50.429687
 11
107.000015
 21
50.929684
  0
LINE
  8
0
 10
103.300011
 20
50.429687
 11
103.800018
 21
50.929687
  0
LINE
  8
0
 10
103.300018
 20
50.429687
 11
103.300018
 21
48.829685
  0
LINE
  8
0
 10
107.500015
 20
50.429687
 11
107.500015
 21
48.829685
  0
LINE
  8
0
 10
103.800018
 20
51.429687
 11
103.800018
 21
50.929687
  0
LINE
  8
0
 10
107.000015
 20
51.429687
 11
107.000015
 21
50.929687
  0
LINE
  8
0
 10
96.500015
 20
51.429687
 11
126.500015
 21
51.429687
  0
LINE
  8
0
 10
131.500015
 20
46.429687
 11
131.500015
 21
16.429686
  0
LINE
  8
0
  6
CENTER
 62
     2
 10
111.500015
 20
53.779686
 11
111.500015
 21
9.829685
  0
LINE
  8
0
  6
CENTER
 62
     2
 10
90.140015
 20
31.429686
 11
133.070007
 21
31.429686
  0
LINE
  8
0
 10
130.500015
 20
35.429691
 11
131.000015
 21
35.929684
  0
LINE
  8
0
 10
130.500015
 20
39.629684
 11
131.000015
 21
39.129684
  0
LINE
  8
0
 10
130.500015
 20
39.629684
 11
128.900009
 21
39.629684
  0
LINE
  8
0
 10
130.500015
 20
35.429687
 11
128.900009
 21
35.429687
  0
LINE
  8
0
 10
131.500015
 20
39.129684
 11
131.000015
 21
39.129684
  0
LINE
  8
0
 10
131.500015
 20
35.929687
 11
131.000015
 21
35.929687
  0
LINE
  8
0
  6
CENTER
 62
     2
 10
-129.763397
 20
50.429687
 11
-129.763397
 21
40.429687
  0
LINE
  8
0
  6
CENTER
 62
     2
 10
-124.763405
 20
45.429687
 11
-134.763397
 21
45.429687
  0
LINE
  8
0
  6
CENTER
 62
     2
 10
-101.763405
 20
22.429686
 11
-101.763405
 21
12.429686
  0
LINE
  8
0
  6
CENTER
 62
     2
 10
-96.763405
 20
17.429686
 11
-106.763405
 21
17.429686
  0
LINE
  8
0
 62
     4
 10
-120.763405
 20
34.746311
 11
-120.763405
 21
28.113060
  0
LINE
  8
0
 62
     4
 10
-110.763405
 20
34.746311
 11
-110.763405
 21
28.113060
  0
LINE
  8
0
 10
-132.263397
 20
18.879684
 11
-132.263397
 21
15.989686
  0
LINE
  8
0
 10
-132.263412
 20
15.989685
 11
-129.763412
 21
14.549685
  0
LINE
  8
0
 10
-129.763412
 20
14.549687
 11
-127.263405
 21
15.989687
  0
LINE
  8
0
 10
-127.263405
 20
18.879684
 11
-127.263405
 21
15.989686
  0
LINE
  8
0
 10
-129.763412
 20
20.319683
 11
-127.263405
 21
18.879684
  0
LINE
  8
0
 10
-132.263397
 20
18.879686
 11
-129.763412
 21
20.319683
  0
LINE
  8
0
 10
-104.263405
 20
43.989685
 11
-101.763405
 21
42.549686
  0
LINE
  8
0
 10
-101.763405
 20
48.319687
 11
-99.263405
 21
46.879681
  0
LINE
  8
0
 10
-101.763405
 20
42.549683
 11
-99.263405
 21
43.989681
  0
LINE
  8
0
 10
-104.263405
 20
46.879684
 11
-101.763405
 21
48.319687
  0
LINE
  8
0
 10
-99.263405
 20
46.879684
 11
-99.263405
 21
43.989685
  0
LINE
  8
0
 10
-104.263405
 20
46.879684
 11
-104.263405
 21
43.989685
  0
LINE
  8
0
  6
CENTER
 62
     2
 10
-129.763397
 20
26.249685
 11
-129.763397
 21
10.839685
  0
LINE
  8
0
  6
CENTER
 62
     2
 10
-101.763405
 20
53.859688
 11
-101.763405
 21
36.699684
  0
LINE
  8
0
  6
CENTER
 62
     2
 10
-136.753403
 20
17.429686
 11
-121.423401
 21
17.429686
  0
LINE
  8
0
  6
CENTER
 62
     2
 10
-110.543404
 20
45.429687
 11
-93.333405
 21
45.429687
  0
LINE
  8
0
 10
-135.763397
 20
46.429687
 11
-135.763397
 21
16.429686
  0
LINE
  8
0
 10
-130.763397
 20
11.429686
 11
-100.763405
 21
11.429686
  0
LINE
  8
0
 10
-130.763397
 20
51.429687
 11
-100.763405
 21
51.429687
  0
LINE
  8
0
 10
-95.763405
 20
46.429687
 11
-95.763405
 21
16.429686
  0
LINE
  8
0
  6
CENTER
 62
     2
 10
-115.763405
 20
53.359688
 11
-115.763405
 21
9.589685
  0
LINE
  8
0
  6
CENTER
 62
     2
 10
-138.043411
 20
31.429686
 11
-94.763405
 21
31.429686
  0
LINE
  8
0
 62
     1
 10
-41.763409
 20
34.746311
 11
-38.763409
 21
28.113062
  0
LINE
  8
0
 62
     1
 10
-38.763409
 20
34.746311
 11
-41.763409
 21
28.113062
  0
LINE
  8
0
 62
     4
 10
-41.763409
 20
34.746311
 11
-38.763409
 21
34.746311
  0
LINE
  8
0
 62
     4
 10
-41.763409
 20
28.113060
 11
-38.763409
 21
28.113060
  0
LINE
  8
0
  6
DASHED
 62
     2
 10
-28.263409
 20
15.689686
 11
-28.263409
 21
11.429686
  0
LINE
  8
0
  6
DASHED
 62
     2
 10
-23.263409
 20
15.529686
 11
-23.263409
 21
11.429686
  0
LINE
  8
0
  6
CENTER
 62
     2
 10
-25.763409
 20
19.329685
 11
-25.763409
 21
10.569685
  0
LINE
  8
0
 62
     4
 10
-38.763409
 20
34.746311
 11
-38.763409
 21
28.113060
  0
LINE
  8
0
 10
-20.763409
 20
35.929687
 11
5.236591
 21
35.929687
  0
LINE
  8
0
 10
-20.763409
 20
39.129684
 11
5.236591
 21
39.129684
  0
LINE
  8
0
 10
-20.763409
 20
51.429687
 11
-20.763409
 21
11.429686
  0
LINE
  8
0
 10
-29.763409
 20
50.429687
 11
-29.763409
 21
40.929687
  0
LINE
  8
0
 10
-29.763405
 20
50.429687
 11
-30.263405
 21
49.929684
  0
LINE
  8
0
 10
-30.263409
 20
49.929687
 11
-30.263409
 21
40.929687
  0
LINE
  8
0
 10
-29.763409
 20
50.429687
 11
-24.263409
 21
50.429687
  0
LINE
  8
0
  6
CENTER
 62
     2
 10
-33.563408
 20
45.429687
 11
-17.803410
 21
45.429687
  0
LINE
  8
0
 10
-24.263409
 20
51.429687
 11
-24.263409
 21
40.929687
  0
LINE
  8
0
 10
-35.763409
 20
40.929687
 11
-24.263409
 21
40.929687
  0
LINE
  8
0
 10
-35.763409
 20
51.429687
 11
-35.763409
 21
11.429686
  0
LINE
  8
0
 62
     4
 10
-40.023407
 20
25.429686
 11
-40.023407
 21
28.119686
  0
LINE
  8
0
 62
     4
 10
-40.023407
 20
37.429687
 11
-40.023407
 21
34.749687
  0
LINE
  8
0
 62
     4
 10
-41.763412
 20
26.429686
 11
-40.023411
 21
25.429686
  0
LINE
  8
0
 62
     4
 10
-41.763409
 20
36.429684
 11
-40.023407
 21
37.429684
  0
LINE
  8
0
 62
     4
 10
-41.763409
 20
36.429687
 11
-41.763409
 21
26.429686
  0
LINE
  8
0
 62
     4
 10
-40.023407
 20
37.429687
 11
-35.763409
 21
37.429687
  0
LINE
  8
0
 62
     4
 10
-40.023407
 20
25.429686
 11
-35.763409
 21
25.429686
  0
LINE
  8
0
  6
DASHED
 10
-35.763409
 20
21.429686
 11
-15.263409
 21
21.429686
  0
LINE
  8
0
  6
DASHED
 10
-35.763409
 20
13.429686
 11
-15.263409
 21
13.429686
  0
LINE
  8
0
 10
-35.763409
 20
11.429686
 11
5.236591
 21
11.429686
  0
LINE
  8
0
 10
-24.263409
 20
46.429687
 11
5.236591
 21
46.429687
  0
LINE
  8
0
 10
-35.763409
 20
51.429687
 11
5.236591
 21
51.429687
  0
LINE
  8
0
  6
CENTER
 62
     2
 10
-38.326260
 20
17.429686
 11
7.594109
 21
17.429686
  0
LINE
  8
0
  6
CENTER
 62
     2
 10
-45.883408
 20
31.429686
 11
7.594109
 21
31.429686
  0
LINE
  8
0
  6
DASHED
 10
-0.263409
 20
13.429686
 11
5.236591
 21
13.429686
  0
LINE
  8
0
  6
DASHED
 62
     2
 10
-6.263409
 20
14.429686
 11
-0.263409
 21
14.429686
  0
LINE
  8
0
  6
DASHED
 62
     2
 10
-6.263409
 20
20.429686
 11
-0.263409
 21
20.429686
  0
LINE
  8
0
  6
DASHED
 10
-0.263409
 20
21.429686
 11
5.236591
 21
21.429686
  0
LINE
  8
0
  6
DASHED
 10
-6.263409
 20
20.429686
 11
-6.263409
 21
14.429686
  0
LINE
  8
0
  6
DASHED
 10
-0.263409
 20
21.429686
 11
-0.263409
 21
13.429686
  0
LINE
  8
0
  6
DASHED
 10
-9.263409
 20
20.429686
 11
-9.263409
 21
14.429686
  0
LINE
  8
0
  6
DASHED
 10
-15.263409
 20
21.429686
 11
-15.263409
 21
13.429686
  0
LINE
  8
0
  6
DASHED
 10
-9.263409
 20
19.979687
 11
-6.263409
 21
19.979687
  0
LINE
  8
0
  6
DASHED
 10
-9.263409
 20
14.879686
 11
-6.263409
 21
14.879686
  0
LINE
  8
0
  6
DASHED
 62
     2
 10
-15.263409
 20
20.429686
 11
-9.263409
 21
20.429686
  0
LINE
  8
0
  6
DASHED
 62
     2
 10
-15.263409
 20
14.429686
 11
-9.263409
 21
14.429686
  0
LINE
  8
0
 10
-20.763409
 20
26.929686
 11
5.236591
 21
26.929686
  0
LINE
  8
0
  6
CENTER
 62
     2
 10
-10.263409
 20
35.643543
 11
-10.263409
 21
26.819685
  0
LINE
  8
0
  6
CENTER
 62
     2
 10
0.236591
 20
35.375664
 11
0.236591
 21
27.009686
  0
LINE
  8
0
 10
5.236591
 20
51.429687
 11
5.236591
 21
11.429686
  0
LINE
  8
0
 10
5.236591
 20
16.429686
 11
-35.763409
 21
16.429686
  0
LINE
  8
0
  6
DASHED
 10
-15.263409
 20
19.888186
 11
-9.263409
 21
19.888186
  0
LINE
  8
0
  6
DASHED
 10
-15.263409
 20
14.971186
 11
-9.263409
 21
14.971186
  0
LINE
  8
0
  6
DASHED
 10
-6.263409
 20
19.888186
 11
-0.263409
 21
19.888186
  0
LINE
  8
0
  6
DASHED
 10
-6.263409
 20
14.971186
 11
-0.263409
 21
14.971186
  0
LINE
  8
0
  6
DASHED
 10
-23.696409
 20
16.039684
 11
-23.696409
 21
11.429686
  0
LINE
  8
0
  6
DASHED
 10
-27.830408
 20
16.039684
 11
-27.830408
 21
11.429686
  0
LINE
  8
0
  6
CENTER
 62
     3
 10
-7.387451
 20
6.790974
 11
-7.387451
 21
23.056839
  0
LINE
  8
0
  6
CENTER
 62
     3
 10
-4.759583
 20
28.936386
 11
-7.387452
 21
23.056837
  0
LINE
  8
0
  6
CENTER
 62
     3
 10
-4.759583
 20
28.936386
 11
-4.759583
 21
74.481186
  0
LINE
  8
0
  6
CENTER
 62
     2
 10
196.163834
 20
114.318375
 11
209.681366
 21
114.318375
  0
LINE
  8
0
  6
CENTER
 62
     2
 10
107.334335
 20
114.318375
 11
139.003983
 21
114.318375
  0
LINE
  8
0
 10
206.186279
 20
104.318375
 11
206.186279
 21
124.318375
  0
LINE
  8
0
 10
134.494308
 20
104.318375
 11
134.494308
 21
124.318375
  0
LINE
  8
0
 10
8.750000
 20
-137.000000
 11
8.750000
 21
-185.000000
  0
LINE
  8
0
 10
-13.250000
 20
-137.000000
 11
-13.250000
 21
-185.000000
  0
LINE
  8
0
 10
-35.250000
 20
-137.000000
 11
-35.250000
 21
-185.000000
  0
LINE
  8
0
 10
-57.250000
 20
-137.000000
 11
-57.250000
 21
-185.000000
  0
LINE
  8
0
 10
-79.250000
 20
-137.000000
 11
-79.250000
 21
-185.000000
  0
LINE
  8
0
 10
-101.250000
 20
-137.000000
 11
-101.250000
 21
-185.000000
  0
LINE
  8
0
 10
-123.250000
 20
-137.000000
 11
-123.250000
 21
-185.000000
  0
LINE
  8
0
 10
-145.250000
 20
-137.000000
 11
-145.250000
 21
-185.000000
  0
LINE
  8
0
 10
-167.250000
 20
-137.000000
 11
-167.250000
 21
-185.000000
  0
LINE
  8
0
 10
-189.250000
 20
-137.000000
 11
-189.250000
 21
-185.000000
  0
LINE
  8
0
 10
-211.250000
 20
-153.000000
 11
-271.250000
 21
-137.000000
  0
LINE
  8
0
 10
-211.250000
 20
-137.000000
 11
-211.250000
 21
-185.000000
  0
LINE
  8
0
 10
-271.250000
 20
-137.000000
 11
8.750000
 21
-137.000000
  0
LINE
  8
0
 10
-271.250000
 20
-153.000000
 11
8.750000
 21
-153.000000
  0
LINE
  8
0
 10
-271.250000
 20
-161.000000
 11
8.750000
 21
-161.000000
  0
LINE
  8
0
 10
-271.250000
 20
-169.000000
 11
8.750000
 21
-169.000000
  0
LINE
  8
0
 10
-271.250000
 20
-177.000000
 11
8.750000
 21
-177.000000
  0
LINE
  8
0
 10
-271.250000
 20
-185.000000
 11
8.750000
 21
-185.000000
  0
LINE
  8
0
 10
-271.250000
 20
-137.000000
 11
-271.250000
 21
-185.000000
  0
LINE
  8
0
 10
282.099854
 20
195.500000
 11
282.099854
 21
-195.000000
  0
LINE
  8
0
 10
-281.250000
 20
195.500000
 11
282.099854
 21
195.500000
  0
LINE
  8
0
 10
-281.250000
 20
195.500000
 11
-281.250000
 21
-195.000000
  0
LINE
  8
0
 10
-281.250000
 20
-195.000000
 11
282.099854
 21
-195.000000
  0
LINE
  8
0
 10
162.099976
 20
-175.000000
 11
162.099976
 21
-195.000000
  0
LINE
  8
0
 10
162.099976
 20
-175.000000
 11
282.099854
 21
-175.000000
  0
LINE
  8
0
 10
162.099976
 20
175.500000
 11
282.099854
 21
175.500000
  0
LINE
  8
0
 10
-281.250000
 20
175.500000
 11
-161.250000
 21
175.500000
  0
LINE
  8
0
 10
162.099976
 20
195.500000
 11
162.099976
 21
175.500000
  0
LINE
  8
0
 10
-161.250000
 20
195.500000
 11
-161.250000
 21
175.500000
  0
ARC
  8
0
 62
     4
 10
-113.222244
 20
-95.225792
 40
2.050003
 50
180.000000
 51
270.000000
  0
ARC
  8
0
 62
     4
 10
-113.222244
 20
-95.225792
 40
2.050003
 50
270.000000
 51
0.000000
  0
CIRCLE
  8
0
 62
     4
 10
-66.679504
 20
-50.125793
 40
1.250000
  0
CIRCLE
  8
0
 62
     4
 10
-66.679504
 20
-50.125793
 40
1.400000
  0
ARC
  8
0
 62
     4
 10
46.088703
 20
-95.225792
 40
2.050003
 50
180.000000
 51
269.999908
  0
ARC
  8
0
 62
     4
 10
46.093506
 20
-95.220901
 40
2.045202
 50
270.985901
 51
359.862793
  0
ARC
  8
0
 62
     4
 10
108.631424
 20
-45.075775
 40
3.304374
 50
137.084778
 51
222.915222
  0
CIRCLE
  8
0
 62
     4
 10
91.131424
 20
-45.075775
 40
1.250000
  0
CIRCLE
  8
0
 62
     4
 10
91.131424
 20
-45.075775
 40
1.400000
  0
CIRCLE
  8
0
 62
     4
 10
108.538773
 20
-45.075775
 40
1.299999
  0
CIRCLE
  8
0
 62
     4
 10
108.860580
 20
-45.416779
 40
0.450000
  0
CIRCLE
  8
0
 62
     4
 10
108.248703
 20
-44.757622
 40
0.450000
  0
CIRCLE
  8
0
 62
     4
 10
108.860580
 20
-45.416779
 40
0.250000
  0
CIRCLE
  8
0
 62
     4
 10
108.248703
 20
-44.757622
 40
0.250000
  0
ARC
  8
0
 62
     4
 10
198.186279
 20
114.318375
 40
6.000001
 50
326.442657
 51
33.557331
  0
ARC
  8
0
 62
     4
 10
126.496552
 20
114.318375
 40
5.999998
 50
326.403992
 51
33.596008
  0
CIRCLE
  8
0
 62
     2
 10
125.500015
 20
17.429686
 40
3.000000
  0
CIRCLE
  8
0
 10
125.500015
 20
17.429686
 40
2.458500
  0
CIRCLE
  8
0
 10
125.500015
 20
17.429686
 40
4.000000
  0
CIRCLE
  8
0
 62
     2
 10
97.500015
 20
17.429686
 40
3.000000
  0
CIRCLE
  8
0
 10
97.500015
 20
17.429686
 40
2.458500
  0
CIRCLE
  8
0
 10
97.500015
 20
17.429686
 40
4.000000
  0
CIRCLE
  8
0
 62
     2
 10
97.500015
 20
45.429687
 40
3.000000
  0
CIRCLE
  8
0
 10
97.500015
 20
45.429687
 40
2.458500
  0
CIRCLE
  8
0
 10
97.500015
 20
45.429687
 40
4.000000
  0
CIRCLE
  8
0
 10
125.500015
 20
45.429687
 40
4.000000
  0
CIRCLE
  8
0
 10
125.500015
 20
45.429687
 40
2.458500
  0
CIRCLE
  8
0
 62
     2
 10
125.500015
 20
45.429687
 40
3.000000
  0
ARC
  8
0
 10
128.900009
 20
25.329685
 40
2.100000
 50
90.000000
 51
270.000000
  0
ARC
  8
0
 10
117.600014
 20
14.036392
 40
2.100009
 50
359.817017
 51
180.182968
  0
ARC
  8
0
 10
105.400017
 20
14.036392
 40
2.100009
 50
359.817017
 51
180.182968
  0
ARC
  8
0
 10
94.100014
 20
25.329685
 40
2.100000
 50
270.000000
 51
90.000000
  0
ARC
  8
0
 10
94.100014
 20
37.529686
 40
2.099998
 50
270.000000
 51
90.000000
  0
ARC
  8
0
 10
117.600014
 20
48.836395
 40
2.100009
 50
180.183075
 51
359.816925
  0
ARC
  8
0
 10
105.400017
 20
48.836380
 40
2.100009
 50
180.182663
 51
359.817352
  0
ARC
  8
0
 10
128.900009
 20
37.529686
 40
2.099998
 50
90.000000
 51
270.000000
  0
CIRCLE
  8
0
 10
111.500015
 20
31.429686
 40
14.000000
  0
ARC
  8
0
 10
111.500015
 20
31.429686
 40
24.999998
 50
126.869904
 51
143.130096
  0
ARC
  8
0
 10
111.500015
 20
31.429686
 40
25.000002
 50
216.869904
 51
233.130096
  0
ARC
  8
0
 10
111.500015
 20
31.429686
 40
25.000000
 50
306.869904
 51
323.130096
  0
ARC
  8
0
 10
111.500015
 20
31.429686
 40
25.000002
 50
36.869900
 51
53.130104
  0
CIRCLE
  8
0
 62
     4
 10
-115.763405
 20
31.429686
 40
6.000000
  0
CIRCLE
  8
0
 10
-129.763397
 20
17.429686
 40
4.500000
  0
CIRCLE
  8
0
 10
-129.763397
 20
17.429686
 40
5.000000
  0
CIRCLE
  8
0
 10
-101.763405
 20
45.429687
 40
5.000000
  0
CIRCLE
  8
0
 10
-101.763405
 20
45.429687
 40
4.500000
  0
CIRCLE
  8
0
 10
-101.763405
 20
17.429686
 40
2.458500
  0
CIRCLE
  8
0
 10
-129.763397
 20
45.429687
 40
2.458500
  0
CIRCLE
  8
0
 62
     4
 10
-115.763405
 20
31.429686
 40
2.458500
  0
CIRCLE
  8
0
 62
     1
 10
-115.763405
 20
31.429686
 40
3.000000
  0
CIRCLE
  8
0
 62
     4
 10
-115.763405
 20
31.429686
 40
5.000000
  0
CIRCLE
  8
0
 62
     2
 10
-101.763405
 20
17.429686
 40
3.000000
  0
CIRCLE
  8
0
 62
     2
 10
-129.763397
 20
45.429687
 40
3.000000
  0
ARC
  8
0
 10
-115.763405
 20
31.429686
 40
25.000004
 50
126.869911
 51
143.130081
  0
ARC
  8
0
 10
-115.763405
 20
31.429686
 40
24.999994
 50
216.869919
 51
233.130081
  0
ARC
  8
0
 10
-115.763405
 20
31.429686
 40
25.000000
 50
306.869904
 51
323.130096
  0
ARC
  8
0
 10
-115.763405
 20
31.429686
 40
25.000002
 50
36.869900
 51
53.130104
  0
CIRCLE
  8
0
 10
-129.763397
 20
45.429687
 40
4.000000
  0
CIRCLE
  8
0
 10
-101.763405
 20
17.429686
 40
4.000000
  0
ARC
  8
0
 10
-101.763405
 20
45.429687
 40
7.500000
 50
126.869896
 51
323.130096
  0
ARC
  8
0
 10
-129.763397
 20
17.429686
 40
7.500000
 50
306.869904
 51
143.130096
  0
ARC
  8
0
 62
     4
 10
-43.763409
 20
31.429686
 40
6.000000
 50
326.442688
 51
33.557316
  0
CIRCLE
  8
0
 10
-10.264582
 20
31.436386
 40
2.066999
  0
CIRCLE
  8
0
 62
     2
 10
-10.264582
 20
31.436386
 40
2.500000
  0
CIRCLE
  8
0
 10
0.245419
 20
31.436386
 40
2.066999
  0
CIRCLE
  8
0
 62
     2
 10
0.245419
 20
31.436386
 40
2.500000
  0
POLYLINE
  8
0
 62
     4
 66
     1
  0
VERTEX
  8
0
 10
120.374306
 20
106.238373
  0
VERTEX
  8
0
 10
120.699944
 20
106.870644
  0
VERTEX
  8
0
 10
120.916016
 20
107.552094
  0
VERTEX
  8
0
 10
120.994308
 20
108.258377
  0
VERTEX
  8
0
 10
120.916016
 20
108.964653
  0
VERTEX
  8
0
 10
120.699944
 20
109.646103
  0
VERTEX
  8
0
 10
120.374306
 20
110.278374
  0
SEQEND
  0
POLYLINE
  8
0
 62
     4
 66
     1
  0
VERTEX
  8
0
 10
115.624306
 20
106.238373
  0
VERTEX
  8
0
 10
115.296074
 20
106.870644
  0
VERTEX
  8
0
 10
115.075195
 20
107.552094
  0
VERTEX
  8
0
 10
114.994308
 20
108.258377
  0
VERTEX
  8
0
 10
115.075195
 20
108.964653
  0
VERTEX
  8
0
 10
115.296074
 20
109.646103
  0
VERTEX
  8
0
 10
115.624306
 20
110.278374
  0
SEQEND
  0
POLYLINE
  8
0
 62
     4
 66
     1
  0
VERTEX
  8
0
 10
115.624306
 20
118.358376
  0
VERTEX
  8
0
 10
115.404060
 20
117.569626
  0
VERTEX
  8
0
 10
115.228485
 20
116.768158
  0
VERTEX
  8
0
 10
115.100029
 20
115.957069
  0
VERTEX
  8
0
 10
115.021149
 20
115.139442
  0
VERTEX
  8
0
 10
114.994308
 20
114.318375
  0
VERTEX
  8
0
 10
115.021149
 20
113.497307
  0
VERTEX
  8
0
 10
115.100029
 20
112.679680
  0
VERTEX
  8
0
 10
115.228485
 20
111.868591
  0
VERTEX
  8
0
 10
115.404060
 20
111.067123
  0
VERTEX
  8
0
 10
115.624306
 20
110.278374
  0
SEQEND
  0
POLYLINE
  8
0
 62
     4
 66
     1
  0
VERTEX
  8
0
 10
120.374306
 20
118.358376
  0
VERTEX
  8
0
 10
120.593506
 20
117.569626
  0
VERTEX
  8
0
 10
120.766609
 20
116.768158
  0
VERTEX
  8
0
 10
120.892113
 20
115.957062
  0
VERTEX
  8
0
 10
120.968506
 20
115.139442
  0
VERTEX
  8
0
 10
120.994308
 20
114.318375
  0
VERTEX
  8
0
 10
120.968506
 20
113.497307
  0
VERTEX
  8
0
 10
120.892113
 20
112.679687
  0
VERTEX
  8
0
 10
120.766609
 20
111.868591
  0
VERTEX
  8
0
 10
120.593506
 20
111.067123
  0
VERTEX
  8
0
 10
120.374306
 20
110.278374
  0
SEQEND
  0
POLYLINE
  8
0
 62
     4
 66
     1
  0
VERTEX
  8
0
 10
115.624306
 20
122.398376
  0
VERTEX
  8
0
 10
115.296074
 20
121.766106
  0
VERTEX
  8
0
 10
115.075195
 20
121.084656
  0
VERTEX
  8
0
 10
114.994308
 20
120.378372
  0
VERTEX
  8
0
 10
115.075195
 20
119.672096
  0
VERTEX
  8
0
 10
115.296074
 20
118.990646
  0
VERTEX
  8
0
 10
115.624306
 20
118.358376
  0
SEQEND
  0
POLYLINE
  8
0
 62
     4
 66
     1
  0
VERTEX
  8
0
 10
120.374306
 20
122.398376
  0
VERTEX
  8
0
 10
120.699944
 20
121.766106
  0
VERTEX
  8
0
 10
120.916016
 20
121.084656
  0
VERTEX
  8
0
 10
120.994308
 20
120.378372
  0
VERTEX
  8
0
 10
120.916016
 20
119.672096
  0
VERTEX
  8
0
 10
120.699944
 20
118.990646
  0
VERTEX
  8
0
 10
120.374306
 20
118.358376
  0
SEQEND
  0
TEXT
  8
0
 10
-7.142656
 20
-184.050003
 40
4.500000
  1
60
 50
0.000000
 41
1.052632
 51
0.000000
  7
STANDARD
  0
TEXT
  8
0
 10
-29.142656
 20
-184.050003
 40
4.500000
  1
55
 50
0.000000
 41
1.052632
 51
0.000000
  7
STANDARD
  0
TEXT
  8
0
 10
-205.142654
 20
-184.050003
 40
4.500000
  1
15
 50
0.000000
 41
1.052632
 51
0.000000
  7
STANDARD
  0
TEXT
  8
0
 10
-183.142654
 20
-184.050003
 40
4.500000
  1
20
 50
0.000000
 41
1.052632
 51
0.000000
  7
STANDARD
  0
TEXT
  8
0
 10
-161.142654
 20
-184.050003
 40
4.500000
  1
25
 50
0.000000
 41
1.052632
 51
0.000000
  7
STANDARD
  0
TEXT
  8
0
 10
-139.142654
 20
-184.050003
 40
4.500000
  1
30
 50
0.000000
 41
1.052632
 51
0.000000
  7
STANDARD
  0
TEXT
  8
0
 10
-117.142654
 20
-184.050003
 40
4.500000
  1
35
 50
0.000000
 41
1.052632
 51
0.000000
  7
STANDARD
  0
TEXT
  8
0
 10
-95.142654
 20
-184.050003
 40
4.500000
  1
40
 50
0.000000
 41
1.052632
 51
0.000000
  7
STANDARD
  0
TEXT
  8
0
 10
-73.142654
 20
-184.050003
 40
4.500000
  1
45
 50
0.000000
 41
1.052632
 51
0.000000
  7
STANDARD
  0
TEXT
  8
0
 10
-51.142658
 20
-184.050003
 40
4.500000
  1
50
 50
0.000000
 41
1.052632
 51
0.000000
  7
STANDARD
  0
TEXT
  8
0
 10
-7.142656
 20
-176.050003
 40
4.500000
  1
50
 50
0.000000
 41
1.052632
 51
0.000000
  7
STANDARD
  0
TEXT
  8
0
 10
-7.142656
 20
-168.050003
 40
4.500000
  1
55
 50
0.000000
 41
1.052632
 51
0.000000
  7
STANDARD
  0
TEXT
  8
0
 10
202.719482
 20
136.868668
 40
6.300000
  1
-G
 50
0.000000
 41
1.052632
 51
0.000000
  7
STANDARD
  0
TEXT
  8
0
 10
121.994667
 20
136.868622
 40
6.300000
  1
-B
 50
0.000000
 41
1.052632
 51
0.000000
  7
STANDARD
  0
TEXT
  8
0
 10
-202.892654
 20
-160.050003
 40
4.500000
  1
0
 50
0.000000
 41
1.052632
 51
0.000000
  7
STANDARD
  0
TEXT
  8
0
 10
-11.642657
 20
-136.050003
 40
4.500000
  1
üiéìéìüj
 50
0.000000
 41
0.833333
 51
0.000000
  7
STANDARD
  0
TEXT
  8
0
 10
-232.249710
 20
135.830002
 40
6.300000
  1
CS-CDA25*ST-R
 50
0.000000
 41
1.052632
 51
0.000000
  7
STANDARD
  0
TEXT
  8
0
 10
-232.249710
 20
145.830002
 40
6.300000
  1
CS-CDAS25*ST
 50
0.000000
 41
1.052632
 51
0.000000
  7
STANDARD
  0
TEXT
  8
0
 10
-270.049713
 20
155.830002
 40
6.300000
  1
MODEL:CS-CDA25*ST(5)
 50
0.000000
 41
1.052632
 51
0.000000
  7
STANDARD
  0
TEXT
  8
0
 62
     3
 10
-43.209297
 20
155.509521
 40
6.300000
  1
STRETCH LINE
 50
0.000000
 41
1.052632
 51
0.000000
  7
STANDARD
  0
TEXT
  8
0
 10
-158.642654
 20
-135.050003
 40
4.500000
  1
STRETCH LIST
 50
0.000000
 41
1.052632
 51
0.000000
  7
STANDARD
  0
TEXT
  8
0
 10
-7.142656
 20
-160.050003
 40
4.500000
  1
45
 50
0.000000
 41
1.052632
 51
0.000000
  7
STANDARD
  0
TEXT
  8
0
 10
-29.142656
 20
-160.050003
 40
4.500000
  1
40
 50
0.000000
 41
1.052632
 51
0.000000
  7
STANDARD
  0
TEXT
  8
0
 10
-51.142658
 20
-160.050003
 40
4.500000
  1
35
 50
0.000000
 41
1.052632
 51
0.000000
  7
STANDARD
  0
TEXT
  8
0
 10
-73.142654
 20
-160.050003
 40
4.500000
  1
30
 50
0.000000
 41
1.052632
 51
0.000000
  7
STANDARD
  0
TEXT
  8
0
 10
-95.142654
 20
-160.050003
 40
4.500000
  1
25
 50
0.000000
 41
1.052632
 51
0.000000
  7
STANDARD
  0
TEXT
  8
0
 10
-117.142654
 20
-160.050003
 40
4.500000
  1
20
 50
0.000000
 41
1.052632
 51
0.000000
  7
STANDARD
  0
TEXT
  8
0
 10
-139.142654
 20
-160.050003
 40
4.500000
  1
15
 50
0.000000
 41
1.052632
 51
0.000000
  7
STANDARD
  0
TEXT
  8
0
 10
-161.142654
 20
-160.050003
 40
4.500000
  1
10
 50
0.000000
 41
1.052632
 51
0.000000
  7
STANDARD
  0
TEXT
  8
0
 10
-180.892654
 20
-160.050003
 40
4.500000
  1
5
 50
0.000000
 41
1.052632
 51
0.000000
  7
STANDARD
  0
TEXT
  8
0
 10
-205.142654
 20
-168.050003
 40
4.500000
  1
10
 50
0.000000
 41
1.052632
 51
0.000000
  7
STANDARD
  0
TEXT
  8
0
 10
-183.142654
 20
-168.050003
 40
4.500000
  1
15
 50
0.000000
 41
1.052632
 51
0.000000
  7
STANDARD
  0
TEXT
  8
0
 10
-161.142654
 20
-168.050003
 40
4.500000
  1
20
 50
0.000000
 41
1.052632
 51
0.000000
  7
STANDARD
  0
TEXT
  8
0
 10
-139.142654
 20
-168.050003
 40
4.500000
  1
25
 50
0.000000
 41
1.052632
 51
0.000000
  7
STANDARD
  0
TEXT
  8
0
 10
-117.142654
 20
-168.050003
 40
4.500000
  1
30
 50
0.000000
 41
1.052632
 51
0.000000
  7
STANDARD
  0
TEXT
  8
0
 10
-95.142654
 20
-168.050003
 40
4.500000
  1
35
 50
0.000000
 41
1.052632
 51
0.000000
  7
STANDARD
  0
TEXT
  8
0
 10
-73.142654
 20
-168.050003
 40
4.500000
  1
40
 50
0.000000
 41
1.052632
 51
0.000000
  7
STANDARD
  0
TEXT
  8
0
 10
-51.142658
 20
-168.050003
 40
4.500000
  1
45
 50
0.000000
 41
1.052632
 51
0.000000
  7
STANDARD
  0
TEXT
  8
0
 10
-29.142656
 20
-168.050003
 40
4.500000
  1
50
 50
0.000000
 41
1.052632
 51
0.000000
  7
STANDARD
  0
TEXT
  8
0
 10
-29.142656
 20
-176.050003
 40
4.500000
  1
45
 50
0.000000
 41
1.052632
 51
0.000000
  7
STANDARD
  0
TEXT
  8
0
 10
-51.142658
 20
-176.050003
 40
4.500000
  1
40
 50
0.000000
 41
1.052632
 51
0.000000
  7
STANDARD
  0
TEXT
  8
0
 10
-73.142654
 20
-176.050003
 40
4.500000
  1
35
 50
0.000000
 41
1.052632
 51
0.000000
  7
STANDARD
  0
TEXT
  8
0
 10
-95.142654
 20
-176.050003
 40
4.500000
  1
30
 50
0.000000
 41
1.052632
 51
0.000000
  7
STANDARD
  0
TEXT
  8
0
 10
-117.142654
 20
-176.050003
 40
4.500000
  1
25
 50
0.000000
 41
1.052632
 51
0.000000
  7
STANDARD
  0
TEXT
  8
0
 10
-139.142654
 20
-176.050003
 40
4.500000
  1
20
 50
0.000000
 41
1.052632
 51
0.000000
  7
STANDARD
  0
TEXT
  8
0
 10
-161.142654
 20
-176.050003
 40
4.500000
  1
15
 50
0.000000
 41
1.052632
 51
0.000000
  7
STANDARD
  0
TEXT
  8
0
 10
-183.142654
 20
-176.050003
 40
4.500000
  1
10
 50
0.000000
 41
1.052632
 51
0.000000
  7
STANDARD
  0
TEXT
  8
0
 10
-202.892654
 20
-176.050003
 40
4.500000
  1
5
 50
0.000000
 41
1.052632
 51
0.000000
  7
STANDARD
  0
TEXT
  8
0
 10
-29.142656
 20
-148.050003
 40
4.500000
  1
45
 50
0.000000
 41
1.052632
 51
0.000000
  7
STANDARD
  0
TEXT
  8
0
 10
-51.142658
 20
-148.050003
 40
4.500000
  1
40
 50
0.000000
 41
1.052632
 51
0.000000
  7
STANDARD
  0
TEXT
  8
0
 10
-73.142654
 20
-148.050003
 40
4.500000
  1
35
 50
0.000000
 41
1.052632
 51
0.000000
  7
STANDARD
  0
TEXT
  8
0
 10
-95.142654
 20
-148.050003
 40
4.500000
  1
30
 50
0.000000
 41
1.052632
 51
0.000000
  7
STANDARD
  0
TEXT
  8
0
 10
-117.142654
 20
-148.050003
 40
4.500000
  1
25
 50
0.000000
 41
1.052632
 51
0.000000
  7
STANDARD
  0
TEXT
  8
0
 10
-139.142654
 20
-148.050003
 40
4.500000
  1
20
 50
0.000000
 41
1.052632
 51
0.000000
  7
STANDARD
  0
TEXT
  8
0
 10
-161.142654
 20
-148.050003
 40
4.500000
  1
15
 50
0.000000
 41
1.052632
 51
0.000000
  7
STANDARD
  0
TEXT
  8
0
 10
-183.142654
 20
-148.050003
 40
4.500000
  1
10
 50
0.000000
 41
1.052632
 51
0.000000
  7
STANDARD
  0
TEXT
  8
0
 10
-202.892654
 20
-148.050003
 40
4.500000
  1
5
 50
0.000000
 41
1.052632
 51
0.000000
  7
STANDARD
  0
TEXT
  8
0
 10
-240.142654
 20
-144.050003
 40
4.500000
  1
STROKE
 50
0.000000
 41
1.052632
 51
0.000000
  7
STANDARD
  0
TEXT
  8
0
 10
-265.642670
 20
-152.050003
 40
4.500000
  1
TYPE
 50
0.000000
 41
1.052632
 51
0.000000
  7
STANDARD
  0
TEXT
  8
0
 10
-264.000000
 20
-184.050003
 40
4.500000
  1
CS-CDAS25-R
 50
0.000000
 41
1.052632
 51
0.000000
  7
STANDARD
  0
TEXT
  8
0
 10
-7.142656
 20
-148.050003
 40
4.500000
  1
50
 50
0.000000
 41
1.052632
 51
0.000000
  7
STANDARD
  0
TEXT
  8
0
 10
-264.000000
 20
-158.699997
 40
4.500000
  1
CS-CDA25
 50
0.000000
 41
1.052632
 51
0.000000
  7
STANDARD
  0
TEXT
  8
0
 10
-264.000000
 20
-166.699997
 40
4.500000
  1
CS-CDAS25
 50
0.000000
 41
1.052632
 51
0.000000
  7
STANDARD
  0
TEXT
  8
0
 10
-264.000000
 20
-174.699997
 40
4.500000
  1
CS-CDA25-R
 50
0.000000
 41
1.052632
 51
0.000000
  7
STANDARD
  0
TEXT
  8
0
 10
-232.249710
 20
125.830002
 40
6.300000
  1
CS-CDAS25*ST-R
 50
0.000000
 41
1.052632
 51
0.000000
  7
STANDARD
  0
TEXT
  8
0
 10
-269.149719
 20
180.830002
 40
6.300000
  1
CS JIG CYLINDER
 50
0.000000
 41
1.052632
 51
0.000000
  7
STANDARD
  0
TEXT
  8
0
 10
196.250259
 20
180.830002
 40
6.300000
  1
éuüvÕú‗.ü@éPüDéO
 50
0.000000
 41
0.833333
 51
0.000000
  7
STANDARD
  0
TEXT
  8
0
 10
167.564667
 20
-192.100006
 40
9.000000
  1
KOGANEI CORP.
 50
0.000000
 41
1.052632
 51
0.000000
  7
STANDARD
  0
ENDSEC
  0
EOF
