  0
SECTION
  2
HEADER
  0
ENDSEC
  0
SECTION
  2
TABLES
  0
TABLE
  2
LTYPE
 70
     4
  0
LTYPE
  2
CONTINUOUS
 70
    64
  3
Solid line
 72
    65
 73
     0
 40
0.000000
  0
LTYPE
  2
DASHED
 70
    64
  3
__ __ __ __ __ __ __ __ __ __ __ __ __ __ __
 72
    65
 73
     2
 40
3.500000
 49
2.000000
 49
-1.500000
  0
LTYPE
  2
CENTER
 70
    64
  3
____ _ ____ _ ____ _ ____ _ ____ _ ____ _ ____
 72
    65
 73
     4
 40
17.500000
 49
13.000000
 49
-1.500000
 49
1.500000
 49
-1.500000
  0
LTYPE
  2
PHANTOM
 70
    64
  3
_____ _ _ _____ _ _ _____ _ _ _____ _ _ ____  
 72
    65
 73
     6
 40
15.500000
 49
8.000000
 49
-1.500000
 49
1.500000
 49
-1.500000
 49
1.500000
 49
-1.500000
  0
LTYPE
  2
DASHED1
 70
    64
  3
__ __ __ __ __ __ __ __ __ __ __ __ __ __ __
 72
    65
 73
     2
 40
1.500000
 49
1.000000
 49
-0.500000
  0
LTYPE
  2
DASHED2
 70
    64
  3
__ __ __ __ __ __ __ __ __ __ __ __ __ __ __
 72
    65
 73
     2
 40
3.500000
 49
2.500000
 49
-1.000000
  0
LTYPE
  2
DASHED3
 70
    64
  3
__ __ __ __ __ __ __ __ __ __ __ __ __ __ __
 72
    65
 73
     2
 40
6.000000
 49
4.000000
 49
-2.000000
  0
LTYPE
  2
DASHED4
 70
    64
  3
__ __ __ __ __ __ __ __ __ __ __ __ __ __ __
 72
    65
 73
     2
 40
12.000000
 49
10.000000
 49
-2.000000
  0
LTYPE
  2
DASHED5
 70
    64
  3
__ __ __ __ __ __ __ __ __ __ __ __ __ __ __
 72
    65
 73
     2
 40
17.000000
 49
15.000000
 49
-2.000000
  0
LTYPE
  2
DASHED6
 70
    64
  3
__ __ __ __ __ __ __ __ __ __ __ __ __ __ __
 72
    65
 73
     2
 40
29.000000
 49
27.000000
 49
-2.000000
  0
LTYPE
  2
PHANTOM1
 70
    64
  3
_____ _ _ _____ _ _ _____ _ _ _____ _ _ ____  
 72
    65
 73
     6
 40
31.000000
 49
25.000000
 49
-1.500000
 49
1.000000
 49
-1.000000
 49
1.000000
 49
-1.500000
  0
LTYPE
  2
PHANTOM2
 70
    64
  3
_____ _ _ _____ _ _ _____ _ _ _____ _ _ ____  
 72
    65
 73
     6
 40
36.000000
 49
27.000000
 49
-1.500000
 49
2.500000
 49
-1.000000
 49
2.500000
 49
-1.500000
  0
LTYPE
  2
PHANTOM3
 70
    64
  3
_____ _ _ _____ _ _ _____ _ _ _____ _ _ ____  
 72
    65
 73
     6
 40
78.000000
 49
64.000000
 49
-2.000000
 49
4.000000
 49
-2.000000
 49
4.000000
 49
-2.000000
  0
LTYPE
  2
CENTER1
 70
    64
  3
____ _ ____ _ ____ _ ____ _ ____ _ ____ _ ____
 72
    65
 73
     4
 40
19.000000
 49
14.000000
 49
-1.000000
 49
3.000000
 49
-1.000000
  0
LTYPE
  2
CENTER2
 70
    64
  3
____ _ ____ _ ____ _ ____ _ ____ _ ____ _ ____
 72
    65
 73
     4
 40
28.500000
 49
25.000000
 49
-1.000000
 49
1.500000
 49
-1.000000
  0
LTYPE
  2
CENTER3
 70
    64
  3
____ _ ____ _ ____ _ ____ _ ____ _ ____ _ ____
 72
    65
 73
     4
 40
31.500000
 49
27.000000
 49
-1.000000
 49
2.500000
 49
-1.000000
  0
LTYPE
  2
CENTER4
 70
    64
  3
____ _ ____ _ ____ _ ____ _ ____ _ ____ _ ____
 72
    65
 73
     4
 40
50.000000
 49
45.000000
 49
-1.000000
 49
3.000000
 49
-1.000000
  0
LTYPE
  2
CENTER5
 70
    64
  3
____ _ ____ _ ____ _ ____ _ ____ _ ____ _ ____
 72
    65
 73
     4
 40
100.000000
 49
92.000000
 49
-2.000000
 49
4.000000
 49
-2.000000
  0
LTYPE
  2
SBK1
 70
    64
  3
______ _ _ _ ______ _ _ _ ______ _ _ _ _____  
 72
    65
 73
     8
 40
60.500000
 49
45.000000
 49
-2.000000
 49
2.500000
 49
-2.000000
 49
2.500000
 49
-2.000000
 49
2.500000
 49
-2.000000
  0
LTYPE
  2
SBK2
 70
    64
  3
______ _ _ _ ______ _ _ _ ______ _ _ _ _____  
 72
    65
 73
     8
 40
84.000000
 49
64.000000
 49
-2.000000
 49
4.000000
 49
-2.000000
 49
4.000000
 49
-2.000000
 49
4.000000
 49
-2.000000
  0
LTYPE
  2
STCH
 70
    64
  3
__ __ __ __ __ __ __ __ __ __ __ __ __ __ __
 72
    65
 73
     2
 40
3.000000
 49
1.000000
 49
-2.000000
  0
LTYPE
  2
MTCH
 70
    64
  3
_____ _ _ _____ _ _ _____ _ _ _____ _ _ ____  
 72
    65
 73
     6
 40
80.000000
 49
66.000000
 49
-2.000000
 49
4.000000
 49
-2.000000
 49
4.000000
 49
-2.000000
  0
ENDTAB
  0
TABLE
  2
LAYER
 70
     1
  0
LAYER
  2
0
 70
     0
 62
     7
  6
CONTINUOUS
  0
ENDTAB
  0
TABLE
  2
STYLE
 70
     1
  0
STYLE
  2
STANDARD
 70
     0
 40
0.000000
 41
1.000000
 50
0.000000
 71
     0
 42
0.200000
  3
txt
  4
BIGFONT
  0
ENDTAB
  0
TABLE
  2
VIEW
 70
     0
  0
ENDTAB
  0
ENDSEC
  0
SECTION
  2
BLOCKS
  0
ENDSEC
  0
SECTION
  2
ENTITIES
  0
LINE
  8
0
 62
     4
 10
90.061424
 20
-45.715775
 11
91.771423
 21
-44.005775
  0
LINE
  8
0
 62
     4
 10
90.481422
 20
-46.145775
 11
92.201424
 21
-44.435776
  0
LINE
  8
0
 62
     4
 10
111.131424
 20
-42.825775
 11
111.131424
 21
-47.325775
  0
LINE
  8
0
 62
     4
 10
106.211426
 20
-47.325775
 11
111.131424
 21
-47.325775
  0
LINE
  8
0
 62
     4
 10
106.211426
 20
-42.825775
 11
111.131424
 21
-42.825775
  0
LINE
  8
0
  6
CENTER
 62
     1
 10
91.131424
 20
-42.245773
 11
91.131424
 21
-47.825775
  0
LINE
  8
0
 62
     4
 10
89.131424
 20
-43.025776
 11
89.131424
 21
-47.125774
  0
LINE
  8
0
 62
     4
 10
89.131424
 20
-43.025776
 11
106.041428
 21
-43.025776
  0
LINE
  8
0
 62
     4
 10
89.131424
 20
-47.125774
 11
106.041428
 21
-47.125774
  0
LINE
  8
0
 62
     4
 10
89.131424
 20
-43.575775
 11
105.691422
 21
-43.575775
  0
LINE
  8
0
 62
     4
 10
89.131424
 20
-46.575775
 11
105.691422
 21
-46.575775
  0
LINE
  8
0
  6
CENTER
 62
     1
 10
87.811424
 20
-45.075775
 11
112.711426
 21
-45.075775
  0
LINE
  8
0
 62
     4
 10
47.388699
 20
-82.025795
 11
47.388699
 21
-85.775795
  0
LINE
  8
0
 62
     4
 10
44.788700
 20
-83.525795
 11
44.788700
 21
-85.775795
  0
LINE
  8
0
 62
     4
 10
44.838699
 20
-92.175797
 11
47.338699
 21
-92.175797
  0
LINE
  8
0
 62
     4
 10
47.338699
 20
-92.175797
 11
47.338699
 21
-92.675797
  0
LINE
  8
0
 62
     1
 10
47.108700
 20
-92.175797
 11
47.108700
 21
-92.675797
  0
LINE
  8
0
 62
     1
 10
45.068699
 20
-92.175797
 11
45.068699
 21
-92.675797
  0
LINE
  8
0
 62
     4
 10
44.838699
 20
-92.175797
 11
44.838699
 21
-92.675797
  0
LINE
  8
0
 62
     4
 10
44.838699
 20
-96.445793
 11
47.338699
 21
-96.445793
  0
LINE
  8
0
 62
     4
 10
47.338699
 20
-95.275795
 11
47.338699
 21
-96.445793
  0
LINE
  8
0
 62
     1
 10
47.108700
 20
-95.275795
 11
47.108700
 21
-96.675797
  0
LINE
  8
0
 62
     1
 10
45.068699
 20
-95.275795
 11
45.068699
 21
-96.675797
  0
LINE
  8
0
 62
     4
 10
44.838699
 20
-95.275795
 11
44.838699
 21
-96.445793
  0
LINE
  8
0
 62
     4
 10
45.068699
 20
-96.675804
 11
44.838699
 21
-96.445801
  0
LINE
  8
0
 62
     4
 10
47.108704
 20
-96.675797
 11
47.338699
 21
-96.445793
  0
LINE
  8
0
 62
     4
 10
45.068699
 20
-96.675797
 11
47.108700
 21
-96.675797
  0
LINE
  8
0
 62
     1
 10
43.928699
 20
-84.025787
 11
48.248699
 21
-81.525787
  0
LINE
  8
0
 62
     4
 10
43.838699
 20
-85.775795
 11
48.338699
 21
-85.775795
  0
LINE
  8
0
 62
     4
 10
44.038700
 20
-95.275795
 11
48.138699
 21
-95.275795
  0
LINE
  8
0
 62
     4
 10
44.038700
 20
-94.475800
 11
48.138699
 21
-94.475800
  0
LINE
  8
0
 62
     4
 10
44.588699
 20
-92.675797
 11
47.588699
 21
-92.675797
  0
LINE
  8
0
  6
CENTER
 62
     1
 10
46.088699
 20
-80.115799
 11
46.088699
 21
-98.735794
  0
LINE
  8
0
 62
     4
 10
48.338699
 20
-85.775795
 11
48.338699
 21
-91.525795
  0
LINE
  8
0
 62
     4
 10
47.588699
 20
-92.275795
 11
48.338699
 21
-91.525795
  0
LINE
  8
0
 62
     4
 10
47.588699
 20
-93.125793
 11
47.588699
 21
-92.275795
  0
LINE
  8
0
 62
     4
 10
48.138699
 20
-93.675789
 11
47.588699
 21
-93.125786
  0
LINE
  8
0
 62
     4
 10
48.138699
 20
-93.675797
 11
48.138699
 21
-95.225800
  0
LINE
  8
0
 62
     4
 10
44.038700
 20
-93.675797
 11
44.038700
 21
-95.225800
  0
LINE
  8
0
 62
     4
 10
44.038696
 20
-93.675797
 11
44.588696
 21
-93.125793
  0
LINE
  8
0
 62
     4
 10
44.588699
 20
-93.125793
 11
44.588699
 21
-92.275795
  0
LINE
  8
0
 62
     4
 10
44.588696
 20
-92.275787
 11
43.838703
 21
-91.525795
  0
LINE
  8
0
 62
     4
 10
43.838699
 20
-85.775795
 11
43.838699
 21
-91.525795
  0
LINE
  8
0
 62
     4
 10
43.838699
 20
-87.275795
 11
48.338699
 21
-87.275795
  0
LINE
  8
0
 62
     4
 10
109.831421
 20
-80.525795
 11
109.831421
 21
-77.275795
  0
LINE
  8
0
 62
     4
 10
107.231422
 20
-82.025795
 11
107.231422
 21
-77.275795
  0
LINE
  8
0
 62
     4
 10
107.231422
 20
-85.775795
 11
107.231422
 21
-83.525795
  0
LINE
  8
0
 62
     4
 10
109.831421
 20
-85.775795
 11
109.831421
 21
-82.025795
  0
LINE
  8
0
 62
     4
 10
89.881424
 20
-92.175797
 11
92.381424
 21
-92.175797
  0
LINE
  8
0
 62
     4
 10
92.381424
 20
-92.175797
 11
92.381424
 21
-92.675797
  0
LINE
  8
0
 62
     1
 10
92.151421
 20
-92.175797
 11
92.151421
 21
-92.675797
  0
LINE
  8
0
 62
     1
 10
90.101425
 20
-92.175797
 11
90.101425
 21
-92.675797
  0
LINE
  8
0
 62
     4
 10
89.881424
 20
-92.175797
 11
89.881424
 21
-92.675797
  0
LINE
  8
0
 62
     4
 10
89.881424
 20
-96.445793
 11
92.381424
 21
-96.445793
  0
LINE
  8
0
 62
     4
 10
92.381424
 20
-95.275795
 11
92.381424
 21
-96.445793
  0
LINE
  8
0
 62
     1
 10
92.151421
 20
-95.275795
 11
92.151421
 21
-96.675797
  0
LINE
  8
0
 62
     1
 10
90.101425
 20
-95.275795
 11
90.101425
 21
-96.675797
  0
LINE
  8
0
 62
     4
 10
89.881424
 20
-95.275795
 11
89.881424
 21
-96.445793
  0
LINE
  8
0
 62
     4
 10
90.101433
 20
-96.675804
 11
89.881424
 21
-96.445793
  0
LINE
  8
0
 62
     4
 10
92.151421
 20
-96.675797
 11
92.381424
 21
-96.445793
  0
LINE
  8
0
 62
     4
 10
90.101425
 20
-96.675797
 11
92.151421
 21
-96.675797
  0
LINE
  8
0
 62
     1
 10
106.371422
 20
-84.025795
 11
110.701424
 21
-81.525795
  0
LINE
  8
0
 62
     1
 10
106.371422
 20
-82.525795
 11
110.701424
 21
-80.025795
  0
LINE
  8
0
 62
     1
 10
106.371422
 20
-75.045799
 11
110.701424
 21
-72.545799
  0
LINE
  8
0
  6
CENTER
 62
     1
 10
108.531425
 20
-87.095795
 11
108.531425
 21
-77.275795
  0
LINE
  8
0
 62
     1
 10
106.371422
 20
-73.545799
 11
110.701424
 21
-71.045799
  0
LINE
  8
0
 62
     4
 10
109.231422
 20
-70.275795
 11
109.231422
 21
-67.275795
  0
LINE
  8
0
 62
     4
 10
108.731422
 20
-70.275795
 11
108.731422
 21
-67.275795
  0
LINE
  8
0
 62
     4
 10
108.331421
 20
-70.275795
 11
108.331421
 21
-67.275795
  0
LINE
  8
0
 62
     4
 10
107.831421
 20
-70.275795
 11
107.831421
 21
-67.275795
  0
LINE
  8
0
 62
     4
 10
107.631424
 20
-72.815796
 11
107.631424
 21
-70.275795
  0
LINE
  8
0
 62
     4
 10
107.631424
 20
-77.275795
 11
107.631424
 21
-74.315796
  0
LINE
  8
0
 62
     4
 10
109.431427
 20
-71.775795
 11
109.431427
 21
-70.275795
  0
LINE
  8
0
 62
     4
 10
108.531425
 20
-72.295799
 11
108.531425
 21
-70.275795
  0
LINE
  8
0
 62
     4
 10
108.531425
 20
-77.275795
 11
108.531425
 21
-73.795799
  0
LINE
  8
0
 62
     4
 10
109.431427
 20
-77.275795
 11
109.431427
 21
-73.275795
  0
LINE
  8
0
 62
     4
 10
107.631424
 20
-70.275795
 11
109.431427
 21
-70.275795
  0
LINE
  8
0
 62
     4
 10
108.731422
 20
-67.275795
 11
109.231422
 21
-67.275795
  0
LINE
  8
0
 62
     4
 10
107.831421
 20
-67.275795
 11
108.331421
 21
-67.275795
  0
LINE
  8
0
  6
CENTER
 62
     1
 10
108.981422
 20
-78.955795
 11
108.981422
 21
-67.025795
  0
LINE
  8
0
  6
CENTER
 62
     1
 10
108.081421
 20
-79.005798
 11
108.081421
 21
-67.075798
  0
LINE
  8
0
 62
     4
 10
107.231422
 20
-77.275795
 11
109.831421
 21
-77.275795
  0
LINE
  8
0
 62
     4
 10
105.231422
 20
-87.275795
 11
111.131424
 21
-87.275795
  0
LINE
  8
0
 62
     4
 10
105.231422
 20
-92.275795
 11
111.131424
 21
-92.275795
  0
LINE
  8
0
 62
     4
 10
105.231422
 20
-91.525795
 11
111.131424
 21
-91.525795
  0
LINE
  8
0
 62
     4
 10
89.131424
 20
-93.125793
 11
111.131424
 21
-93.125793
  0
LINE
  8
0
 62
     4
 10
89.131424
 20
-93.675797
 11
111.131424
 21
-93.675797
  0
LINE
  8
0
 62
     4
 10
93.401421
 20
-94.475800
 11
93.401421
 21
-95.655800
  0
LINE
  8
0
 62
     4
 10
93.401421
 20
-95.655800
 11
93.831421
 21
-95.655800
  0
LINE
  8
0
 62
     4
 10
93.331421
 20
-94.475800
 11
93.331421
 21
-96.475800
  0
LINE
  8
0
 62
     4
 10
93.331421
 20
-96.475800
 11
93.831421
 21
-96.475800
  0
LINE
  8
0
 62
     4
 10
105.231422
 20
-85.775795
 11
111.131424
 21
-85.775795
  0
LINE
  8
0
 62
     4
 10
93.131424
 20
-94.475800
 11
93.131424
 21
-95.275795
  0
LINE
  8
0
 62
     4
 10
89.131424
 20
-95.275795
 11
93.131424
 21
-95.275795
  0
LINE
  8
0
 62
     4
 10
89.131424
 20
-94.475800
 11
93.401421
 21
-94.475800
  0
LINE
  8
0
 62
     4
 10
105.231422
 20
-85.775795
 11
105.231422
 21
-92.675797
  0
LINE
  8
0
  6
CENTER
 62
     1
 10
91.131424
 20
-91.945793
 11
91.131424
 21
-97.845795
  0
LINE
  8
0
 62
     4
 10
93.831421
 20
-95.655800
 11
93.831421
 21
-97.275795
  0
LINE
  8
0
 62
     4
 10
89.131424
 20
-95.275795
 11
89.131424
 21
-92.675797
  0
LINE
  8
0
 62
     4
 10
111.131424
 20
-85.775795
 11
111.131424
 21
-97.275795
  0
LINE
  8
0
 62
     4
 10
93.831421
 20
-97.275795
 11
111.131424
 21
-97.275795
  0
LINE
  8
0
 62
     4
 10
89.131424
 20
-92.675797
 11
105.231422
 21
-92.675797
  0
LINE
  8
0
 62
     4
 10
-46.679520
 20
-51.425793
 11
-43.589520
 21
-51.425793
  0
LINE
  8
0
 62
     4
 10
-46.679520
 20
-48.825794
 11
-45.099518
 21
-48.825794
  0
LINE
  8
0
 62
     1
 10
-45.599518
 20
-47.965794
 11
-43.099518
 21
-52.285793
  0
LINE
  8
0
 62
     4
 10
-67.379517
 20
-51.185799
 11
-65.739517
 21
-49.565796
  0
LINE
  8
0
 62
     4
 10
-67.729515
 20
-50.835789
 11
-65.999519
 21
-49.105793
  0
LINE
  8
0
  6
CENTER
 62
     1
 10
-66.679520
 20
-47.295792
 11
-66.679520
 21
-52.875793
  0
LINE
  8
0
 62
     4
 10
-46.679520
 20
-48.075794
 11
-46.679520
 21
-52.175793
  0
LINE
  8
0
 62
     4
 10
-68.679520
 20
-48.075794
 11
-68.679520
 21
-52.175793
  0
LINE
  8
0
 62
     4
 10
-68.679520
 20
-48.075794
 11
-46.679520
 21
-48.075794
  0
LINE
  8
0
 62
     4
 10
-68.679520
 20
-52.175793
 11
-46.679520
 21
-52.175793
  0
LINE
  8
0
 62
     4
 10
-68.679520
 20
-48.625793
 11
-46.679520
 21
-48.625793
  0
LINE
  8
0
 62
     4
 10
-68.679520
 20
-51.625793
 11
-46.679520
 21
-51.625793
  0
LINE
  8
0
  6
CENTER
 62
     1
 10
-71.479523
 20
-50.125793
 11
-41.279518
 21
-50.125793
  0
LINE
  8
0
  6
CENTER
 62
     1
 10
-113.222244
 20
-90.625793
 11
-113.222244
 21
-99.335800
  0
LINE
  8
0
 62
     4
 10
-114.472244
 20
-92.175797
 11
-111.972244
 21
-92.175797
  0
LINE
  8
0
 62
     4
 10
-111.972244
 20
-92.175797
 11
-111.972244
 21
-92.675797
  0
LINE
  8
0
 62
     1
 10
-112.202248
 20
-92.175797
 11
-112.202248
 21
-92.675797
  0
LINE
  8
0
 62
     1
 10
-114.242241
 20
-92.175797
 11
-114.242241
 21
-92.675797
  0
LINE
  8
0
 62
     4
 10
-114.472244
 20
-92.175797
 11
-114.472244
 21
-92.675797
  0
LINE
  8
0
 62
     4
 10
-114.472244
 20
-96.445793
 11
-111.972244
 21
-96.445793
  0
LINE
  8
0
 62
     4
 10
-111.972244
 20
-95.265793
 11
-111.972244
 21
-96.445793
  0
LINE
  8
0
 62
     1
 10
-112.202248
 20
-95.265793
 11
-112.202248
 21
-96.675797
  0
LINE
  8
0
 62
     1
 10
-114.242241
 20
-95.265793
 11
-114.242241
 21
-96.675797
  0
LINE
  8
0
 62
     4
 10
-114.472244
 20
-95.265793
 11
-114.472244
 21
-96.445793
  0
LINE
  8
0
 62
     4
 10
-114.242233
 20
-96.675789
 11
-114.472237
 21
-96.445786
  0
LINE
  8
0
 62
     4
 10
-112.202248
 20
-96.675797
 11
-111.972244
 21
-96.445793
  0
LINE
  8
0
 62
     4
 10
-114.242241
 20
-96.675797
 11
-112.202248
 21
-96.675797
  0
LINE
  8
0
 62
     4
 10
-115.272247
 20
-95.265793
 11
-111.172241
 21
-95.265793
  0
LINE
  8
0
 62
     4
 10
-115.272247
 20
-94.475800
 11
-111.172241
 21
-94.475800
  0
LINE
  8
0
 62
     4
 10
-111.172241
 20
-93.675797
 11
-111.172241
 21
-95.225800
  0
LINE
  8
0
 62
     4
 10
-111.172241
 20
-93.675797
 11
-111.722244
 21
-93.125793
  0
LINE
  8
0
 62
     4
 10
-111.722244
 20
-92.675797
 11
-111.722244
 21
-93.125793
  0
LINE
  8
0
 62
     4
 10
-114.722244
 20
-92.675797
 11
-111.722244
 21
-92.675797
  0
LINE
  8
0
 62
     4
 10
-114.722244
 20
-92.675797
 11
-114.722244
 21
-93.125793
  0
LINE
  8
0
 62
     4
 10
-115.272247
 20
-93.675797
 11
-114.722244
 21
-93.125793
  0
LINE
  8
0
 62
     4
 10
-115.272247
 20
-93.675797
 11
-115.272247
 21
-95.225800
  0
LINE
  8
0
 62
     4
 10
-41.429535
 20
-96.275902
 11
-38.179535
 21
-96.275902
  0
LINE
  8
0
 62
     4
 10
-42.929535
 20
-93.675903
 11
-38.179535
 21
-93.675903
  0
LINE
  8
0
 62
     4
 10
-46.679535
 20
-96.275902
 11
-42.929535
 21
-96.275902
  0
LINE
  8
0
 62
     4
 10
-46.679535
 20
-93.675903
 11
-44.429535
 21
-93.675903
  0
LINE
  8
0
 62
     4
 10
-68.679535
 20
-93.125900
 11
-46.679535
 21
-93.125900
  0
LINE
  8
0
 62
     4
 10
-68.679535
 20
-93.675903
 11
-46.679535
 21
-93.675903
  0
LINE
  8
0
 62
     4
 10
-67.929535
 20
-92.175903
 11
-65.429535
 21
-92.175903
  0
LINE
  8
0
 62
     4
 10
-65.429535
 20
-92.175903
 11
-65.429535
 21
-92.675903
  0
LINE
  8
0
 62
     1
 10
-65.659538
 20
-92.175903
 11
-65.659538
 21
-92.675903
  0
LINE
  8
0
 62
     1
 10
-67.709534
 20
-92.175903
 11
-67.709534
 21
-92.675903
  0
LINE
  8
0
 62
     4
 10
-67.929535
 20
-92.175903
 11
-67.929535
 21
-92.675903
  0
LINE
  8
0
 62
     4
 10
-67.929535
 20
-96.445900
 11
-65.429535
 21
-96.445900
  0
LINE
  8
0
 62
     4
 10
-65.429535
 20
-95.265900
 11
-65.429535
 21
-96.445900
  0
LINE
  8
0
 62
     1
 10
-65.659538
 20
-95.265900
 11
-65.659538
 21
-96.675903
  0
LINE
  8
0
 62
     1
 10
-67.709534
 20
-95.265900
 11
-67.709534
 21
-96.675903
  0
LINE
  8
0
 62
     4
 10
-67.929535
 20
-95.265900
 11
-67.929535
 21
-96.445900
  0
LINE
  8
0
 62
     4
 10
-67.709534
 20
-96.675903
 11
-67.929535
 21
-96.445900
  0
LINE
  8
0
 62
     4
 10
-65.659538
 20
-96.675903
 11
-65.429535
 21
-96.445900
  0
LINE
  8
0
 62
     4
 10
-67.709534
 20
-96.675903
 11
-65.659538
 21
-96.675903
  0
LINE
  8
0
 62
     1
 10
-44.929535
 20
-92.805901
 11
-42.429535
 21
-97.135902
  0
LINE
  8
0
 62
     1
 10
-43.429531
 20
-92.805901
 11
-40.929531
 21
-97.135902
  0
LINE
  8
0
 62
     1
 10
-35.949532
 20
-92.805901
 11
-33.449532
 21
-97.135902
  0
LINE
  8
0
  6
CENTER
 62
     1
 10
-47.999535
 20
-94.975906
 11
-38.179535
 21
-94.975906
  0
LINE
  8
0
 62
     1
 10
-34.449535
 20
-92.805901
 11
-31.949532
 21
-97.135902
  0
LINE
  8
0
 62
     4
 10
-31.179535
 20
-95.675903
 11
-28.179535
 21
-95.675903
  0
LINE
  8
0
 62
     4
 10
-31.179535
 20
-95.175903
 11
-28.179535
 21
-95.175903
  0
LINE
  8
0
 62
     4
 10
-31.179535
 20
-94.775902
 11
-28.179535
 21
-94.775902
  0
LINE
  8
0
 62
     4
 10
-31.179535
 20
-94.275902
 11
-28.179535
 21
-94.275902
  0
LINE
  8
0
 62
     4
 10
-33.719536
 20
-94.075905
 11
-31.179535
 21
-94.075905
  0
LINE
  8
0
 62
     4
 10
-38.179535
 20
-94.075905
 11
-35.219536
 21
-94.075905
  0
LINE
  8
0
 62
     4
 10
-32.679535
 20
-95.875900
 11
-31.179535
 21
-95.875900
  0
LINE
  8
0
 62
     4
 10
-33.199535
 20
-94.975906
 11
-31.179535
 21
-94.975906
  0
LINE
  8
0
 62
     4
 10
-38.179535
 20
-94.975906
 11
-34.699535
 21
-94.975906
  0
LINE
  8
0
 62
     4
 10
-38.179535
 20
-95.875900
 11
-34.179535
 21
-95.875900
  0
LINE
  8
0
 62
     4
 10
-31.179535
 20
-94.075905
 11
-31.179535
 21
-95.875900
  0
LINE
  8
0
 62
     4
 10
-28.179535
 20
-95.175903
 11
-28.179535
 21
-95.675903
  0
LINE
  8
0
 62
     4
 10
-28.179535
 20
-94.275902
 11
-28.179535
 21
-94.775902
  0
LINE
  8
0
  6
CENTER
 62
     1
 10
-39.859535
 20
-95.425903
 11
-27.929535
 21
-95.425903
  0
LINE
  8
0
  6
CENTER
 62
     1
 10
-39.909534
 20
-94.525902
 11
-27.979534
 21
-94.525902
  0
LINE
  8
0
 62
     4
 10
-38.179535
 20
-93.675903
 11
-38.179535
 21
-96.275902
  0
LINE
  8
0
 62
     4
 10
-64.429535
 20
-95.715904
 11
-63.979534
 21
-95.715904
  0
LINE
  8
0
 62
     4
 10
-64.479538
 20
-96.475906
 11
-63.979534
 21
-96.475906
  0
LINE
  8
0
 62
     4
 10
-64.479538
 20
-94.475906
 11
-64.479538
 21
-96.475906
  0
LINE
  8
0
 62
     4
 10
-68.679535
 20
-95.275902
 11
-64.679535
 21
-95.275902
  0
LINE
  8
0
 62
     4
 10
-68.679535
 20
-94.475906
 11
-68.679535
 21
-95.275902
  0
LINE
  8
0
 62
     4
 10
-64.679535
 20
-94.475906
 11
-64.679535
 21
-95.275902
  0
LINE
  8
0
 62
     4
 10
-64.429535
 20
-94.475906
 11
-64.429535
 21
-95.715904
  0
LINE
  8
0
  6
CENTER
 62
     1
 10
-66.679535
 20
-91.875900
 11
-66.679535
 21
-98.105904
  0
LINE
  8
0
 62
     4
 10
-68.679535
 20
-94.475906
 11
-64.429535
 21
-94.475906
  0
LINE
  8
0
 62
     4
 10
-63.979534
 20
-95.715904
 11
-63.979534
 21
-97.275902
  0
LINE
  8
0
 62
     4
 10
-68.679535
 20
-94.475906
 11
-68.679535
 21
-92.675903
  0
LINE
  8
0
 62
     4
 10
-46.679535
 20
-92.675903
 11
-46.679535
 21
-97.275902
  0
LINE
  8
0
 62
     4
 10
-63.979534
 20
-97.275902
 11
-46.679535
 21
-97.275902
  0
LINE
  8
0
 62
     4
 10
-68.679535
 20
-92.675903
 11
-46.679535
 21
-92.675903
  0
LINE
  8
0
 62
     4
 10
202.669128
 20
118.538559
 11
202.669128
 21
104.538559
  0
LINE
  8
0
 62
     4
 10
204.409134
 20
119.538559
 11
207.669128
 21
119.538559
  0
LINE
  8
0
 62
     4
 10
204.409134
 20
103.538559
 11
207.669128
 21
103.538559
  0
LINE
  8
0
 62
     4
 10
205.669128
 20
115.408562
 11
205.669128
 21
107.668556
  0
LINE
  8
0
 62
     4
 10
202.669128
 20
118.538559
 11
204.409134
 21
119.538559
  0
LINE
  8
0
 62
     4
 10
202.669128
 20
104.538567
 11
204.409149
 21
103.538567
  0
LINE
  8
0
 62
     4
 10
202.669128
 20
115.408562
 11
205.669128
 21
115.408562
  0
LINE
  8
0
 62
     4
 10
202.669128
 20
107.668556
 11
205.669128
 21
107.668556
  0
LINE
  8
0
 62
     4
 10
204.409134
 20
119.538559
 11
204.409134
 21
115.408562
  0
LINE
  8
0
 62
     4
 10
204.409134
 20
107.668556
 11
204.409134
 21
103.538559
  0
LINE
  8
0
 62
     1
 10
205.669144
 20
115.408562
 11
202.669144
 21
107.668564
  0
LINE
  8
0
 62
     1
 10
202.669144
 20
115.408569
 11
205.669144
 21
107.668564
  0
LINE
  8
0
 62
     4
 10
207.669128
 20
122.038559
 11
207.669128
 21
101.038559
  0
LINE
  8
0
 62
     4
 10
207.669128
 20
122.038559
 11
209.669128
 21
122.038559
  0
LINE
  8
0
 62
     4
 10
207.669128
 20
101.038559
 11
209.669128
 21
101.038559
  0
LINE
  8
0
 62
     4
 10
122.944366
 20
119.538559
 11
128.944366
 21
119.538559
  0
LINE
  8
0
 62
     4
 10
122.944366
 20
103.538559
 11
128.944366
 21
103.538559
  0
LINE
  8
0
 62
     4
 10
121.944366
 20
115.408562
 11
124.944366
 21
115.408562
  0
LINE
  8
0
 62
     4
 10
121.944366
 20
107.668556
 11
124.944366
 21
107.668556
  0
LINE
  8
0
 62
     4
 10
124.944366
 20
115.408562
 11
124.944366
 21
107.668556
  0
LINE
  8
0
 62
     1
 10
124.944374
 20
115.408569
 11
121.944374
 21
107.668556
  0
LINE
  8
0
 62
     1
 10
121.944374
 20
115.408569
 11
124.944374
 21
107.668564
  0
LINE
  8
0
 62
     4
 10
94.694366
 20
118.538559
 11
102.444366
 21
118.538559
  0
LINE
  8
0
 62
     4
 10
94.694366
 20
104.538559
 11
102.444366
 21
104.538559
  0
LINE
  8
0
 62
     4
 10
121.944366
 20
104.538559
 11
121.944366
 21
118.538559
  0
LINE
  8
0
 62
     1
 10
93.944366
 20
117.788559
 11
102.444366
 21
117.788559
  0
LINE
  8
0
 62
     4
 10
118.944366
 20
118.538559
 11
118.944366
 21
104.538559
  0
LINE
  8
0
 62
     1
 10
118.944359
 20
117.788559
 11
120.244362
 21
118.538559
  0
LINE
  8
0
 62
     4
 10
103.294365
 20
122.508560
 11
109.604370
 21
122.508560
  0
LINE
  8
0
 62
     4
 10
102.444366
 20
121.038559
 11
102.444366
 21
102.038559
  0
LINE
  8
0
 62
     4
 10
110.444366
 20
121.038559
 11
110.444366
 21
102.038559
  0
LINE
  8
0
 62
     4
 10
109.604370
 20
122.508560
 11
110.444374
 21
121.038559
  0
LINE
  8
0
 62
     4
 10
102.444374
 20
121.038567
 11
103.294373
 21
122.508568
  0
LINE
  8
0
 62
     4
 10
110.444366
 20
118.538559
 11
121.944366
 21
118.538559
  0
LINE
  8
0
 62
     1
 10
110.444366
 20
117.788559
 11
118.944366
 21
117.788559
  0
LINE
  8
0
 62
     4
 10
103.294365
 20
117.018562
 11
109.604370
 21
117.018562
  0
LINE
  8
0
 62
     4
 10
103.294365
 20
106.058556
 11
109.604370
 21
106.058556
  0
LINE
  8
0
 62
     4
 10
102.444366
 20
102.038567
 11
103.294365
 21
100.568565
  0
LINE
  8
0
 62
     4
 10
110.444366
 20
104.538559
 11
121.944366
 21
104.538559
  0
LINE
  8
0
 62
     4
 10
122.944366
 20
103.538559
 11
122.944366
 21
107.668556
  0
LINE
  8
0
 62
     4
 10
121.944359
 20
118.538551
 11
122.944366
 21
119.538559
  0
LINE
  8
0
 62
     4
 10
121.944366
 20
104.538559
 11
122.944366
 21
103.538559
  0
LINE
  8
0
 62
     4
 10
122.944366
 20
115.408562
 11
122.944366
 21
119.538559
  0
LINE
  8
0
 62
     4
 10
93.944366
 20
117.788559
 11
93.944366
 21
105.288559
  0
LINE
  8
0
 62
     4
 10
109.604362
 20
100.568550
 11
110.444366
 21
102.038559
  0
LINE
  8
0
 62
     4
 10
103.294365
 20
100.568558
 11
109.604370
 21
100.568558
  0
LINE
  8
0
 62
     4
 10
93.944366
 20
117.788559
 11
94.694359
 21
118.538551
  0
LINE
  8
0
 62
     4
 10
94.694366
 20
118.538559
 11
94.694366
 21
104.538559
  0
LINE
  8
0
 62
     1
 10
118.944366
 20
105.288559
 11
120.244370
 21
104.538559
  0
LINE
  8
0
 62
     1
 10
110.444366
 20
105.288559
 11
118.944366
 21
105.288559
  0
LINE
  8
0
 62
     1
 10
93.944366
 20
105.288559
 11
102.444366
 21
105.288559
  0
LINE
  8
0
 62
     4
 10
93.944366
 20
105.288559
 11
94.694366
 21
104.538559
  0
LINE
  8
0
 10
33.000000
 20
152.000000
 11
33.000000
 21
103.500000
  0
LINE
  8
0
 10
-14.999999
 20
152.000000
 11
33.000000
 21
152.000000
  0
LINE
  8
0
  6
CENTER
 62
     2
 10
-27.410000
 20
130.000000
 11
37.479717
 21
130.000000
  0
LINE
  8
0
 10
-14.999999
 20
152.000000
 11
-14.999999
 21
108.000000
  0
LINE
  8
0
 10
-14.999999
 20
108.000000
 11
33.000000
 21
108.000000
  0
LINE
  8
0
  6
CENTER
 62
     2
 10
1.540002
 20
113.000000
 11
-17.740000
 21
113.000000
  0
LINE
  8
0
 10
0.000001
 20
152.000000
 11
0.000001
 21
103.500000
  0
LINE
  8
0
 10
-3.499999
 20
108.000000
 11
-3.499999
 21
118.589996
  0
LINE
  8
0
 10
-14.999999
 20
118.589996
 11
-3.499999
 21
118.589996
  0
LINE
  8
0
 10
-9.499999
 20
108.400002
 11
-9.499999
 21
117.599998
  0
LINE
  8
0
 10
-9.099998
 20
108.000000
 11
-9.099998
 21
118.000000
  0
LINE
  8
0
 10
-9.099998
 20
118.000000
 11
-3.499999
 21
118.000000
  0
LINE
  8
0
 10
-9.100000
 20
107.999992
 11
-9.500003
 21
108.400002
  0
LINE
  8
0
 10
-9.499996
 20
117.599991
 11
-9.099995
 21
117.999992
  0
LINE
  8
0
 10
-3.499999
 20
110.349998
 11
33.000000
 21
110.349998
  0
LINE
  8
0
 62
     4
 10
-20.259998
 20
137.000000
 11
-20.259998
 21
123.000000
  0
LINE
  8
0
 62
     4
 10
-18.001442
 20
122.000000
 11
-14.999999
 21
122.000000
  0
LINE
  8
0
 62
     4
 10
-18.001442
 20
138.000000
 11
-14.999999
 21
138.000000
  0
LINE
  8
0
 62
     4
 10
-22.000000
 20
137.000000
 11
-22.000000
 21
123.000000
  0
LINE
  8
0
 10
0.000001
 20
103.500000
 11
33.000000
 21
103.500000
  0
LINE
  8
0
 10
0.000001
 20
140.699997
 11
33.000000
 21
140.699997
  0
LINE
  8
0
 10
0.000001
 20
137.500000
 11
33.000000
 21
137.500000
  0
LINE
  8
0
 10
0.000001
 20
122.500000
 11
33.000000
 21
122.500000
  0
LINE
  8
0
 10
0.000001
 20
119.300003
 11
33.000000
 21
119.300003
  0
LINE
  8
0
 10
-14.999999
 20
149.660004
 11
33.000000
 21
149.660004
  0
LINE
  8
0
  6
CENTER
 62
     2
 10
10.000001
 20
100.500000
 11
10.000001
 21
106.500000
  0
LINE
  8
0
  6
CENTER
 62
     2
 10
26.000000
 20
100.500000
 11
26.000000
 21
106.500000
  0
LINE
  8
0
  6
PHANTOM
 62
     3
 10
18.078903
 20
77.532761
 11
18.078903
 21
163.494675
  0
LINE
  8
0
 62
     4
 10
-22.000000
 20
137.000000
 11
-19.000000
 21
137.000000
  0
LINE
  8
0
 62
     4
 10
-22.000000
 20
123.000000
 11
-19.000000
 21
123.000000
  0
LINE
  8
0
 62
     4
 10
-19.000006
 20
137.000000
 11
-18.001450
 21
138.000000
  0
LINE
  8
0
 62
     4
 10
-18.999996
 20
123.000000
 11
-18.001440
 21
122.000000
  0
LINE
  8
0
  6
CENTER
 62
     2
 10
109.999947
 20
7.529970
 11
109.999947
 21
56.769970
  0
LINE
  8
0
 10
129.659943
 20
53.999969
 11
90.349945
 21
53.999969
  0
LINE
  8
0
 10
87.999947
 20
24.499969
 11
87.999947
 21
12.339970
  0
LINE
  8
0
  6
CENTER
 62
     2
 10
122.229950
 20
14.999969
 11
131.959946
 21
14.999969
  0
LINE
  8
0
  6
CENTER
 62
     2
 10
126.999947
 20
19.669970
 11
126.999947
 21
10.289970
  0
LINE
  8
0
  6
CENTER
 62
     2
 10
122.229950
 20
48.999969
 11
131.959946
 21
48.999969
  0
LINE
  8
0
  6
CENTER
 62
     2
 10
126.999947
 20
53.669968
 11
126.999947
 21
44.289970
  0
LINE
  8
0
  6
CENTER
 62
     2
 10
88.229950
 20
48.999969
 11
97.959946
 21
48.999969
  0
LINE
  8
0
  6
CENTER
 62
     2
 10
92.999947
 20
53.669968
 11
92.999947
 21
44.289970
  0
LINE
  8
0
  6
CENTER
 62
     2
 10
88.229950
 20
14.999969
 11
97.959946
 21
14.999969
  0
LINE
  8
0
  6
CENTER
 62
     2
 10
92.999947
 20
19.669970
 11
92.999947
 21
10.289970
  0
LINE
  8
0
 10
88.999947
 20
20.799971
 11
88.499947
 21
21.299971
  0
LINE
  8
0
 10
88.999947
 20
24.999969
 11
88.499947
 21
24.499969
  0
LINE
  8
0
 10
88.999947
 20
24.999969
 11
90.599945
 21
24.999969
  0
LINE
  8
0
 10
88.999947
 20
20.799969
 11
90.599945
 21
20.799969
  0
LINE
  8
0
 10
87.999947
 20
24.499969
 11
88.499947
 21
24.499969
  0
LINE
  8
0
 10
87.999947
 20
21.299969
 11
88.499947
 21
21.299969
  0
LINE
  8
0
 10
102.999947
 20
10.999969
 11
102.499947
 21
10.499968
  0
LINE
  8
0
 10
98.799950
 20
10.999969
 11
99.299950
 21
10.499968
  0
LINE
  8
0
 10
98.799950
 20
10.999969
 11
98.799950
 21
12.599970
  0
LINE
  8
0
 10
102.999947
 20
10.999969
 11
102.999947
 21
12.599970
  0
LINE
  8
0
 10
99.299950
 20
9.999969
 11
99.299950
 21
10.499969
  0
LINE
  8
0
 10
102.499947
 20
9.999969
 11
102.499947
 21
10.499969
  0
LINE
  8
0
 10
121.199944
 20
10.999969
 11
120.699944
 21
10.499968
  0
LINE
  8
0
 10
116.999939
 20
10.999969
 11
117.499939
 21
10.499968
  0
LINE
  8
0
 10
116.999947
 20
10.999969
 11
116.999947
 21
12.599970
  0
LINE
  8
0
 10
121.199944
 20
10.999969
 11
121.199944
 21
12.599970
  0
LINE
  8
0
 10
117.499947
 20
9.999969
 11
117.499947
 21
10.499969
  0
LINE
  8
0
 10
120.699944
 20
9.999969
 11
120.699944
 21
10.499969
  0
LINE
  8
0
 10
130.999954
 20
24.999969
 11
131.499939
 21
24.499968
  0
LINE
  8
0
 10
130.999954
 20
20.799967
 11
131.499954
 21
21.299967
  0
LINE
  8
0
 10
130.999939
 20
20.799969
 11
129.399948
 21
20.799969
  0
LINE
  8
0
 10
130.999939
 20
24.999969
 11
129.399948
 21
24.999969
  0
LINE
  8
0
 10
131.999939
 20
21.299969
 11
131.499939
 21
21.299969
  0
LINE
  8
0
 10
131.999939
 20
24.499969
 11
131.499939
 21
24.499969
  0
LINE
  8
0
 10
130.999954
 20
43.199970
 11
131.499954
 21
42.699970
  0
LINE
  8
0
 10
130.999954
 20
38.999969
 11
131.499939
 21
39.499966
  0
LINE
  8
0
 10
130.999939
 20
38.999969
 11
129.399948
 21
38.999969
  0
LINE
  8
0
 10
130.999939
 20
43.199970
 11
129.399948
 21
43.199970
  0
LINE
  8
0
 10
131.999939
 20
39.499969
 11
131.499939
 21
39.499969
  0
LINE
  8
0
 10
131.999939
 20
42.699970
 11
131.499939
 21
42.699970
  0
LINE
  8
0
 10
98.799950
 20
52.999969
 11
99.299950
 21
53.499969
  0
LINE
  8
0
 10
102.999947
 20
52.999969
 11
102.499947
 21
53.499969
  0
LINE
  8
0
 10
102.999947
 20
52.999969
 11
102.999947
 21
51.399971
  0
LINE
  8
0
 10
98.799950
 20
52.999969
 11
98.799950
 21
51.399971
  0
LINE
  8
0
 10
102.499947
 20
53.999969
 11
102.499947
 21
53.499969
  0
LINE
  8
0
 10
99.299950
 20
53.999969
 11
99.299950
 21
53.499969
  0
LINE
  8
0
 10
116.999947
 20
52.999966
 11
117.499947
 21
53.499969
  0
LINE
  8
0
 10
121.199944
 20
52.999969
 11
120.699944
 21
53.499969
  0
LINE
  8
0
 10
121.199944
 20
52.999969
 11
121.199944
 21
51.399971
  0
LINE
  8
0
 10
116.999947
 20
52.999969
 11
116.999947
 21
51.399971
  0
LINE
  8
0
 10
120.699944
 20
53.999969
 11
120.699944
 21
53.499969
  0
LINE
  8
0
 10
117.499947
 20
53.999969
 11
117.499947
 21
53.499969
  0
LINE
  8
0
 10
83.499947
 20
25.199970
 11
87.999947
 21
24.499969
  0
LINE
  8
0
 10
87.999947
 20
39.499969
 11
83.499947
 21
38.799969
  0
LINE
  8
0
 10
83.499947
 20
38.799969
 11
83.499947
 21
25.199970
  0
LINE
  8
0
 10
129.659943
 20
9.999969
 11
90.349945
 21
9.999969
  0
LINE
  8
0
 10
87.999947
 20
51.649971
 11
87.999947
 21
39.499969
  0
LINE
  8
0
 10
131.999939
 20
51.649971
 11
131.999939
 21
12.339970
  0
LINE
  8
0
  6
CENTER
 62
     2
 10
81.719948
 20
31.999969
 11
132.829941
 21
31.999969
  0
LINE
  8
0
 10
88.999947
 20
38.999966
 11
88.499947
 21
39.499966
  0
LINE
  8
0
 10
88.999947
 20
43.199966
 11
88.499947
 21
42.699970
  0
LINE
  8
0
 10
88.999947
 20
43.199970
 11
90.599945
 21
43.199970
  0
LINE
  8
0
 10
88.999947
 20
38.999969
 11
90.599945
 21
38.999969
  0
LINE
  8
0
 10
87.999947
 20
42.699970
 11
88.499947
 21
42.699970
  0
LINE
  8
0
 10
87.999947
 20
39.499969
 11
88.499947
 21
39.499969
  0
LINE
  8
0
  6
CENTER
 62
     2
 10
-115.000000
 20
57.209969
 11
-115.000000
 21
7.639969
  0
LINE
  8
0
  6
CENTER
 62
     2
 10
-92.360001
 20
48.999969
 11
-102.959999
 21
48.999969
  0
LINE
  8
0
 10
-132.000000
 20
17.879972
 11
-129.500000
 21
16.439968
  0
LINE
  8
0
 10
-129.500000
 20
16.439968
 11
-129.500000
 21
13.549969
  0
LINE
  8
0
 10
-129.500000
 20
13.549969
 11
-132.000000
 21
12.109966
  0
LINE
  8
0
 10
-132.000000
 20
12.109968
 11
-134.500000
 21
13.549967
  0
LINE
  8
0
 10
-134.500000
 20
16.439968
 11
-134.500000
 21
13.549969
  0
LINE
  8
0
 10
-132.000000
 20
17.879972
 11
-134.500000
 21
16.439972
  0
LINE
  8
0
 10
-98.000000
 20
51.879967
 11
-95.500000
 21
50.439968
  0
LINE
  8
0
 10
-95.500000
 20
50.439972
 11
-95.500000
 21
47.549969
  0
LINE
  8
0
 10
-95.500000
 20
47.549965
 11
-98.000000
 21
46.109970
  0
LINE
  8
0
 10
-97.999992
 20
46.109970
 11
-100.499992
 21
47.549965
  0
LINE
  8
0
 10
-100.500000
 20
50.439972
 11
-100.500000
 21
47.549969
  0
LINE
  8
0
 10
-98.000000
 20
51.879971
 11
-100.500000
 21
50.439968
  0
LINE
  8
0
 10
-134.649994
 20
9.999969
 11
-95.349998
 21
9.999969
  0
LINE
  8
0
 10
-137.000000
 20
51.649971
 11
-137.000000
 21
12.339970
  0
LINE
  8
0
 62
     4
 10
-122.000000
 20
35.872952
 11
-122.000000
 21
28.126986
  0
LINE
  8
0
 62
     4
 10
-108.000000
 20
35.872952
 11
-108.000000
 21
28.126986
  0
LINE
  8
0
 10
-134.649994
 20
53.999969
 11
-95.349998
 21
53.999969
  0
LINE
  8
0
  6
CENTER
 62
     2
 10
-127.229996
 20
14.999969
 11
-136.959991
 21
14.999969
  0
LINE
  8
0
  6
CENTER
 62
     2
 10
-132.000000
 20
19.669970
 11
-132.000000
 21
10.289970
  0
LINE
  8
0
  6
CENTER
 62
     2
 10
-127.229996
 20
48.999969
 11
-136.959991
 21
48.999969
  0
LINE
  8
0
  6
CENTER
 62
     2
 10
-132.000000
 20
53.669968
 11
-132.000000
 21
44.289970
  0
LINE
  8
0
  6
CENTER
 62
     2
 10
-98.000000
 20
53.669968
 11
-98.000000
 21
44.289970
  0
LINE
  8
0
  6
CENTER
 62
     2
 10
-93.229996
 20
14.999969
 11
-102.959999
 21
14.999969
  0
LINE
  8
0
  6
CENTER
 62
     2
 10
-98.000000
 20
19.669970
 11
-98.000000
 21
10.289970
  0
LINE
  8
0
 10
-88.500000
 20
25.199970
 11
-93.000000
 21
24.499969
  0
LINE
  8
0
 10
-93.000000
 20
39.499969
 11
-88.500000
 21
38.799969
  0
LINE
  8
0
 10
-88.500000
 20
38.799969
 11
-88.500000
 21
25.199970
  0
LINE
  8
0
 10
-93.000000
 20
51.649971
 11
-93.000000
 21
12.339970
  0
LINE
  8
0
  6
CENTER
 62
     2
 10
-139.529999
 20
31.999969
 11
-86.089996
 21
31.999969
  0
LINE
  8
0
 62
     4
 10
-22.000000
 20
38.999969
 11
-22.000000
 21
24.999969
  0
LINE
  8
0
 62
     4
 10
-20.259998
 20
39.999969
 11
-14.999999
 21
39.999969
  0
LINE
  8
0
 62
     4
 10
-20.259998
 20
23.999969
 11
-14.999999
 21
23.999969
  0
LINE
  8
0
 62
     4
 10
-19.000000
 20
35.869968
 11
-19.000000
 21
28.129971
  0
LINE
  8
0
 62
     4
 10
-22.000000
 20
38.999973
 11
-20.259998
 21
39.999973
  0
LINE
  8
0
 62
     4
 10
-22.000000
 20
24.999969
 11
-20.259998
 21
23.999969
  0
LINE
  8
0
 62
     4
 10
-22.000000
 20
35.869968
 11
-19.000000
 21
35.869968
  0
LINE
  8
0
 62
     4
 10
-22.000000
 20
28.129971
 11
-19.000000
 21
28.129971
  0
LINE
  8
0
 62
     4
 10
-20.259998
 20
39.999969
 11
-20.259998
 21
35.869968
  0
LINE
  8
0
 62
     4
 10
-20.259998
 20
28.129971
 11
-20.259998
 21
23.999969
  0
LINE
  8
0
 62
     1
 10
-18.999998
 20
35.869968
 11
-21.999998
 21
28.129967
  0
LINE
  8
0
 62
     1
 10
-21.999996
 20
35.869968
 11
-18.999998
 21
28.129967
  0
LINE
  8
0
 10
-3.499999
 20
51.649971
 11
33.000000
 21
51.649971
  0
LINE
  8
0
  6
DASHED
 10
11.500001
 20
17.999969
 11
11.500001
 21
11.999969
  0
LINE
  8
0
  6
DASHED
 10
5.500001
 20
10.999969
 11
-14.999999
 21
10.999969
  0
LINE
  8
0
  6
DASHED
 62
     2
 10
11.500001
 20
11.999969
 11
5.500001
 21
11.999969
  0
LINE
  8
0
  6
DASHED
 10
5.500001
 20
18.999969
 11
5.500001
 21
10.999969
  0
LINE
  8
0
  6
DASHED
 10
5.500001
 20
18.999969
 11
-14.999999
 21
18.999969
  0
LINE
  8
0
  6
DASHED
 62
     2
 10
11.500001
 20
17.999969
 11
5.500001
 21
17.999969
  0
LINE
  8
0
  6
CENTER
 62
     2
 10
-4.999999
 20
15.209579
 11
-4.999999
 21
8.689970
  0
LINE
  8
0
 10
-9.500001
 20
44.399971
 11
-9.099999
 21
43.999966
  0
LINE
  8
0
 10
-9.099998
 20
53.999969
 11
-9.499998
 21
53.599968
  0
LINE
  8
0
 10
-9.099998
 20
43.999969
 11
-3.499999
 21
43.999969
  0
LINE
  8
0
 10
-9.099998
 20
53.999969
 11
-9.099998
 21
43.999969
  0
LINE
  8
0
 10
-9.499999
 20
53.599968
 11
-9.499999
 21
44.399971
  0
LINE
  8
0
 10
-14.999999
 20
43.409969
 11
-3.499999
 21
43.409969
  0
LINE
  8
0
 10
-3.499999
 20
53.999969
 11
-3.499999
 21
43.409969
  0
LINE
  8
0
 10
0.000001
 20
53.999969
 11
0.000001
 21
9.999969
  0
LINE
  8
0
 10
0.000001
 20
21.299969
 11
33.000000
 21
21.299969
  0
LINE
  8
0
  6
CENTER
 62
     2
 10
1.540002
 20
48.999969
 11
-17.740000
 21
48.999969
  0
LINE
  8
0
  6
CENTER
 62
     2
 10
10.000001
 20
37.570965
 11
10.000001
 21
26.329969
  0
LINE
  8
0
 10
-14.999999
 20
9.999969
 11
33.000000
 21
9.999969
  0
LINE
  8
0
 10
0.000001
 20
24.499969
 11
33.000000
 21
24.499969
  0
LINE
  8
0
 10
-14.999999
 20
53.999969
 11
-14.999999
 21
9.999969
  0
LINE
  8
0
  6
CENTER
 62
     2
 10
-27.410000
 20
31.999969
 11
37.479717
 21
31.999969
  0
LINE
  8
0
 10
0.000001
 20
25.199970
 11
33.000000
 21
25.199970
  0
LINE
  8
0
 10
0.000001
 20
38.799969
 11
33.000000
 21
38.799969
  0
LINE
  8
0
 10
0.000001
 20
39.499969
 11
33.000000
 21
39.499969
  0
LINE
  8
0
 10
0.000001
 20
42.699970
 11
33.000000
 21
42.699970
  0
LINE
  8
0
 10
-14.999999
 20
53.999969
 11
33.000000
 21
53.999969
  0
LINE
  8
0
  6
DASHED
 10
27.500000
 20
18.999969
 11
27.500000
 21
10.999969
  0
LINE
  8
0
  6
DASHED
 10
27.500000
 20
18.999969
 11
33.000000
 21
18.999969
  0
LINE
  8
0
  6
DASHED
 10
27.500000
 20
10.999969
 11
33.000000
 21
10.999969
  0
LINE
  8
0
  6
DASHED
 62
     2
 10
21.500000
 20
17.999969
 11
27.500000
 21
17.999969
  0
LINE
  8
0
  6
DASHED
 62
     2
 10
21.500000
 20
11.999969
 11
27.500000
 21
11.999969
  0
LINE
  8
0
  6
DASHED
 10
21.500000
 20
17.999969
 11
21.500000
 21
11.999969
  0
LINE
  8
0
  6
CENTER
 62
     2
 10
-17.740000
 20
14.999969
 11
34.450001
 21
14.999969
  0
LINE
  8
0
  6
CENTER
 62
     2
 10
26.000000
 20
37.570965
 11
26.000000
 21
26.629971
  0
LINE
  8
0
 10
33.000000
 20
53.999969
 11
33.000000
 21
9.999969
  0
LINE
  8
0
  6
DASHED
 62
     2
 10
-2.999999
 20
14.999969
 11
-2.999999
 21
9.999969
  0
LINE
  8
0
  6
DASHED
 62
     2
 10
-6.999999
 20
14.999969
 11
-6.999999
 21
9.999969
  0
LINE
  8
0
  6
DASHED
 10
-2.499999
 20
13.999969
 11
-2.499999
 21
9.999969
  0
LINE
  8
0
  6
DASHED
 10
-7.499999
 20
13.999969
 11
-7.499999
 21
9.999969
  0
LINE
  8
0
  6
DASHED
 10
21.500000
 20
17.458469
 11
27.500000
 21
17.458469
  0
LINE
  8
0
  6
DASHED
 10
21.500000
 20
12.541470
 11
27.500000
 21
12.541470
  0
LINE
  8
0
  6
DASHED
 10
11.500001
 20
17.458469
 11
5.500001
 21
17.458469
  0
LINE
  8
0
  6
DASHED
 10
11.500001
 20
12.541470
 11
5.500001
 21
12.541470
  0
LINE
  8
0
  6
DASHED
 10
11.500001
 20
17.549969
 11
21.500000
 21
17.549969
  0
LINE
  8
0
  6
DASHED
 10
11.500001
 20
12.449970
 11
21.500000
 21
12.449970
  0
LINE
  8
0
 10
0.000001
 20
12.339970
 11
33.000000
 21
12.339970
  0
LINE
  8
0
  6
PHANTOM
 62
     3
 10
18.078903
 20
-1.105270
 11
18.078903
 21
77.532761
  0
LINE
  8
0
 10
134.750000
 20
-161.000000
 11
134.750000
 21
-185.000000
  0
LINE
  8
0
 10
118.750000
 20
-161.000000
 11
118.750000
 21
-185.000000
  0
LINE
  8
0
 10
102.750000
 20
-161.000000
 11
102.750000
 21
-185.000000
  0
LINE
  8
0
 10
72.750000
 20
-161.000000
 11
134.750000
 21
-161.000000
  0
LINE
  8
0
 10
72.750000
 20
-169.000000
 11
134.750000
 21
-169.000000
  0
LINE
  8
0
 10
72.750000
 20
-185.000000
 11
134.750000
 21
-185.000000
  0
LINE
  8
0
 10
72.750000
 20
-177.000000
 11
134.750000
 21
-177.000000
  0
LINE
  8
0
 10
72.750000
 20
-161.000000
 11
72.750000
 21
-185.000000
  0
LINE
  8
0
 10
52.750000
 20
-137.000000
 11
52.750000
 21
-185.000000
  0
LINE
  8
0
 10
30.750000
 20
-137.000000
 11
30.750000
 21
-185.000000
  0
LINE
  8
0
 10
8.750000
 20
-137.000000
 11
8.750000
 21
-185.000000
  0
LINE
  8
0
 10
-13.250000
 20
-137.000000
 11
-13.250000
 21
-185.000000
  0
LINE
  8
0
 10
-35.250000
 20
-137.000000
 11
-35.250000
 21
-185.000000
  0
LINE
  8
0
 10
-57.250000
 20
-137.000000
 11
-57.250000
 21
-185.000000
  0
LINE
  8
0
 10
-79.250000
 20
-137.000000
 11
-79.250000
 21
-185.000000
  0
LINE
  8
0
 10
-101.250000
 20
-137.000000
 11
-101.250000
 21
-185.000000
  0
LINE
  8
0
 10
-123.250000
 20
-137.000000
 11
-123.250000
 21
-185.000000
  0
LINE
  8
0
 10
-145.250000
 20
-137.000000
 11
-145.250000
 21
-185.000000
  0
LINE
  8
0
 10
-167.250000
 20
-137.000000
 11
-167.250000
 21
-185.000000
  0
LINE
  8
0
 10
-189.250000
 20
-137.000000
 11
-189.250000
 21
-185.000000
  0
LINE
  8
0
 10
-211.250000
 20
-153.000000
 11
-271.250000
 21
-137.000000
  0
LINE
  8
0
 10
-211.250000
 20
-137.000000
 11
-211.250000
 21
-185.000000
  0
LINE
  8
0
 10
-271.250000
 20
-137.000000
 11
52.750000
 21
-137.000000
  0
LINE
  8
0
 10
-271.250000
 20
-153.000000
 11
52.750000
 21
-153.000000
  0
LINE
  8
0
 10
-271.250000
 20
-161.000000
 11
52.750000
 21
-161.000000
  0
LINE
  8
0
 10
-271.250000
 20
-169.000000
 11
52.750000
 21
-169.000000
  0
LINE
  8
0
 10
-271.250000
 20
-177.000000
 11
52.750000
 21
-177.000000
  0
LINE
  8
0
 10
-271.250000
 20
-185.000000
 11
52.750000
 21
-185.000000
  0
LINE
  8
0
 10
-271.250000
 20
-137.000000
 11
-271.250000
 21
-185.000000
  0
LINE
  8
0
 10
209.669128
 20
129.029999
 11
209.669128
 21
94.029999
  0
LINE
  8
0
  6
CENTER
 62
     2
 10
197.259995
 20
111.538559
 11
218.009995
 21
111.538559
  0
LINE
  8
0
  6
CENTER
 62
     2
 10
88.242767
 20
111.538559
 11
135.770004
 21
111.538559
  0
LINE
  8
0
 10
128.944366
 20
129.029999
 11
128.944366
 21
94.029999
  0
LINE
  8
0
 10
282.099854
 20
195.500000
 11
282.099854
 21
-195.000000
  0
LINE
  8
0
 10
-281.250000
 20
195.500000
 11
282.099854
 21
195.500000
  0
LINE
  8
0
 10
-281.250000
 20
195.500000
 11
-281.250000
 21
-195.000000
  0
LINE
  8
0
 10
-281.250000
 20
-195.000000
 11
282.099854
 21
-195.000000
  0
LINE
  8
0
 10
162.099976
 20
-175.000000
 11
162.099976
 21
-195.000000
  0
LINE
  8
0
 10
162.099976
 20
-175.000000
 11
282.099854
 21
-175.000000
  0
LINE
  8
0
 10
162.099976
 20
175.500000
 11
282.099854
 21
175.500000
  0
LINE
  8
0
 10
-281.250000
 20
175.500000
 11
-161.250000
 21
175.500000
  0
LINE
  8
0
 10
162.099976
 20
195.500000
 11
162.099976
 21
175.500000
  0
LINE
  8
0
 10
-161.250000
 20
195.500000
 11
-161.250000
 21
175.500000
  0
CIRCLE
  8
0
 62
     4
 10
108.248703
 20
-44.757622
 40
0.250000
  0
CIRCLE
  8
0
 62
     4
 10
108.860580
 20
-45.416779
 40
0.250000
  0
CIRCLE
  8
0
 62
     4
 10
108.248703
 20
-44.757622
 40
0.450000
  0
CIRCLE
  8
0
 62
     4
 10
108.860580
 20
-45.416779
 40
0.450000
  0
CIRCLE
  8
0
 62
     4
 10
108.538773
 20
-45.075775
 40
1.299999
  0
CIRCLE
  8
0
 62
     4
 10
91.131424
 20
-45.075775
 40
1.400000
  0
CIRCLE
  8
0
 62
     4
 10
91.131424
 20
-45.075775
 40
1.250000
  0
ARC
  8
0
 62
     4
 10
108.631424
 20
-45.075775
 40
3.304374
 50
137.084778
 51
222.915222
  0
ARC
  8
0
 62
     4
 10
46.093506
 20
-95.220901
 40
2.045202
 50
270.985901
 51
359.862793
  0
ARC
  8
0
 62
     4
 10
46.088703
 20
-95.225792
 40
2.050003
 50
180.000000
 51
269.999908
  0
CIRCLE
  8
0
 62
     4
 10
-66.679504
 20
-50.125793
 40
1.400000
  0
CIRCLE
  8
0
 62
     4
 10
-66.679504
 20
-50.125793
 40
1.250000
  0
ARC
  8
0
 62
     4
 10
-113.222244
 20
-95.225792
 40
2.050003
 50
270.000000
 51
0.000000
  0
ARC
  8
0
 62
     4
 10
-113.222244
 20
-95.225792
 40
2.050003
 50
180.000000
 51
270.000000
  0
ARC
  8
0
 62
     4
 10
198.669128
 20
111.538559
 40
7.998558
 50
331.063660
 51
28.936342
  0
ARC
  8
0
 62
     4
 10
107.300400
 20
119.763557
 40
4.856270
 50
145.580399
 51
214.419601
  0
ARC
  8
0
 62
     4
 10
120.595673
 20
111.538559
 40
18.148432
 50
162.424988
 51
197.575012
  0
ARC
  8
0
 62
     4
 10
107.300400
 20
103.313560
 40
4.856270
 50
145.580399
 51
214.419601
  0
ARC
  8
0
 62
     4
 10
105.588303
 20
119.763557
 40
4.864549
 50
325.647186
 51
34.352806
  0
ARC
  8
0
 62
     4
 10
92.293030
 20
111.538559
 40
18.157999
 50
342.434509
 51
17.565479
  0
ARC
  8
0
 62
     4
 10
105.588303
 20
103.313560
 40
4.864549
 50
325.647186
 51
34.352806
  0
ARC
  8
0
 62
     4
 10
117.944351
 20
111.538559
 40
7.998571
 50
331.063721
 51
28.936289
  0
ARC
  8
0
 10
90.599945
 20
22.899969
 40
2.100010
 50
270.000000
 51
90.000000
  0
ARC
  8
0
 10
100.899948
 20
12.599970
 40
2.099998
 50
0.000000
 51
180.000000
  0
ARC
  8
0
 10
119.099945
 20
12.599970
 40
2.099998
 50
0.000000
 51
180.000000
  0
ARC
  8
0
 10
129.399948
 20
22.899969
 40
2.100010
 50
90.000000
 51
270.000000
  0
ARC
  8
0
 10
129.399948
 20
41.099968
 40
2.100010
 50
90.000000
 51
270.000000
  0
ARC
  8
0
 10
100.899948
 20
51.399971
 40
2.099998
 50
180.000000
 51
0.000000
  0
ARC
  8
0
 10
119.099945
 20
51.399971
 40
2.099998
 50
180.000000
 51
0.000000
  0
ARC
  8
0
 10
109.961143
 20
32.044994
 40
29.505630
 50
221.900543
 51
228.343796
  0
ARC
  8
0
 10
110.003227
 20
31.996687
 40
29.499866
 50
311.784607
 51
318.215363
  0
ARC
  8
0
 10
109.961250
 20
32.045078
 40
29.496717
 50
41.655220
 51
48.100445
  0
ARC
  8
0
 10
110.003227
 20
31.996687
 40
29.502476
 50
131.771149
 51
138.228851
  0
ARC
  8
0
 10
90.599945
 20
41.099968
 40
2.100010
 50
270.000000
 51
90.000000
  0
CIRCLE
  8
0
 10
109.999947
 20
31.999969
 40
17.000000
  0
CIRCLE
  8
0
 10
126.999947
 20
48.999969
 40
2.458500
  0
CIRCLE
  8
0
 62
     2
 10
126.999947
 20
48.999969
 40
3.000000
  0
CIRCLE
  8
0
 10
126.999947
 20
48.999969
 40
4.000000
  0
CIRCLE
  8
0
 10
92.999947
 20
48.999969
 40
2.458500
  0
CIRCLE
  8
0
 62
     2
 10
92.999947
 20
48.999969
 40
3.000000
  0
CIRCLE
  8
0
 10
92.999947
 20
48.999969
 40
4.000000
  0
CIRCLE
  8
0
 10
92.999947
 20
14.999969
 40
2.458500
  0
CIRCLE
  8
0
 62
     2
 10
92.999947
 20
14.999969
 40
3.000000
  0
CIRCLE
  8
0
 10
92.999947
 20
14.999969
 40
4.000000
  0
CIRCLE
  8
0
 10
126.999947
 20
14.999969
 40
2.458500
  0
CIRCLE
  8
0
 62
     2
 10
126.999947
 20
14.999969
 40
3.000000
  0
CIRCLE
  8
0
 10
126.999947
 20
14.999969
 40
4.000000
  0
CIRCLE
  8
0
 10
-132.000000
 20
48.999969
 40
2.458500
  0
CIRCLE
  8
0
 62
     2
 10
-132.000000
 20
48.999969
 40
3.000000
  0
CIRCLE
  8
0
 10
-132.000000
 20
48.999969
 40
4.000000
  0
CIRCLE
  8
0
 10
-98.000000
 20
48.999969
 40
4.599999
  0
CIRCLE
  8
0
 10
-132.000000
 20
14.999969
 40
4.599999
  0
CIRCLE
  8
0
 10
-132.000000
 20
14.999969
 40
5.000000
  0
CIRCLE
  8
0
 10
-98.000000
 20
48.999969
 40
5.000000
  0
ARC
  8
0
 10
-132.000000
 20
14.999969
 40
7.500031
 50
318.210266
 51
131.789764
  0
ARC
  8
0
 10
-98.000000
 20
48.999969
 40
7.499718
 50
138.167374
 51
311.832611
  0
CIRCLE
  8
0
 62
     4
 10
-115.000000
 20
31.999969
 40
3.375000
  0
CIRCLE
  8
0
 62
     1
 10
-115.000000
 20
31.999969
 40
4.000000
  0
ARC
  8
0
 10
-114.959908
 20
32.043697
 40
29.503799
 50
311.656006
 51
318.099670
  0
ARC
  8
0
 10
-115.043938
 20
32.039841
 40
29.498365
 50
221.899750
 51
228.344604
  0
ARC
  8
0
 10
-115.001862
 20
32.001835
 40
29.495203
 50
131.770355
 51
138.229645
  0
ARC
  8
0
 10
-115.001991
 20
31.997982
 40
29.500648
 50
41.770954
 51
48.229046
  0
CIRCLE
  8
0
 10
-98.000000
 20
14.999969
 40
2.458500
  0
CIRCLE
  8
0
 62
     2
 10
-98.000000
 20
14.999969
 40
3.000000
  0
CIRCLE
  8
0
 10
-98.000000
 20
14.999969
 40
4.000000
  0
CIRCLE
  8
0
 62
     4
 10
-115.000000
 20
31.999969
 40
7.000000
  0
CIRCLE
  8
0
 62
     4
 10
-115.000000
 20
31.999969
 40
8.000000
  0
ARC
  8
0
 62
     4
 10
-26.000000
 20
31.999969
 40
7.998557
 50
331.063660
 51
28.936319
  0
CIRCLE
  8
0
 62
     2
 10
26.000000
 20
31.999969
 40
4.863999
  0
CIRCLE
  8
0
 10
26.000000
 20
31.999969
 40
4.278000
  0
CIRCLE
  8
0
 62
     2
 10
10.000001
 20
31.999969
 40
4.863999
  0
CIRCLE
  8
0
 10
10.000001
 20
31.999969
 40
4.278000
  0
TEXT
  8
0
 10
202.719482
 20
136.868668
 40
6.300000
  1
-G
 50
0.000000
 41
1.052632
 51
0.000000
  7
STANDARD
  0
TEXT
  8
0
 10
121.994667
 20
136.868622
 40
6.300000
  1
-B
 50
0.000000
 41
1.052632
 51
0.000000
  7
STANDARD
  0
TEXT
  8
0
 10
73.857346
 20
-184.050003
 40
4.500000
  1
éPéOü`éPéOéO
 50
0.000000
 41
0.833333
 51
0.000000
  7
STANDARD
  0
TEXT
  8
0
 10
36.857342
 20
-176.050003
 40
4.500000
  1
95
 50
0.000000
 41
1.052632
 51
0.000000
  7
STANDARD
  0
TEXT
  8
0
 10
67.357346
 20
-159.050003
 40
4.500000
  1
DIMENSION(N1,N2)
 50
0.000000
 41
1.052632
 51
0.000000
  7
STANDARD
  0
TEXT
  8
0
 10
124.107346
 20
-184.050003
 40
4.500000
  1
7
 50
0.000000
 41
1.052632
 51
0.000000
  7
STANDARD
  0
TEXT
  8
0
 10
105.857346
 20
-184.050003
 40
4.500000
  1
10
 50
0.000000
 41
1.052632
 51
0.000000
  7
STANDARD
  0
TEXT
  8
0
 10
124.107346
 20
-176.050003
 40
4.500000
  1
6
 50
0.000000
 41
1.052632
 51
0.000000
  7
STANDARD
  0
TEXT
  8
0
 10
103.607346
 20
-176.050003
 40
4.500000
  1
9.5
 50
0.000000
 41
1.052632
 51
0.000000
  7
STANDARD
  0
TEXT
  8
0
 10
85.107346
 20
-176.050003
 40
4.500000
  1
5
 50
0.000000
 41
1.052632
 51
0.000000
  7
STANDARD
  0
TEXT
  8
0
 10
121.857346
 20
-168.050003
 40
4.500000
  1
N2
 50
0.000000
 41
1.052632
 51
0.000000
  7
STANDARD
  0
TEXT
  8
0
 10
105.857346
 20
-168.050003
 40
4.500000
  1
N1
 50
0.000000
 41
1.052632
 51
0.000000
  7
STANDARD
  0
TEXT
  8
0
 10
73.857346
 20
-168.050003
 40
4.500000
  1
STROKE
 50
0.000000
 41
1.052632
 51
0.000000
  7
STANDARD
  0
TEXT
  8
0
 10
-202.892654
 20
-184.050003
 40
4.500000
  1
5
 50
0.000000
 41
1.052632
 51
0.000000
  7
STANDARD
  0
TEXT
  8
0
 10
-202.892654
 20
-168.050003
 40
4.500000
  1
5
 50
0.000000
 41
1.052632
 51
0.000000
  7
STANDARD
  0
TEXT
  8
0
 10
-205.142654
 20
-160.050003
 40
4.500000
  1
-5
 50
0.000000
 41
1.052632
 51
0.000000
  7
STANDARD
  0
TEXT
  8
0
 10
32.357342
 20
-136.050003
 40
4.500000
  1
üiéìéìüj
 50
0.000000
 41
0.833333
 51
0.000000
  7
STANDARD
  0
TEXT
  8
0
 10
-232.249710
 20
135.830002
 40
6.300000
  1
CS-CDA32*ST-R
 50
0.000000
 41
1.052632
 51
0.000000
  7
STANDARD
  0
TEXT
  8
0
 10
-232.249710
 20
145.830002
 40
6.300000
  1
CS-CDAS32*ST
 50
0.000000
 41
1.052632
 51
0.000000
  7
STANDARD
  0
TEXT
  8
0
 10
-270.049713
 20
155.830002
 40
6.300000
  1
MODEL:CS-CDA32*ST(10)
 50
0.000000
 41
1.052632
 51
0.000000
  7
STANDARD
  0
TEXT
  8
0
 62
     3
 10
-20.370815
 20
166.509521
 40
6.300000
  1
STRETCH LINE
 50
0.000000
 41
1.052632
 51
0.000000
  7
STANDARD
  0
TEXT
  8
0
 10
-136.642654
 20
-135.050003
 40
4.500000
  1
STRETCH LIST
 50
0.000000
 41
1.052632
 51
0.000000
  7
STANDARD
  0
TEXT
  8
0
 10
36.857342
 20
-160.050003
 40
4.500000
  1
90
 50
0.000000
 41
1.052632
 51
0.000000
  7
STANDARD
  0
TEXT
  8
0
 10
14.857344
 20
-160.050003
 40
4.500000
  1
65
 50
0.000000
 41
1.052632
 51
0.000000
  7
STANDARD
  0
TEXT
  8
0
 10
-7.142656
 20
-160.050003
 40
4.500000
  1
40
 50
0.000000
 41
1.052632
 51
0.000000
  7
STANDARD
  0
TEXT
  8
0
 10
-29.142656
 20
-160.050003
 40
4.500000
  1
35
 50
0.000000
 41
1.052632
 51
0.000000
  7
STANDARD
  0
TEXT
  8
0
 10
-51.142658
 20
-160.050003
 40
4.500000
  1
30
 50
0.000000
 41
1.052632
 51
0.000000
  7
STANDARD
  0
TEXT
  8
0
 10
-73.142654
 20
-160.050003
 40
4.500000
  1
25
 50
0.000000
 41
1.052632
 51
0.000000
  7
STANDARD
  0
TEXT
  8
0
 10
-95.142654
 20
-160.050003
 40
4.500000
  1
20
 50
0.000000
 41
1.052632
 51
0.000000
  7
STANDARD
  0
TEXT
  8
0
 10
-117.142654
 20
-160.050003
 40
4.500000
  1
15
 50
0.000000
 41
1.052632
 51
0.000000
  7
STANDARD
  0
TEXT
  8
0
 10
-139.142654
 20
-160.050003
 40
4.500000
  1
10
 50
0.000000
 41
1.052632
 51
0.000000
  7
STANDARD
  0
TEXT
  8
0
 10
-158.892654
 20
-160.050003
 40
4.500000
  1
5
 50
0.000000
 41
1.052632
 51
0.000000
  7
STANDARD
  0
TEXT
  8
0
 10
-180.892654
 20
-160.050003
 40
4.500000
  1
0
 50
0.000000
 41
1.052632
 51
0.000000
  7
STANDARD
  0
TEXT
  8
0
 10
-183.142654
 20
-168.050003
 40
4.500000
  1
10
 50
0.000000
 41
1.052632
 51
0.000000
  7
STANDARD
  0
TEXT
  8
0
 10
-161.142654
 20
-168.050003
 40
4.500000
  1
15
 50
0.000000
 41
1.052632
 51
0.000000
  7
STANDARD
  0
TEXT
  8
0
 10
-139.142654
 20
-168.050003
 40
4.500000
  1
20
 50
0.000000
 41
1.052632
 51
0.000000
  7
STANDARD
  0
TEXT
  8
0
 10
-117.142654
 20
-168.050003
 40
4.500000
  1
25
 50
0.000000
 41
1.052632
 51
0.000000
  7
STANDARD
  0
TEXT
  8
0
 10
-95.142654
 20
-168.050003
 40
4.500000
  1
30
 50
0.000000
 41
1.052632
 51
0.000000
  7
STANDARD
  0
TEXT
  8
0
 10
-73.142654
 20
-168.050003
 40
4.500000
  1
35
 50
0.000000
 41
1.052632
 51
0.000000
  7
STANDARD
  0
TEXT
  8
0
 10
-51.142658
 20
-168.050003
 40
4.500000
  1
40
 50
0.000000
 41
1.052632
 51
0.000000
  7
STANDARD
  0
TEXT
  8
0
 10
-29.142656
 20
-168.050003
 40
4.500000
  1
45
 50
0.000000
 41
1.052632
 51
0.000000
  7
STANDARD
  0
TEXT
  8
0
 10
-7.142656
 20
-168.050003
 40
4.500000
  1
50
 50
0.000000
 41
1.052632
 51
0.000000
  7
STANDARD
  0
TEXT
  8
0
 10
14.857344
 20
-168.050003
 40
4.500000
  1
75
 50
0.000000
 41
1.052632
 51
0.000000
  7
STANDARD
  0
TEXT
  8
0
 10
34.607342
 20
-168.050003
 40
4.500000
  1
100
 50
0.000000
 41
1.052632
 51
0.000000
  7
STANDARD
  0
TEXT
  8
0
 10
34.607342
 20
-184.050003
 40
4.500000
  1
100
 50
0.000000
 41
1.052632
 51
0.000000
  7
STANDARD
  0
TEXT
  8
0
 10
14.857344
 20
-184.050003
 40
4.500000
  1
75
 50
0.000000
 41
1.052632
 51
0.000000
  7
STANDARD
  0
TEXT
  8
0
 10
-7.142656
 20
-184.050003
 40
4.500000
  1
50
 50
0.000000
 41
1.052632
 51
0.000000
  7
STANDARD
  0
TEXT
  8
0
 10
-29.142656
 20
-184.050003
 40
4.500000
  1
45
 50
0.000000
 41
1.052632
 51
0.000000
  7
STANDARD
  0
TEXT
  8
0
 10
-51.142658
 20
-184.050003
 40
4.500000
  1
40
 50
0.000000
 41
1.052632
 51
0.000000
  7
STANDARD
  0
TEXT
  8
0
 10
-73.142654
 20
-184.050003
 40
4.500000
  1
35
 50
0.000000
 41
1.052632
 51
0.000000
  7
STANDARD
  0
TEXT
  8
0
 10
-95.142654
 20
-184.050003
 40
4.500000
  1
30
 50
0.000000
 41
1.052632
 51
0.000000
  7
STANDARD
  0
TEXT
  8
0
 10
-117.142654
 20
-184.050003
 40
4.500000
  1
25
 50
0.000000
 41
1.052632
 51
0.000000
  7
STANDARD
  0
TEXT
  8
0
 10
-139.142654
 20
-184.050003
 40
4.500000
  1
20
 50
0.000000
 41
1.052632
 51
0.000000
  7
STANDARD
  0
TEXT
  8
0
 10
-161.142654
 20
-184.050003
 40
4.500000
  1
15
 50
0.000000
 41
1.052632
 51
0.000000
  7
STANDARD
  0
TEXT
  8
0
 10
-183.142654
 20
-184.050003
 40
4.500000
  1
10
 50
0.000000
 41
1.052632
 51
0.000000
  7
STANDARD
  0
TEXT
  8
0
 10
14.857344
 20
-176.050003
 40
4.500000
  1
70
 50
0.000000
 41
1.052632
 51
0.000000
  7
STANDARD
  0
TEXT
  8
0
 10
-7.142656
 20
-176.050003
 40
4.500000
  1
45
 50
0.000000
 41
1.052632
 51
0.000000
  7
STANDARD
  0
TEXT
  8
0
 10
-29.142656
 20
-176.050003
 40
4.500000
  1
40
 50
0.000000
 41
1.052632
 51
0.000000
  7
STANDARD
  0
TEXT
  8
0
 10
-51.142658
 20
-176.050003
 40
4.500000
  1
35
 50
0.000000
 41
1.052632
 51
0.000000
  7
STANDARD
  0
TEXT
  8
0
 10
-73.142654
 20
-176.050003
 40
4.500000
  1
30
 50
0.000000
 41
1.052632
 51
0.000000
  7
STANDARD
  0
TEXT
  8
0
 10
-95.142654
 20
-176.050003
 40
4.500000
  1
25
 50
0.000000
 41
1.052632
 51
0.000000
  7
STANDARD
  0
TEXT
  8
0
 10
-117.142654
 20
-176.050003
 40
4.500000
  1
20
 50
0.000000
 41
1.052632
 51
0.000000
  7
STANDARD
  0
TEXT
  8
0
 10
-139.142654
 20
-176.050003
 40
4.500000
  1
15
 50
0.000000
 41
1.052632
 51
0.000000
  7
STANDARD
  0
TEXT
  8
0
 10
-161.142654
 20
-176.050003
 40
4.500000
  1
10
 50
0.000000
 41
1.052632
 51
0.000000
  7
STANDARD
  0
TEXT
  8
0
 10
-180.892654
 20
-176.050003
 40
4.500000
  1
5
 50
0.000000
 41
1.052632
 51
0.000000
  7
STANDARD
  0
TEXT
  8
0
 10
-202.892654
 20
-176.050003
 40
4.500000
  1
0
 50
0.000000
 41
1.052632
 51
0.000000
  7
STANDARD
  0
TEXT
  8
0
 10
-29.142656
 20
-148.050003
 40
4.500000
  1
45
 50
0.000000
 41
1.052632
 51
0.000000
  7
STANDARD
  0
TEXT
  8
0
 10
-51.142658
 20
-148.050003
 40
4.500000
  1
40
 50
0.000000
 41
1.052632
 51
0.000000
  7
STANDARD
  0
TEXT
  8
0
 10
-73.142654
 20
-148.050003
 40
4.500000
  1
35
 50
0.000000
 41
1.052632
 51
0.000000
  7
STANDARD
  0
TEXT
  8
0
 10
-95.142654
 20
-148.050003
 40
4.500000
  1
30
 50
0.000000
 41
1.052632
 51
0.000000
  7
STANDARD
  0
TEXT
  8
0
 10
-117.142654
 20
-148.050003
 40
4.500000
  1
25
 50
0.000000
 41
1.052632
 51
0.000000
  7
STANDARD
  0
TEXT
  8
0
 10
-139.142654
 20
-148.050003
 40
4.500000
  1
20
 50
0.000000
 41
1.052632
 51
0.000000
  7
STANDARD
  0
TEXT
  8
0
 10
-161.142654
 20
-148.050003
 40
4.500000
  1
15
 50
0.000000
 41
1.052632
 51
0.000000
  7
STANDARD
  0
TEXT
  8
0
 10
-183.142654
 20
-148.050003
 40
4.500000
  1
10
 50
0.000000
 41
1.052632
 51
0.000000
  7
STANDARD
  0
TEXT
  8
0
 10
-202.892654
 20
-148.050003
 40
4.500000
  1
5
 50
0.000000
 41
1.052632
 51
0.000000
  7
STANDARD
  0
TEXT
  8
0
 10
-240.142654
 20
-144.050003
 40
4.500000
  1
STROKE
 50
0.000000
 41
1.052632
 51
0.000000
  7
STANDARD
  0
TEXT
  8
0
 10
-265.642670
 20
-152.050003
 40
4.500000
  1
TYPE
 50
0.000000
 41
1.052632
 51
0.000000
  7
STANDARD
  0
TEXT
  8
0
 10
-264.000000
 20
-184.050003
 40
4.500000
  1
CS-CDAS32-R
 50
0.000000
 41
1.052632
 51
0.000000
  7
STANDARD
  0
TEXT
  8
0
 10
34.607342
 20
-148.050003
 40
4.500000
  1
100
 50
0.000000
 41
1.052632
 51
0.000000
  7
STANDARD
  0
TEXT
  8
0
 10
14.857344
 20
-148.050003
 40
4.500000
  1
75
 50
0.000000
 41
1.052632
 51
0.000000
  7
STANDARD
  0
TEXT
  8
0
 10
-7.142656
 20
-148.050003
 40
4.500000
  1
50
 50
0.000000
 41
1.052632
 51
0.000000
  7
STANDARD
  0
TEXT
  8
0
 10
-264.000000
 20
-158.699997
 40
4.500000
  1
CS-CDA32
 50
0.000000
 41
1.052632
 51
0.000000
  7
STANDARD
  0
TEXT
  8
0
 10
-264.000000
 20
-166.699997
 40
4.500000
  1
CS-CDAS32
 50
0.000000
 41
1.052632
 51
0.000000
  7
STANDARD
  0
TEXT
  8
0
 10
-264.000000
 20
-174.699997
 40
4.500000
  1
CS-CDA32-R
 50
0.000000
 41
1.052632
 51
0.000000
  7
STANDARD
  0
TEXT
  8
0
 10
-232.249710
 20
125.830002
 40
6.300000
  1
CS-CDAS32*ST-R
 50
0.000000
 41
1.052632
 51
0.000000
  7
STANDARD
  0
TEXT
  8
0
 10
-269.149719
 20
180.830002
 40
6.300000
  1
CS JIG CYLINDER
 50
0.000000
 41
1.052632
 51
0.000000
  7
STANDARD
  0
TEXT
  8
0
 10
196.250259
 20
180.830002
 40
6.300000
  1
éuüvÕú‗.ü@éPüDéO
 50
0.000000
 41
0.833333
 51
0.000000
  7
STANDARD
  0
TEXT
  8
0
 10
167.564667
 20
-192.100006
 40
9.000000
  1
KOGANEI CORP.
 50
0.000000
 41
1.052632
 51
0.000000
  7
STANDARD
  0
TEXT
  8
0
 62
     2
 10
26.093002
 20
63.973564
 40
3.200000
  1
N2
 50
0.000000
 41
1.052632
 51
0.000000
  7
STANDARD
  0
LINE
  8
0
 62
     2
 10
26.000002
 20
62.973564
 11
33.000000
 21
62.973564
  0
LINE
  8
0
 62
     2
 10
26.000002
 20
62.973564
 11
23.102224
 21
62.197105
  0
LINE
  8
0
 62
     2
 10
26.000002
 20
62.973564
 11
23.102224
 21
63.750023
  0
LINE
  8
0
 62
     2
 10
26.000002
 20
62.973564
 11
20.000002
 21
62.973564
  0
LINE
  8
0
 62
     2
 10
33.000000
 20
62.973564
 11
35.897778
 21
63.750023
  0
LINE
  8
0
 62
     2
 10
33.000000
 20
62.973564
 11
35.897778
 21
62.197105
  0
LINE
  8
0
 62
     2
 10
33.000000
 20
62.973564
 11
39.000000
 21
62.973564
  0
LINE
  8
0
 62
     2
 10
26.000002
 20
35.619396
 11
26.000002
 21
64.473564
  0
LINE
  8
0
 62
     2
 10
33.000000
 20
53.999969
 11
33.000000
 21
64.473564
  0
TEXT
  8
0
 62
     2
 10
1.593001
 20
63.973564
 40
3.200000
  1
N1
 50
0.000000
 41
1.052632
 51
0.000000
  7
STANDARD
  0
LINE
  8
0
 62
     2
 10
0.000001
 20
62.973564
 11
10.000001
 21
62.973564
  0
LINE
  8
0
 62
     2
 10
0.000001
 20
62.973564
 11
2.897779
 21
63.750023
  0
LINE
  8
0
 62
     2
 10
0.000001
 20
62.973564
 11
2.897779
 21
62.197105
  0
LINE
  8
0
 62
     2
 10
10.000001
 20
62.973564
 11
7.102223
 21
62.197105
  0
LINE
  8
0
 62
     2
 10
10.000001
 20
62.973564
 11
7.102223
 21
63.750023
  0
LINE
  8
0
 62
     2
 10
0.000001
 20
53.999969
 11
0.000001
 21
64.473564
  0
LINE
  8
0
 62
     2
 10
10.000001
 20
36.121307
 11
10.000001
 21
64.473564
  0
ENDSEC
  0
EOF
