  0
SECTION
  2
HEADER
  0
ENDSEC
  0
SECTION
  2
TABLES
  0
TABLE
  2
LTYPE
 70
     4
  0
LTYPE
  2
CONTINUOUS
 70
    64
  3
Solid line
 72
    65
 73
     0
 40
0.000000
  0
LTYPE
  2
DASHED
 70
    64
  3
__ __ __ __ __ __ __ __ __ __ __ __ __ __ __
 72
    65
 73
     2
 40
3.500000
 49
2.000000
 49
-1.500000
  0
LTYPE
  2
CENTER
 70
    64
  3
____ _ ____ _ ____ _ ____ _ ____ _ ____ _ ____
 72
    65
 73
     4
 40
17.500000
 49
13.000000
 49
-1.500000
 49
1.500000
 49
-1.500000
  0
LTYPE
  2
PHANTOM
 70
    64
  3
_____ _ _ _____ _ _ _____ _ _ _____ _ _ ____  
 72
    65
 73
     6
 40
15.500000
 49
8.000000
 49
-1.500000
 49
1.500000
 49
-1.500000
 49
1.500000
 49
-1.500000
  0
LTYPE
  2
DASHED1
 70
    64
  3
__ __ __ __ __ __ __ __ __ __ __ __ __ __ __
 72
    65
 73
     2
 40
1.500000
 49
1.000000
 49
-0.500000
  0
LTYPE
  2
DASHED2
 70
    64
  3
__ __ __ __ __ __ __ __ __ __ __ __ __ __ __
 72
    65
 73
     2
 40
3.500000
 49
2.500000
 49
-1.000000
  0
LTYPE
  2
DASHED3
 70
    64
  3
__ __ __ __ __ __ __ __ __ __ __ __ __ __ __
 72
    65
 73
     2
 40
6.000000
 49
4.000000
 49
-2.000000
  0
LTYPE
  2
DASHED4
 70
    64
  3
__ __ __ __ __ __ __ __ __ __ __ __ __ __ __
 72
    65
 73
     2
 40
12.000000
 49
10.000000
 49
-2.000000
  0
LTYPE
  2
DASHED5
 70
    64
  3
__ __ __ __ __ __ __ __ __ __ __ __ __ __ __
 72
    65
 73
     2
 40
17.000000
 49
15.000000
 49
-2.000000
  0
LTYPE
  2
DASHED6
 70
    64
  3
__ __ __ __ __ __ __ __ __ __ __ __ __ __ __
 72
    65
 73
     2
 40
29.000000
 49
27.000000
 49
-2.000000
  0
LTYPE
  2
PHANTOM1
 70
    64
  3
_____ _ _ _____ _ _ _____ _ _ _____ _ _ ____  
 72
    65
 73
     6
 40
31.000000
 49
25.000000
 49
-1.500000
 49
1.000000
 49
-1.000000
 49
1.000000
 49
-1.500000
  0
LTYPE
  2
PHANTOM2
 70
    64
  3
_____ _ _ _____ _ _ _____ _ _ _____ _ _ ____  
 72
    65
 73
     6
 40
36.000000
 49
27.000000
 49
-1.500000
 49
2.500000
 49
-1.000000
 49
2.500000
 49
-1.500000
  0
LTYPE
  2
PHANTOM3
 70
    64
  3
_____ _ _ _____ _ _ _____ _ _ _____ _ _ ____  
 72
    65
 73
     6
 40
78.000000
 49
64.000000
 49
-2.000000
 49
4.000000
 49
-2.000000
 49
4.000000
 49
-2.000000
  0
LTYPE
  2
CENTER1
 70
    64
  3
____ _ ____ _ ____ _ ____ _ ____ _ ____ _ ____
 72
    65
 73
     4
 40
19.000000
 49
14.000000
 49
-1.000000
 49
3.000000
 49
-1.000000
  0
LTYPE
  2
CENTER2
 70
    64
  3
____ _ ____ _ ____ _ ____ _ ____ _ ____ _ ____
 72
    65
 73
     4
 40
28.500000
 49
25.000000
 49
-1.000000
 49
1.500000
 49
-1.000000
  0
LTYPE
  2
CENTER3
 70
    64
  3
____ _ ____ _ ____ _ ____ _ ____ _ ____ _ ____
 72
    65
 73
     4
 40
31.500000
 49
27.000000
 49
-1.000000
 49
2.500000
 49
-1.000000
  0
LTYPE
  2
CENTER4
 70
    64
  3
____ _ ____ _ ____ _ ____ _ ____ _ ____ _ ____
 72
    65
 73
     4
 40
50.000000
 49
45.000000
 49
-1.000000
 49
3.000000
 49
-1.000000
  0
LTYPE
  2
CENTER5
 70
    64
  3
____ _ ____ _ ____ _ ____ _ ____ _ ____ _ ____
 72
    65
 73
     4
 40
100.000000
 49
92.000000
 49
-2.000000
 49
4.000000
 49
-2.000000
  0
LTYPE
  2
SBK1
 70
    64
  3
______ _ _ _ ______ _ _ _ ______ _ _ _ _____  
 72
    65
 73
     8
 40
60.500000
 49
45.000000
 49
-2.000000
 49
2.500000
 49
-2.000000
 49
2.500000
 49
-2.000000
 49
2.500000
 49
-2.000000
  0
LTYPE
  2
SBK2
 70
    64
  3
______ _ _ _ ______ _ _ _ ______ _ _ _ _____  
 72
    65
 73
     8
 40
84.000000
 49
64.000000
 49
-2.000000
 49
4.000000
 49
-2.000000
 49
4.000000
 49
-2.000000
 49
4.000000
 49
-2.000000
  0
LTYPE
  2
STCH
 70
    64
  3
__ __ __ __ __ __ __ __ __ __ __ __ __ __ __
 72
    65
 73
     2
 40
3.000000
 49
1.000000
 49
-2.000000
  0
LTYPE
  2
MTCH
 70
    64
  3
_____ _ _ _____ _ _ _____ _ _ _____ _ _ ____  
 72
    65
 73
     6
 40
80.000000
 49
66.000000
 49
-2.000000
 49
4.000000
 49
-2.000000
 49
4.000000
 49
-2.000000
  0
ENDTAB
  0
TABLE
  2
LAYER
 70
     1
  0
LAYER
  2
0
 70
     0
 62
     7
  6
CONTINUOUS
  0
ENDTAB
  0
TABLE
  2
STYLE
 70
     1
  0
STYLE
  2
STANDARD
 70
     0
 40
0.000000
 41
1.000000
 50
0.000000
 71
     0
 42
0.200000
  3
txt
  4
BIGFONT
  0
ENDTAB
  0
TABLE
  2
VIEW
 70
     0
  0
ENDTAB
  0
ENDSEC
  0
SECTION
  2
BLOCKS
  0
ENDSEC
  0
SECTION
  2
ENTITIES
  0
LINE
  8
0
 62
     4
 10
-68.679535
 20
-92.675903
 11
-46.679535
 21
-92.675903
  0
LINE
  8
0
 62
     4
 10
-63.979534
 20
-97.275902
 11
-46.679535
 21
-97.275902
  0
LINE
  8
0
 62
     4
 10
-46.679535
 20
-92.675903
 11
-46.679535
 21
-97.275902
  0
LINE
  8
0
 62
     4
 10
-68.679535
 20
-94.475906
 11
-68.679535
 21
-92.675903
  0
LINE
  8
0
 62
     4
 10
-63.979534
 20
-95.715904
 11
-63.979534
 21
-97.275902
  0
LINE
  8
0
 62
     4
 10
-68.679535
 20
-94.475906
 11
-64.429535
 21
-94.475906
  0
LINE
  8
0
  6
CENTER
 62
     1
 10
-66.679535
 20
-91.875900
 11
-66.679535
 21
-98.105904
  0
LINE
  8
0
 62
     4
 10
-64.429535
 20
-94.475906
 11
-64.429535
 21
-95.715904
  0
LINE
  8
0
 62
     4
 10
-64.679535
 20
-94.475906
 11
-64.679535
 21
-95.275902
  0
LINE
  8
0
 62
     4
 10
-68.679535
 20
-94.475906
 11
-68.679535
 21
-95.275902
  0
LINE
  8
0
 62
     4
 10
-68.679535
 20
-95.275902
 11
-64.679535
 21
-95.275902
  0
LINE
  8
0
 62
     4
 10
-64.479538
 20
-94.475906
 11
-64.479538
 21
-96.475906
  0
LINE
  8
0
 62
     4
 10
-64.479538
 20
-96.475906
 11
-63.979534
 21
-96.475906
  0
LINE
  8
0
 62
     4
 10
-64.429535
 20
-95.715904
 11
-63.979534
 21
-95.715904
  0
LINE
  8
0
 62
     4
 10
-38.179535
 20
-93.675903
 11
-38.179535
 21
-96.275902
  0
LINE
  8
0
  6
CENTER
 62
     1
 10
-39.909534
 20
-94.525902
 11
-27.979534
 21
-94.525902
  0
LINE
  8
0
  6
CENTER
 62
     1
 10
-39.859535
 20
-95.425903
 11
-27.929535
 21
-95.425903
  0
LINE
  8
0
 62
     4
 10
-28.179535
 20
-94.275902
 11
-28.179535
 21
-94.775902
  0
LINE
  8
0
 62
     4
 10
-28.179535
 20
-95.175903
 11
-28.179535
 21
-95.675903
  0
LINE
  8
0
 62
     4
 10
-31.179535
 20
-94.075905
 11
-31.179535
 21
-95.875900
  0
LINE
  8
0
 62
     4
 10
-38.179535
 20
-95.875900
 11
-34.179535
 21
-95.875900
  0
LINE
  8
0
 62
     4
 10
-38.179535
 20
-94.975906
 11
-34.699535
 21
-94.975906
  0
LINE
  8
0
 62
     4
 10
-33.199535
 20
-94.975906
 11
-31.179535
 21
-94.975906
  0
LINE
  8
0
 62
     4
 10
-32.679535
 20
-95.875900
 11
-31.179535
 21
-95.875900
  0
LINE
  8
0
 62
     4
 10
-38.179535
 20
-94.075905
 11
-35.219536
 21
-94.075905
  0
LINE
  8
0
 62
     4
 10
-33.719536
 20
-94.075905
 11
-31.179535
 21
-94.075905
  0
LINE
  8
0
 62
     4
 10
-31.179535
 20
-94.275902
 11
-28.179535
 21
-94.275902
  0
LINE
  8
0
 62
     4
 10
-31.179535
 20
-94.775902
 11
-28.179535
 21
-94.775902
  0
LINE
  8
0
 62
     4
 10
-31.179535
 20
-95.175903
 11
-28.179535
 21
-95.175903
  0
LINE
  8
0
 62
     4
 10
-31.179535
 20
-95.675903
 11
-28.179535
 21
-95.675903
  0
LINE
  8
0
 62
     1
 10
-34.449535
 20
-92.805901
 11
-31.949532
 21
-97.135902
  0
LINE
  8
0
  6
CENTER
 62
     1
 10
-47.999535
 20
-94.975906
 11
-38.179535
 21
-94.975906
  0
LINE
  8
0
 62
     1
 10
-35.949532
 20
-92.805901
 11
-33.449532
 21
-97.135902
  0
LINE
  8
0
 62
     1
 10
-43.429531
 20
-92.805901
 11
-40.929531
 21
-97.135902
  0
LINE
  8
0
 62
     1
 10
-44.929535
 20
-92.805901
 11
-42.429535
 21
-97.135902
  0
LINE
  8
0
 62
     4
 10
-67.709534
 20
-96.675903
 11
-65.659538
 21
-96.675903
  0
LINE
  8
0
 62
     4
 10
-65.659538
 20
-96.675903
 11
-65.429535
 21
-96.445900
  0
LINE
  8
0
 62
     4
 10
-67.709534
 20
-96.675903
 11
-67.929535
 21
-96.445900
  0
LINE
  8
0
 62
     4
 10
-67.929535
 20
-95.265900
 11
-67.929535
 21
-96.445900
  0
LINE
  8
0
 62
     1
 10
-67.709534
 20
-95.265900
 11
-67.709534
 21
-96.675903
  0
LINE
  8
0
 62
     1
 10
-65.659538
 20
-95.265900
 11
-65.659538
 21
-96.675903
  0
LINE
  8
0
 62
     4
 10
-65.429535
 20
-95.265900
 11
-65.429535
 21
-96.445900
  0
LINE
  8
0
 62
     4
 10
-67.929535
 20
-96.445900
 11
-65.429535
 21
-96.445900
  0
LINE
  8
0
 62
     4
 10
-67.929535
 20
-92.175903
 11
-67.929535
 21
-92.675903
  0
LINE
  8
0
 62
     1
 10
-67.709534
 20
-92.175903
 11
-67.709534
 21
-92.675903
  0
LINE
  8
0
 62
     1
 10
-65.659538
 20
-92.175903
 11
-65.659538
 21
-92.675903
  0
LINE
  8
0
 62
     4
 10
-65.429535
 20
-92.175903
 11
-65.429535
 21
-92.675903
  0
LINE
  8
0
 62
     4
 10
-67.929535
 20
-92.175903
 11
-65.429535
 21
-92.175903
  0
LINE
  8
0
 62
     4
 10
-68.679535
 20
-93.675903
 11
-46.679535
 21
-93.675903
  0
LINE
  8
0
 62
     4
 10
-68.679535
 20
-93.125900
 11
-46.679535
 21
-93.125900
  0
LINE
  8
0
 62
     4
 10
-46.679535
 20
-93.675903
 11
-44.429535
 21
-93.675903
  0
LINE
  8
0
 62
     4
 10
-46.679535
 20
-96.275902
 11
-42.929535
 21
-96.275902
  0
LINE
  8
0
 62
     4
 10
-42.929535
 20
-93.675903
 11
-38.179535
 21
-93.675903
  0
LINE
  8
0
 62
     4
 10
-41.429535
 20
-96.275902
 11
-38.179535
 21
-96.275902
  0
LINE
  8
0
 62
     4
 10
-115.272247
 20
-93.675797
 11
-115.272247
 21
-95.225800
  0
LINE
  8
0
 62
     4
 10
-115.272247
 20
-93.675797
 11
-114.722244
 21
-93.125793
  0
LINE
  8
0
 62
     4
 10
-114.722244
 20
-92.675797
 11
-114.722244
 21
-93.125793
  0
LINE
  8
0
 62
     4
 10
-114.722244
 20
-92.675797
 11
-111.722244
 21
-92.675797
  0
LINE
  8
0
 62
     4
 10
-111.722244
 20
-92.675797
 11
-111.722244
 21
-93.125793
  0
LINE
  8
0
 62
     4
 10
-111.172241
 20
-93.675797
 11
-111.722244
 21
-93.125793
  0
LINE
  8
0
 62
     4
 10
-111.172241
 20
-93.675797
 11
-111.172241
 21
-95.225800
  0
LINE
  8
0
 62
     4
 10
-115.272247
 20
-94.475800
 11
-111.172241
 21
-94.475800
  0
LINE
  8
0
 62
     4
 10
-115.272247
 20
-95.265793
 11
-111.172241
 21
-95.265793
  0
LINE
  8
0
 62
     4
 10
-114.242241
 20
-96.675797
 11
-112.202248
 21
-96.675797
  0
LINE
  8
0
 62
     4
 10
-112.202248
 20
-96.675797
 11
-111.972244
 21
-96.445793
  0
LINE
  8
0
 62
     4
 10
-114.242233
 20
-96.675789
 11
-114.472237
 21
-96.445786
  0
LINE
  8
0
 62
     4
 10
-114.472244
 20
-95.265793
 11
-114.472244
 21
-96.445793
  0
LINE
  8
0
 62
     1
 10
-114.242241
 20
-95.265793
 11
-114.242241
 21
-96.675797
  0
LINE
  8
0
 62
     1
 10
-112.202248
 20
-95.265793
 11
-112.202248
 21
-96.675797
  0
LINE
  8
0
 62
     4
 10
-111.972244
 20
-95.265793
 11
-111.972244
 21
-96.445793
  0
LINE
  8
0
 62
     4
 10
-114.472244
 20
-96.445793
 11
-111.972244
 21
-96.445793
  0
LINE
  8
0
 62
     4
 10
-114.472244
 20
-92.175797
 11
-114.472244
 21
-92.675797
  0
LINE
  8
0
 62
     1
 10
-114.242241
 20
-92.175797
 11
-114.242241
 21
-92.675797
  0
LINE
  8
0
 62
     1
 10
-112.202248
 20
-92.175797
 11
-112.202248
 21
-92.675797
  0
LINE
  8
0
 62
     4
 10
-111.972244
 20
-92.175797
 11
-111.972244
 21
-92.675797
  0
LINE
  8
0
 62
     4
 10
-114.472244
 20
-92.175797
 11
-111.972244
 21
-92.175797
  0
LINE
  8
0
  6
CENTER
 62
     1
 10
-113.222244
 20
-90.625793
 11
-113.222244
 21
-99.335800
  0
LINE
  8
0
  6
CENTER
 62
     1
 10
-71.479523
 20
-50.125793
 11
-41.279518
 21
-50.125793
  0
LINE
  8
0
 62
     4
 10
-68.679520
 20
-51.625793
 11
-46.679520
 21
-51.625793
  0
LINE
  8
0
 62
     4
 10
-68.679520
 20
-48.625793
 11
-46.679520
 21
-48.625793
  0
LINE
  8
0
 62
     4
 10
-68.679520
 20
-52.175793
 11
-46.679520
 21
-52.175793
  0
LINE
  8
0
 62
     4
 10
-68.679520
 20
-48.075794
 11
-46.679520
 21
-48.075794
  0
LINE
  8
0
 62
     4
 10
-68.679520
 20
-48.075794
 11
-68.679520
 21
-52.175793
  0
LINE
  8
0
 62
     4
 10
-46.679520
 20
-48.075794
 11
-46.679520
 21
-52.175793
  0
LINE
  8
0
  6
CENTER
 62
     1
 10
-66.679520
 20
-47.295792
 11
-66.679520
 21
-52.875793
  0
LINE
  8
0
 62
     4
 10
-67.729515
 20
-50.835789
 11
-65.999519
 21
-49.105793
  0
LINE
  8
0
 62
     4
 10
-67.379517
 20
-51.185799
 11
-65.739517
 21
-49.565796
  0
LINE
  8
0
 62
     1
 10
-45.599518
 20
-47.965794
 11
-43.099518
 21
-52.285793
  0
LINE
  8
0
 62
     4
 10
-46.679520
 20
-48.825794
 11
-45.099518
 21
-48.825794
  0
LINE
  8
0
 62
     4
 10
-46.679520
 20
-51.425793
 11
-43.589520
 21
-51.425793
  0
LINE
  8
0
 62
     4
 10
89.131424
 20
-92.675797
 11
105.231422
 21
-92.675797
  0
LINE
  8
0
 62
     4
 10
93.831421
 20
-97.275795
 11
111.131424
 21
-97.275795
  0
LINE
  8
0
 62
     4
 10
111.131424
 20
-85.775795
 11
111.131424
 21
-97.275795
  0
LINE
  8
0
 62
     4
 10
89.131424
 20
-95.275795
 11
89.131424
 21
-92.675797
  0
LINE
  8
0
 62
     4
 10
93.831421
 20
-95.655800
 11
93.831421
 21
-97.275795
  0
LINE
  8
0
  6
CENTER
 62
     1
 10
91.131424
 20
-91.945793
 11
91.131424
 21
-97.845795
  0
LINE
  8
0
 62
     4
 10
105.231422
 20
-85.775795
 11
105.231422
 21
-92.675797
  0
LINE
  8
0
 62
     4
 10
89.131424
 20
-94.475800
 11
93.401421
 21
-94.475800
  0
LINE
  8
0
 62
     4
 10
89.131424
 20
-95.275795
 11
93.131424
 21
-95.275795
  0
LINE
  8
0
 62
     4
 10
93.131424
 20
-94.475800
 11
93.131424
 21
-95.275795
  0
LINE
  8
0
 62
     4
 10
105.231422
 20
-85.775795
 11
111.131424
 21
-85.775795
  0
LINE
  8
0
 62
     4
 10
93.331421
 20
-96.475800
 11
93.831421
 21
-96.475800
  0
LINE
  8
0
 62
     4
 10
93.331421
 20
-94.475800
 11
93.331421
 21
-96.475800
  0
LINE
  8
0
 62
     4
 10
93.401421
 20
-95.655800
 11
93.831421
 21
-95.655800
  0
LINE
  8
0
 62
     4
 10
93.401421
 20
-94.475800
 11
93.401421
 21
-95.655800
  0
LINE
  8
0
 62
     4
 10
89.131424
 20
-93.675797
 11
111.131424
 21
-93.675797
  0
LINE
  8
0
 62
     4
 10
89.131424
 20
-93.125793
 11
111.131424
 21
-93.125793
  0
LINE
  8
0
 62
     4
 10
105.231422
 20
-91.525795
 11
111.131424
 21
-91.525795
  0
LINE
  8
0
 62
     4
 10
105.231422
 20
-92.275795
 11
111.131424
 21
-92.275795
  0
LINE
  8
0
 62
     4
 10
105.231422
 20
-87.275795
 11
111.131424
 21
-87.275795
  0
LINE
  8
0
 62
     4
 10
107.231422
 20
-77.275795
 11
109.831421
 21
-77.275795
  0
LINE
  8
0
  6
CENTER
 62
     1
 10
108.081421
 20
-79.005798
 11
108.081421
 21
-67.075798
  0
LINE
  8
0
  6
CENTER
 62
     1
 10
108.981422
 20
-78.955795
 11
108.981422
 21
-67.025795
  0
LINE
  8
0
 62
     4
 10
107.831421
 20
-67.275795
 11
108.331421
 21
-67.275795
  0
LINE
  8
0
 62
     4
 10
108.731422
 20
-67.275795
 11
109.231422
 21
-67.275795
  0
LINE
  8
0
 62
     4
 10
107.631424
 20
-70.275795
 11
109.431427
 21
-70.275795
  0
LINE
  8
0
 62
     4
 10
109.431427
 20
-77.275795
 11
109.431427
 21
-73.275795
  0
LINE
  8
0
 62
     4
 10
108.531425
 20
-77.275795
 11
108.531425
 21
-73.795799
  0
LINE
  8
0
 62
     4
 10
108.531425
 20
-72.295799
 11
108.531425
 21
-70.275795
  0
LINE
  8
0
 62
     4
 10
109.431427
 20
-71.775795
 11
109.431427
 21
-70.275795
  0
LINE
  8
0
 62
     4
 10
107.631424
 20
-77.275795
 11
107.631424
 21
-74.315796
  0
LINE
  8
0
 62
     4
 10
107.631424
 20
-72.815796
 11
107.631424
 21
-70.275795
  0
LINE
  8
0
 62
     4
 10
107.831421
 20
-70.275795
 11
107.831421
 21
-67.275795
  0
LINE
  8
0
 62
     4
 10
108.331421
 20
-70.275795
 11
108.331421
 21
-67.275795
  0
LINE
  8
0
 62
     4
 10
108.731422
 20
-70.275795
 11
108.731422
 21
-67.275795
  0
LINE
  8
0
 62
     4
 10
109.231422
 20
-70.275795
 11
109.231422
 21
-67.275795
  0
LINE
  8
0
 62
     1
 10
106.371422
 20
-73.545799
 11
110.701424
 21
-71.045799
  0
LINE
  8
0
  6
CENTER
 62
     1
 10
108.531425
 20
-87.095795
 11
108.531425
 21
-77.275795
  0
LINE
  8
0
 62
     1
 10
106.371422
 20
-75.045799
 11
110.701424
 21
-72.545799
  0
LINE
  8
0
 62
     1
 10
106.371422
 20
-82.525795
 11
110.701424
 21
-80.025795
  0
LINE
  8
0
 62
     1
 10
106.371422
 20
-84.025795
 11
110.701424
 21
-81.525795
  0
LINE
  8
0
 62
     4
 10
90.101425
 20
-96.675797
 11
92.151421
 21
-96.675797
  0
LINE
  8
0
 62
     4
 10
92.151421
 20
-96.675797
 11
92.381424
 21
-96.445793
  0
LINE
  8
0
 62
     4
 10
90.101433
 20
-96.675804
 11
89.881424
 21
-96.445793
  0
LINE
  8
0
 62
     4
 10
89.881424
 20
-95.275795
 11
89.881424
 21
-96.445793
  0
LINE
  8
0
 62
     1
 10
90.101425
 20
-95.275795
 11
90.101425
 21
-96.675797
  0
LINE
  8
0
 62
     1
 10
92.151421
 20
-95.275795
 11
92.151421
 21
-96.675797
  0
LINE
  8
0
 62
     4
 10
92.381424
 20
-95.275795
 11
92.381424
 21
-96.445793
  0
LINE
  8
0
 62
     4
 10
89.881424
 20
-96.445793
 11
92.381424
 21
-96.445793
  0
LINE
  8
0
 62
     4
 10
89.881424
 20
-92.175797
 11
89.881424
 21
-92.675797
  0
LINE
  8
0
 62
     1
 10
90.101425
 20
-92.175797
 11
90.101425
 21
-92.675797
  0
LINE
  8
0
 62
     1
 10
92.151421
 20
-92.175797
 11
92.151421
 21
-92.675797
  0
LINE
  8
0
 62
     4
 10
92.381424
 20
-92.175797
 11
92.381424
 21
-92.675797
  0
LINE
  8
0
 62
     4
 10
89.881424
 20
-92.175797
 11
92.381424
 21
-92.175797
  0
LINE
  8
0
 62
     4
 10
109.831421
 20
-85.775795
 11
109.831421
 21
-82.025795
  0
LINE
  8
0
 62
     4
 10
107.231422
 20
-85.775795
 11
107.231422
 21
-83.525795
  0
LINE
  8
0
 62
     4
 10
107.231422
 20
-82.025795
 11
107.231422
 21
-77.275795
  0
LINE
  8
0
 62
     4
 10
109.831421
 20
-80.525795
 11
109.831421
 21
-77.275795
  0
LINE
  8
0
 62
     4
 10
43.838699
 20
-87.275795
 11
48.338699
 21
-87.275795
  0
LINE
  8
0
 62
     4
 10
43.838699
 20
-85.775795
 11
43.838699
 21
-91.525795
  0
LINE
  8
0
 62
     4
 10
44.588696
 20
-92.275787
 11
43.838703
 21
-91.525795
  0
LINE
  8
0
 62
     4
 10
44.588699
 20
-93.125793
 11
44.588699
 21
-92.275795
  0
LINE
  8
0
 62
     4
 10
44.038696
 20
-93.675797
 11
44.588696
 21
-93.125793
  0
LINE
  8
0
 62
     4
 10
44.038700
 20
-93.675797
 11
44.038700
 21
-95.225800
  0
LINE
  8
0
 62
     4
 10
48.138699
 20
-93.675797
 11
48.138699
 21
-95.225800
  0
LINE
  8
0
 62
     4
 10
48.138699
 20
-93.675789
 11
47.588699
 21
-93.125786
  0
LINE
  8
0
 62
     4
 10
47.588699
 20
-93.125793
 11
47.588699
 21
-92.275795
  0
LINE
  8
0
 62
     4
 10
47.588699
 20
-92.275795
 11
48.338699
 21
-91.525795
  0
LINE
  8
0
 62
     4
 10
48.338699
 20
-85.775795
 11
48.338699
 21
-91.525795
  0
LINE
  8
0
  6
CENTER
 62
     1
 10
46.088699
 20
-80.115799
 11
46.088699
 21
-98.735794
  0
LINE
  8
0
 62
     4
 10
44.588699
 20
-92.675797
 11
47.588699
 21
-92.675797
  0
LINE
  8
0
 62
     4
 10
44.038700
 20
-94.475800
 11
48.138699
 21
-94.475800
  0
LINE
  8
0
 62
     4
 10
44.038700
 20
-95.275795
 11
48.138699
 21
-95.275795
  0
LINE
  8
0
 62
     4
 10
43.838699
 20
-85.775795
 11
48.338699
 21
-85.775795
  0
LINE
  8
0
 62
     1
 10
43.928699
 20
-84.025787
 11
48.248699
 21
-81.525787
  0
LINE
  8
0
 62
     4
 10
45.068699
 20
-96.675797
 11
47.108700
 21
-96.675797
  0
LINE
  8
0
 62
     4
 10
47.108704
 20
-96.675797
 11
47.338699
 21
-96.445793
  0
LINE
  8
0
 62
     4
 10
45.068699
 20
-96.675804
 11
44.838699
 21
-96.445801
  0
LINE
  8
0
 62
     4
 10
44.838699
 20
-95.275795
 11
44.838699
 21
-96.445793
  0
LINE
  8
0
 62
     1
 10
45.068699
 20
-95.275795
 11
45.068699
 21
-96.675797
  0
LINE
  8
0
 62
     1
 10
47.108700
 20
-95.275795
 11
47.108700
 21
-96.675797
  0
LINE
  8
0
 62
     4
 10
47.338699
 20
-95.275795
 11
47.338699
 21
-96.445793
  0
LINE
  8
0
 62
     4
 10
44.838699
 20
-96.445793
 11
47.338699
 21
-96.445793
  0
LINE
  8
0
 62
     4
 10
44.838699
 20
-92.175797
 11
44.838699
 21
-92.675797
  0
LINE
  8
0
 62
     1
 10
45.068699
 20
-92.175797
 11
45.068699
 21
-92.675797
  0
LINE
  8
0
 62
     1
 10
47.108700
 20
-92.175797
 11
47.108700
 21
-92.675797
  0
LINE
  8
0
 62
     4
 10
47.338699
 20
-92.175797
 11
47.338699
 21
-92.675797
  0
LINE
  8
0
 62
     4
 10
44.838699
 20
-92.175797
 11
47.338699
 21
-92.175797
  0
LINE
  8
0
 62
     4
 10
44.788700
 20
-83.525795
 11
44.788700
 21
-85.775795
  0
LINE
  8
0
 62
     4
 10
47.388699
 20
-82.025795
 11
47.388699
 21
-85.775795
  0
LINE
  8
0
  6
CENTER
 62
     1
 10
87.811424
 20
-45.075775
 11
112.711426
 21
-45.075775
  0
LINE
  8
0
 62
     4
 10
89.131424
 20
-46.575775
 11
105.691422
 21
-46.575775
  0
LINE
  8
0
 62
     4
 10
89.131424
 20
-43.575775
 11
105.691422
 21
-43.575775
  0
LINE
  8
0
 62
     4
 10
89.131424
 20
-47.125774
 11
106.041428
 21
-47.125774
  0
LINE
  8
0
 62
     4
 10
89.131424
 20
-43.025776
 11
106.041428
 21
-43.025776
  0
LINE
  8
0
 62
     4
 10
89.131424
 20
-43.025776
 11
89.131424
 21
-47.125774
  0
LINE
  8
0
  6
CENTER
 62
     1
 10
91.131424
 20
-42.245773
 11
91.131424
 21
-47.825775
  0
LINE
  8
0
 62
     4
 10
106.211426
 20
-42.825775
 11
111.131424
 21
-42.825775
  0
LINE
  8
0
 62
     4
 10
106.211426
 20
-47.325775
 11
111.131424
 21
-47.325775
  0
LINE
  8
0
 62
     4
 10
111.131424
 20
-42.825775
 11
111.131424
 21
-47.325775
  0
LINE
  8
0
 62
     4
 10
90.481422
 20
-46.145775
 11
92.201424
 21
-44.435776
  0
LINE
  8
0
 62
     4
 10
90.061424
 20
-45.715775
 11
91.771423
 21
-44.005775
  0
LINE
  8
0
 62
     4
 10
202.668976
 20
118.538574
 11
202.668976
 21
104.538574
  0
LINE
  8
0
 62
     4
 10
202.668976
 20
118.538574
 11
204.408997
 21
119.538574
  0
LINE
  8
0
 62
     4
 10
204.408981
 20
119.538574
 11
204.408981
 21
115.408577
  0
LINE
  8
0
 62
     4
 10
202.668976
 20
115.408577
 11
205.668976
 21
115.408577
  0
LINE
  8
0
 62
     1
 10
205.668991
 20
107.668579
 11
202.668991
 21
115.408585
  0
LINE
  8
0
 62
     1
 10
205.668991
 20
115.408585
 11
202.668976
 21
107.668571
  0
LINE
  8
0
 62
     4
 10
205.668976
 20
115.408577
 11
205.668976
 21
107.668571
  0
LINE
  8
0
 62
     4
 10
202.668976
 20
107.668571
 11
205.668976
 21
107.668571
  0
LINE
  8
0
 62
     4
 10
204.408981
 20
103.538574
 11
204.408981
 21
107.668571
  0
LINE
  8
0
 62
     4
 10
202.668976
 20
104.538574
 11
204.408981
 21
103.538574
  0
LINE
  8
0
 62
     4
 10
204.408981
 20
103.538574
 11
207.668976
 21
103.538574
  0
LINE
  8
0
 62
     4
 10
204.408981
 20
119.538574
 11
207.668976
 21
119.538574
  0
LINE
  8
0
 62
     4
 10
207.668976
 20
126.038574
 11
207.668976
 21
97.038574
  0
LINE
  8
0
 62
     4
 10
209.668976
 20
126.038574
 11
207.668976
 21
126.038574
  0
LINE
  8
0
 62
     4
 10
209.668976
 20
97.038574
 11
207.668976
 21
97.038574
  0
LINE
  8
0
 62
     4
 10
122.944214
 20
119.538574
 11
128.944214
 21
119.538574
  0
LINE
  8
0
 62
     4
 10
122.944214
 20
103.538574
 11
128.944214
 21
103.538574
  0
LINE
  8
0
 62
     4
 10
121.944214
 20
115.408577
 11
124.944214
 21
115.408577
  0
LINE
  8
0
 62
     4
 10
121.944214
 20
107.668571
 11
124.944214
 21
107.668571
  0
LINE
  8
0
 62
     4
 10
124.944214
 20
115.408577
 11
124.944214
 21
107.668571
  0
LINE
  8
0
 62
     1
 10
124.944214
 20
115.408577
 11
121.944214
 21
107.668579
  0
LINE
  8
0
 62
     1
 10
121.944221
 20
115.408585
 11
124.944221
 21
107.668579
  0
LINE
  8
0
 62
     4
 10
94.694214
 20
118.538574
 11
102.444214
 21
118.538574
  0
LINE
  8
0
 62
     4
 10
94.694214
 20
104.538574
 11
102.444214
 21
104.538574
  0
LINE
  8
0
 62
     4
 10
121.944214
 20
104.538574
 11
121.944214
 21
118.538574
  0
LINE
  8
0
 62
     1
 10
93.944214
 20
117.788574
 11
102.444214
 21
117.788574
  0
LINE
  8
0
 62
     4
 10
118.944214
 20
118.538574
 11
118.944214
 21
104.538574
  0
LINE
  8
0
 62
     1
 10
118.944206
 20
117.788574
 11
120.244217
 21
118.538574
  0
LINE
  8
0
 62
     4
 10
103.294212
 20
122.508575
 11
109.604218
 21
122.508575
  0
LINE
  8
0
 62
     4
 10
102.444214
 20
121.038574
 11
102.444214
 21
102.038574
  0
LINE
  8
0
 62
     4
 10
110.444214
 20
121.038574
 11
110.444214
 21
102.038574
  0
LINE
  8
0
 62
     4
 10
109.604202
 20
122.508575
 11
110.444206
 21
121.038574
  0
LINE
  8
0
 62
     4
 10
102.444214
 20
121.038567
 11
103.294212
 21
122.508568
  0
LINE
  8
0
 62
     4
 10
110.444214
 20
118.538574
 11
121.944214
 21
118.538574
  0
LINE
  8
0
 62
     1
 10
110.444214
 20
117.788574
 11
118.944214
 21
117.788574
  0
LINE
  8
0
 62
     4
 10
103.294212
 20
117.018578
 11
109.604218
 21
117.018578
  0
LINE
  8
0
 62
     4
 10
103.294212
 20
106.058571
 11
109.604218
 21
106.058571
  0
LINE
  8
0
 62
     4
 10
102.444221
 20
102.038582
 11
103.294220
 21
100.568581
  0
LINE
  8
0
 62
     4
 10
110.444214
 20
104.538574
 11
121.944214
 21
104.538574
  0
LINE
  8
0
 62
     4
 10
122.944214
 20
103.538574
 11
122.944214
 21
107.668571
  0
LINE
  8
0
 62
     4
 10
121.944214
 20
118.538574
 11
122.944214
 21
119.538574
  0
LINE
  8
0
 62
     4
 10
121.944214
 20
104.538574
 11
122.944214
 21
103.538574
  0
LINE
  8
0
 62
     4
 10
122.944214
 20
115.408577
 11
122.944214
 21
119.538574
  0
LINE
  8
0
 62
     4
 10
93.944214
 20
117.788574
 11
93.944214
 21
105.288574
  0
LINE
  8
0
 62
     4
 10
109.604210
 20
100.568573
 11
110.444214
 21
102.038582
  0
LINE
  8
0
 62
     4
 10
103.294212
 20
100.568573
 11
109.604218
 21
100.568573
  0
LINE
  8
0
 62
     4
 10
93.944221
 20
117.788574
 11
94.694214
 21
118.538574
  0
LINE
  8
0
 62
     4
 10
94.694214
 20
118.538574
 11
94.694214
 21
104.538574
  0
LINE
  8
0
 62
     4
 10
93.944214
 20
105.288574
 11
94.694214
 21
104.538574
  0
LINE
  8
0
 62
     1
 10
93.944214
 20
105.288574
 11
102.444214
 21
105.288574
  0
LINE
  8
0
 62
     1
 10
118.944214
 20
105.288574
 11
120.244217
 21
104.538574
  0
LINE
  8
0
 62
     1
 10
110.444214
 20
105.288574
 11
118.944214
 21
105.288574
  0
LINE
  8
0
 10
35.999855
 20
99.500000
 11
-15.000147
 21
99.500000
  0
LINE
  8
0
 10
-15.000147
 20
156.000000
 11
-15.000147
 21
99.500000
  0
LINE
  8
0
  6
CENTER
 62
     2
 10
41.089851
 20
130.000000
 11
-27.350147
 21
130.000000
  0
LINE
  8
0
 10
35.999855
 20
156.000000
 11
35.999855
 21
99.500000
  0
LINE
  8
0
 10
35.999855
 20
156.000000
 11
-15.000147
 21
156.000000
  0
LINE
  8
0
 10
-0.000147
 20
140.699997
 11
35.999855
 21
140.699997
  0
LINE
  8
0
 10
-0.000147
 20
137.500000
 11
35.999855
 21
137.500000
  0
LINE
  8
0
 10
-0.000147
 20
122.500000
 11
35.999855
 21
122.500000
  0
LINE
  8
0
 10
-0.000147
 20
119.300003
 11
35.999855
 21
119.300003
  0
LINE
  8
0
 10
-0.000147
 20
153.429993
 11
35.999855
 21
153.429993
  0
LINE
  8
0
 10
-0.000147
 20
106.570000
 11
35.999855
 21
106.570000
  0
LINE
  8
0
 62
     4
 10
-19.000145
 20
137.000000
 11
-18.000149
 21
138.000000
  0
LINE
  8
0
 62
     4
 10
-22.000147
 20
137.000000
 11
-19.000147
 21
137.000000
  0
LINE
  8
0
 62
     4
 10
-22.000147
 20
137.000000
 11
-22.000147
 21
123.000000
  0
LINE
  8
0
 62
     4
 10
-20.260147
 20
123.000000
 11
-20.260147
 21
137.000000
  0
LINE
  8
0
 62
     4
 10
-18.000147
 20
122.000000
 11
-15.000147
 21
122.000000
  0
LINE
  8
0
 62
     4
 10
-18.000147
 20
138.000000
 11
-15.000147
 21
138.000000
  0
LINE
  8
0
 62
     4
 10
-19.000145
 20
122.999992
 11
-18.000149
 21
122.000000
  0
LINE
  8
0
 62
     4
 10
-22.000147
 20
123.000000
 11
-19.000147
 21
123.000000
  0
LINE
  8
0
 10
35.999855
 20
104.000000
 11
-0.000147
 21
104.000000
  0
LINE
  8
0
  6
CENTER
 62
     2
 10
-18.000147
 20
150.000000
 11
38.999855
 21
150.000000
  0
LINE
  8
0
  6
CENTER
 62
     2
 10
-18.000147
 20
110.000000
 11
38.999855
 21
110.000000
  0
LINE
  8
0
 10
-0.000147
 20
156.000000
 11
-0.000147
 21
99.500000
  0
LINE
  8
0
  6
CENTER
 62
     2
 10
28.999853
 20
102.500000
 11
28.999853
 21
96.500000
  0
LINE
  8
0
  6
CENTER
 62
     2
 10
10.499853
 20
102.500000
 11
10.499853
 21
96.500000
  0
LINE
  8
0
  6
PHANTOM
 62
     3
 10
17.999853
 20
161.389999
 11
17.999853
 21
74.990005
  0
LINE
  8
0
 10
86.569107
 20
46.000000
 11
133.430603
 21
46.000000
  0
LINE
  8
0
 10
83.999855
 20
43.430748
 11
83.999855
 21
27.500000
  0
LINE
  8
0
 10
79.499855
 20
26.799999
 11
79.499855
 21
13.200000
  0
LINE
  8
0
 10
79.499855
 20
26.799999
 11
83.999855
 21
27.500000
  0
LINE
  8
0
 10
79.499855
 20
13.200001
 11
83.999863
 21
12.500001
  0
LINE
  8
0
 10
83.999855
 20
12.500000
 11
83.999855
 21
-3.430750
  0
LINE
  8
0
 10
86.599854
 20
27.000000
 11
84.999855
 21
27.000000
  0
LINE
  8
0
 10
86.599854
 20
31.200001
 11
84.999855
 21
31.200001
  0
LINE
  8
0
 10
83.999855
 20
27.500000
 11
84.499855
 21
27.500000
  0
LINE
  8
0
 10
83.999855
 20
30.700001
 11
84.499855
 21
30.700001
  0
LINE
  8
0
 10
84.999855
 20
26.999996
 11
84.499855
 21
27.499996
  0
LINE
  8
0
 10
84.999855
 20
31.199997
 11
84.499855
 21
30.699995
  0
LINE
  8
0
 10
84.999855
 20
8.800000
 11
84.499855
 21
9.300001
  0
LINE
  8
0
 10
86.599854
 20
13.000000
 11
84.999855
 21
13.000000
  0
LINE
  8
0
 10
86.599854
 20
8.800000
 11
84.999855
 21
8.800000
  0
LINE
  8
0
 10
83.999855
 20
12.500000
 11
84.499855
 21
12.500000
  0
LINE
  8
0
 10
83.999855
 20
9.300000
 11
84.499855
 21
9.300000
  0
LINE
  8
0
 10
84.999855
 20
13.000000
 11
84.499863
 21
12.500004
  0
LINE
  8
0
 10
102.999855
 20
45.000000
 11
102.499855
 21
45.500000
  0
LINE
  8
0
 10
116.999855
 20
43.400002
 11
116.999855
 21
45.000000
  0
LINE
  8
0
 10
121.199852
 20
43.400002
 11
121.199852
 21
45.000000
  0
LINE
  8
0
 10
117.499855
 20
46.000000
 11
117.499855
 21
45.500000
  0
LINE
  8
0
 10
120.699852
 20
46.000000
 11
120.699852
 21
45.500000
  0
LINE
  8
0
 10
116.999855
 20
44.999996
 11
117.499855
 21
45.499996
  0
LINE
  8
0
 10
121.199852
 20
45.000000
 11
120.699852
 21
45.500000
  0
LINE
  8
0
 10
98.799858
 20
45.000000
 11
99.299858
 21
45.500000
  0
LINE
  8
0
 10
102.999855
 20
43.400002
 11
102.999855
 21
45.000000
  0
LINE
  8
0
 10
98.799858
 20
43.400002
 11
98.799858
 21
45.000000
  0
LINE
  8
0
 10
102.499855
 20
46.000000
 11
102.499855
 21
45.500000
  0
LINE
  8
0
 10
99.299858
 20
46.000000
 11
99.299858
 21
45.500000
  0
LINE
  8
0
 10
134.999847
 20
26.999998
 11
135.499863
 21
27.500002
  0
LINE
  8
0
 10
133.399857
 20
13.000000
 11
134.999847
 21
13.000000
  0
LINE
  8
0
 10
133.399857
 20
8.800000
 11
134.999847
 21
8.800000
  0
LINE
  8
0
 10
135.999847
 20
12.500000
 11
135.499847
 21
12.500000
  0
LINE
  8
0
 10
135.999847
 20
9.300000
 11
135.499847
 21
9.300000
  0
LINE
  8
0
 10
134.999847
 20
13.000001
 11
135.499863
 21
12.500002
  0
LINE
  8
0
 10
134.999847
 20
8.799997
 11
135.499847
 21
9.299998
  0
LINE
  8
0
 10
134.999847
 20
31.200003
 11
135.499847
 21
30.700001
  0
LINE
  8
0
 10
133.399857
 20
27.000000
 11
134.999847
 21
27.000000
  0
LINE
  8
0
 10
133.399857
 20
31.200001
 11
134.999847
 21
31.200001
  0
LINE
  8
0
 10
135.999847
 20
27.500000
 11
135.499847
 21
27.500000
  0
LINE
  8
0
 10
135.999847
 20
30.700001
 11
135.499847
 21
30.700001
  0
LINE
  8
0
 10
116.999855
 20
-4.999995
 11
117.499855
 21
-5.499996
  0
LINE
  8
0
 10
102.999855
 20
-3.400000
 11
102.999855
 21
-5.000000
  0
LINE
  8
0
 10
98.799858
 20
-3.400000
 11
98.799858
 21
-5.000000
  0
LINE
  8
0
 10
102.499855
 20
-6.000000
 11
102.499855
 21
-5.500000
  0
LINE
  8
0
 10
99.299858
 20
-6.000000
 11
99.299858
 21
-5.500000
  0
LINE
  8
0
 10
102.999855
 20
-5.000001
 11
102.499855
 21
-5.500002
  0
LINE
  8
0
 10
98.799858
 20
-5.000000
 11
99.299858
 21
-5.500000
  0
LINE
  8
0
 10
121.199852
 20
-5.000000
 11
120.699852
 21
-5.500000
  0
LINE
  8
0
 10
116.999855
 20
-3.400000
 11
116.999855
 21
-5.000000
  0
LINE
  8
0
 10
121.199852
 20
-3.400000
 11
121.199852
 21
-5.000000
  0
LINE
  8
0
 10
117.499855
 20
-6.000000
 11
117.499855
 21
-5.500000
  0
LINE
  8
0
 10
120.699852
 20
-6.000000
 11
120.699852
 21
-5.500000
  0
LINE
  8
0
 10
135.999847
 20
-3.430750
 11
135.999847
 21
43.430748
  0
LINE
  8
0
 10
86.569107
 20
-6.000000
 11
133.430603
 21
-6.000000
  0
LINE
  8
0
  6
CENTER
 62
     2
 10
76.359856
 20
20.000000
 11
138.479858
 21
20.000000
  0
LINE
  8
0
  6
CENTER
 62
     2
 10
109.999855
 20
49.680000
 11
109.999855
 21
-9.790001
  0
LINE
  8
0
  6
CENTER
 62
     2
 10
89.999855
 20
6.500000
 11
89.999855
 21
-6.500000
  0
LINE
  8
0
  6
CENTER
 62
     2
 10
89.999855
 20
46.500000
 11
89.999855
 21
33.500000
  0
LINE
  8
0
  6
CENTER
 62
     2
 10
129.999847
 20
46.500000
 11
129.999847
 21
33.500000
  0
LINE
  8
0
  6
CENTER
 62
     2
 10
129.999847
 20
6.500000
 11
129.999847
 21
-6.500000
  0
LINE
  8
0
  6
CENTER
 62
     2
 10
83.499855
 20
40.000000
 11
96.499855
 21
40.000000
  0
LINE
  8
0
  6
CENTER
 62
     2
 10
83.499855
 20
0.000000
 11
96.499855
 21
0.000000
  0
LINE
  8
0
  6
CENTER
 62
     2
 10
123.499855
 20
0.000000
 11
136.499847
 21
0.000000
  0
LINE
  8
0
  6
CENTER
 62
     2
 10
123.499855
 20
40.000000
 11
136.499847
 21
40.000000
  0
LINE
  8
0
 10
-138.430893
 20
46.000000
 11
-91.569397
 21
46.000000
  0
LINE
  8
0
 10
-89.000145
 20
43.430748
 11
-89.000145
 21
27.500000
  0
LINE
  8
0
 10
-141.000153
 20
-3.430750
 11
-141.000153
 21
43.430748
  0
LINE
  8
0
 10
-84.500145
 20
26.799999
 11
-84.500145
 21
13.200000
  0
LINE
  8
0
 10
-84.500145
 20
26.799999
 11
-89.000145
 21
27.500002
  0
LINE
  8
0
 10
-84.500153
 20
13.200001
 11
-89.000145
 21
12.500001
  0
LINE
  8
0
 10
-89.000145
 20
12.500000
 11
-89.000145
 21
-3.430750
  0
LINE
  8
0
 10
-138.430893
 20
-6.000000
 11
-91.569397
 21
-6.000000
  0
LINE
  8
0
  6
CENTER
 62
     2
 10
-81.360146
 20
20.000000
 11
-143.480148
 21
20.000000
  0
LINE
  8
0
  6
CENTER
 62
     2
 10
-115.000145
 20
49.680000
 11
-115.000145
 21
-9.790001
  0
LINE
  8
0
  6
CENTER
 62
     2
 10
-95.000145
 20
6.500000
 11
-95.000145
 21
-6.500000
  0
LINE
  8
0
  6
CENTER
 62
     2
 10
-95.000145
 20
46.500000
 11
-95.000145
 21
33.500000
  0
LINE
  8
0
  6
CENTER
 62
     2
 10
-135.000153
 20
46.500000
 11
-135.000153
 21
33.500000
  0
LINE
  8
0
  6
CENTER
 62
     2
 10
-135.000153
 20
6.500000
 11
-135.000153
 21
-6.500000
  0
LINE
  8
0
  6
CENTER
 62
     2
 10
-88.500145
 20
40.000000
 11
-101.500145
 21
40.000000
  0
LINE
  8
0
  6
CENTER
 62
     2
 10
-88.500145
 20
0.000000
 11
-101.500145
 21
0.000000
  0
LINE
  8
0
  6
CENTER
 62
     2
 10
-128.500153
 20
0.000000
 11
-141.500153
 21
0.000000
  0
LINE
  8
0
  6
CENTER
 62
     2
 10
-128.500153
 20
40.000000
 11
-141.500153
 21
40.000000
  0
LINE
  8
0
 62
     4
 10
-122.000145
 20
23.869999
 11
-122.000145
 21
16.130001
  0
LINE
  8
0
 62
     4
 10
-108.000145
 20
23.869999
 11
-108.000145
 21
16.130001
  0
LINE
  8
0
 10
35.999855
 20
-6.000000
 11
-15.000147
 21
-6.000000
  0
LINE
  8
0
 10
-15.000147
 20
46.000000
 11
-15.000147
 21
-6.000000
  0
LINE
  8
0
 62
     4
 10
-22.000147
 20
27.000000
 11
-22.000147
 21
13.000000
  0
LINE
  8
0
 62
     4
 10
-22.000147
 20
27.000002
 11
-20.260147
 21
28.000002
  0
LINE
  8
0
 62
     4
 10
-20.260147
 20
28.000000
 11
-20.260147
 21
23.869999
  0
LINE
  8
0
 62
     4
 10
-22.000147
 20
23.869999
 11
-19.000147
 21
23.869999
  0
LINE
  8
0
 62
     1
 10
-19.000147
 20
16.129999
 11
-22.000149
 21
23.870003
  0
LINE
  8
0
 62
     1
 10
-19.000147
 20
23.870001
 11
-22.000147
 21
16.129999
  0
LINE
  8
0
 62
     4
 10
-19.000147
 20
23.869999
 11
-19.000147
 21
16.130001
  0
LINE
  8
0
 62
     4
 10
-22.000147
 20
16.130001
 11
-19.000147
 21
16.130001
  0
LINE
  8
0
 62
     4
 10
-20.260147
 20
12.000000
 11
-20.260147
 21
16.130001
  0
LINE
  8
0
 62
     4
 10
-22.000147
 20
13.000000
 11
-20.260147
 21
12.000000
  0
LINE
  8
0
 62
     4
 10
-20.260147
 20
12.000000
 11
-15.000147
 21
12.000000
  0
LINE
  8
0
 62
     4
 10
-20.260147
 20
28.000000
 11
-15.000147
 21
28.000000
  0
LINE
  8
0
  6
CENTER
 62
     2
 10
41.089851
 20
20.000000
 11
-27.350147
 21
20.000000
  0
LINE
  8
0
 10
35.999855
 20
46.000000
 11
35.999855
 21
-6.000000
  0
LINE
  8
0
 10
35.999855
 20
46.000000
 11
-15.000147
 21
46.000000
  0
LINE
  8
0
 10
-0.000147
 20
30.700001
 11
35.999855
 21
30.700001
  0
LINE
  8
0
 10
-0.000147
 20
27.500000
 11
35.999855
 21
27.500000
  0
LINE
  8
0
 10
-0.000147
 20
26.799999
 11
35.999855
 21
26.799999
  0
LINE
  8
0
 10
-0.000147
 20
13.200000
 11
35.999855
 21
13.200000
  0
LINE
  8
0
 10
-0.000147
 20
12.500000
 11
35.999855
 21
12.500000
  0
LINE
  8
0
 10
-0.000147
 20
9.300000
 11
35.999855
 21
9.300000
  0
LINE
  8
0
 10
-0.000147
 20
43.430000
 11
35.999855
 21
43.430000
  0
LINE
  8
0
  6
CENTER
 62
     2
 10
-18.000147
 20
40.000000
 11
38.999855
 21
40.000000
  0
LINE
  8
0
  6
CENTER
 62
     2
 10
-18.000147
 20
0.000000
 11
38.999855
 21
0.000000
  0
LINE
  8
0
  6
DASHED
 10
-15.000147
 20
-4.750000
 11
7.499853
 21
-4.750000
  0
LINE
  8
0
  6
DASHED
 10
-15.000147
 20
4.750000
 11
7.499853
 21
4.750000
  0
LINE
  8
0
  6
DASHED
 10
35.999855
 20
4.750000
 11
28.499853
 21
4.750000
  0
LINE
  8
0
  6
DASHED
 10
28.499853
 20
4.750000
 11
28.499853
 21
-4.750000
  0
LINE
  8
0
  6
DASHED
 10
35.999855
 20
-4.750000
 11
28.499853
 21
-4.750000
  0
LINE
  8
0
 10
-0.000147
 20
46.000000
 11
-0.000147
 21
-6.000000
  0
LINE
  8
0
  6
CENTER
 62
     2
 10
28.999853
 20
25.910000
 11
28.999853
 21
14.120000
  0
LINE
  8
0
  6
CENTER
 62
     2
 10
10.499853
 20
25.910000
 11
10.499853
 21
14.120000
  0
LINE
  8
0
  6
DASHED
 10
7.499853
 20
3.323500
 11
15.499853
 21
3.323500
  0
LINE
  8
0
  6
DASHED
 62
     2
 10
7.499853
 20
4.000000
 11
15.499853
 21
4.000000
  0
LINE
  8
0
  6
DASHED
 10
7.499853
 20
-3.323500
 11
15.499853
 21
-3.323500
  0
LINE
  8
0
  6
DASHED
 62
     2
 10
7.499853
 20
-4.000000
 11
15.499853
 21
-4.000000
  0
LINE
  8
0
  6
DASHED
 10
7.499853
 20
4.750000
 11
7.499853
 21
-4.750000
  0
LINE
  8
0
  6
DASHED
 62
     2
 10
20.499853
 20
4.000000
 11
28.499853
 21
4.000000
  0
LINE
  8
0
  6
DASHED
 10
20.499853
 20
3.323500
 11
28.499853
 21
3.323500
  0
LINE
  8
0
  6
DASHED
 10
20.499853
 20
-3.323500
 11
28.499853
 21
-3.323500
  0
LINE
  8
0
  6
DASHED
 62
     2
 10
20.499853
 20
-4.000000
 11
28.499853
 21
-4.000000
  0
LINE
  8
0
  6
DASHED
 10
15.499853
 20
-4.000000
 11
15.499853
 21
4.000000
  0
LINE
  8
0
  6
DASHED
 10
20.499853
 20
-4.000000
 11
20.499853
 21
4.000000
  0
LINE
  8
0
  6
DASHED
 10
15.499853
 20
3.450001
 11
20.499853
 21
3.450001
  0
LINE
  8
0
  6
DASHED
 10
15.499853
 20
-3.450001
 11
20.499853
 21
-3.450001
  0
LINE
  8
0
  6
CENTER
 62
     2
 10
-5.000147
 20
-8.453901
 11
-5.000147
 21
-0.948177
  0
LINE
  8
0
  6
DASHED
 62
     2
 10
-7.500147
 20
-6.000000
 11
-7.500147
 21
-1.232670
  0
LINE
  8
0
  6
DASHED
 62
     2
 10
-2.500147
 20
-6.000000
 11
-2.500147
 21
-1.232670
  0
LINE
  8
0
  6
DASHED
 10
-2.933147
 20
-6.000000
 11
-2.933147
 21
-1.232670
  0
LINE
  8
0
  6
DASHED
 10
-7.067146
 20
-6.000000
 11
-7.067146
 21
-1.232670
  0
LINE
  8
0
  6
PHANTOM
 62
     3
 10
17.999853
 20
-11.420000
 11
17.999853
 21
74.979996
  0
LINE
  8
0
 10
209.668976
 20
132.380005
 11
209.668976
 21
90.690002
  0
LINE
  8
0
  6
CENTER
 62
     2
 10
217.339859
 20
111.538574
 11
197.309860
 21
111.538574
  0
LINE
  8
0
 10
128.944214
 20
126.538605
 11
128.944214
 21
96.538605
  0
LINE
  8
0
  6
CENTER
 62
     2
 10
89.424232
 20
111.538574
 11
135.064240
 21
111.538574
  0
LINE
  8
0
 10
-271.250153
 20
-137.000000
 11
-271.250153
 21
-185.000000
  0
LINE
  8
0
 10
-271.250153
 20
-185.000000
 11
42.749855
 21
-185.000000
  0
LINE
  8
0
 10
-271.250153
 20
-177.000000
 11
42.749855
 21
-177.000000
  0
LINE
  8
0
 10
-271.250153
 20
-169.000000
 11
42.749855
 21
-169.000000
  0
LINE
  8
0
 10
-271.250153
 20
-161.000000
 11
42.749855
 21
-161.000000
  0
LINE
  8
0
 10
-271.250153
 20
-153.000000
 11
42.749855
 21
-153.000000
  0
LINE
  8
0
 10
-271.250153
 20
-137.000000
 11
42.749855
 21
-137.000000
  0
LINE
  8
0
 10
-221.250153
 20
-137.000000
 11
-221.250153
 21
-185.000000
  0
LINE
  8
0
 10
-221.250153
 20
-153.000015
 11
-271.250153
 21
-137.000015
  0
LINE
  8
0
 10
-199.250153
 20
-137.000000
 11
-199.250153
 21
-185.000000
  0
LINE
  8
0
 10
-177.250153
 20
-137.000000
 11
-177.250153
 21
-185.000000
  0
LINE
  8
0
 10
-155.250153
 20
-137.000000
 11
-155.250153
 21
-185.000000
  0
LINE
  8
0
 10
-133.250153
 20
-137.000000
 11
-133.250153
 21
-185.000000
  0
LINE
  8
0
 10
-111.250145
 20
-137.000000
 11
-111.250145
 21
-185.000000
  0
LINE
  8
0
 10
-89.250145
 20
-137.000000
 11
-89.250145
 21
-185.000000
  0
LINE
  8
0
 10
-67.250145
 20
-137.000000
 11
-67.250145
 21
-185.000000
  0
LINE
  8
0
 10
-45.250145
 20
-137.000000
 11
-45.250145
 21
-185.000000
  0
LINE
  8
0
 10
-23.250147
 20
-137.000000
 11
-23.250147
 21
-185.000000
  0
LINE
  8
0
 10
-1.250147
 20
-137.000000
 11
-1.250147
 21
-185.000000
  0
LINE
  8
0
 10
20.749853
 20
-137.000000
 11
20.749853
 21
-185.000000
  0
LINE
  8
0
 10
42.749855
 20
-137.000000
 11
42.749855
 21
-185.000000
  0
LINE
  8
0
 10
282.099854
 20
195.500000
 11
282.099854
 21
-195.000000
  0
LINE
  8
0
 10
-281.250000
 20
195.500000
 11
282.099854
 21
195.500000
  0
LINE
  8
0
 10
-281.250000
 20
195.500000
 11
-281.250000
 21
-195.000000
  0
LINE
  8
0
 10
-281.250000
 20
-195.000000
 11
282.099854
 21
-195.000000
  0
LINE
  8
0
 10
162.099976
 20
-175.000000
 11
162.099976
 21
-195.000000
  0
LINE
  8
0
 10
162.099976
 20
-175.000000
 11
282.099854
 21
-175.000000
  0
LINE
  8
0
 10
162.099976
 20
175.500000
 11
282.099854
 21
175.500000
  0
LINE
  8
0
 10
-281.250000
 20
175.500000
 11
-161.250000
 21
175.500000
  0
LINE
  8
0
 10
162.099976
 20
195.500000
 11
162.099976
 21
175.500000
  0
LINE
  8
0
 10
-161.250000
 20
195.500000
 11
-161.250000
 21
175.500000
  0
ARC
  8
0
 62
     4
 10
-113.222244
 20
-95.225792
 40
2.050003
 50
180.000000
 51
270.000000
  0
ARC
  8
0
 62
     4
 10
-113.222244
 20
-95.225792
 40
2.050003
 50
270.000000
 51
0.000000
  0
CIRCLE
  8
0
 62
     4
 10
-66.679504
 20
-50.125793
 40
1.250000
  0
CIRCLE
  8
0
 62
     4
 10
-66.679504
 20
-50.125793
 40
1.400000
  0
ARC
  8
0
 62
     4
 10
46.088703
 20
-95.225792
 40
2.050003
 50
180.000000
 51
269.999908
  0
ARC
  8
0
 62
     4
 10
46.093506
 20
-95.220901
 40
2.045202
 50
270.985901
 51
359.862793
  0
ARC
  8
0
 62
     4
 10
108.631424
 20
-45.075775
 40
3.304374
 50
137.084778
 51
222.915222
  0
CIRCLE
  8
0
 62
     4
 10
91.131424
 20
-45.075775
 40
1.250000
  0
CIRCLE
  8
0
 62
     4
 10
91.131424
 20
-45.075775
 40
1.400000
  0
CIRCLE
  8
0
 62
     4
 10
108.538773
 20
-45.075775
 40
1.299999
  0
CIRCLE
  8
0
 62
     4
 10
108.860580
 20
-45.416779
 40
0.450000
  0
CIRCLE
  8
0
 62
     4
 10
108.248703
 20
-44.757622
 40
0.450000
  0
CIRCLE
  8
0
 62
     4
 10
108.860580
 20
-45.416779
 40
0.250000
  0
CIRCLE
  8
0
 62
     4
 10
108.248703
 20
-44.757622
 40
0.250000
  0
ARC
  8
0
 62
     4
 10
198.668976
 20
111.538574
 40
7.998558
 50
331.063660
 51
28.936342
  0
ARC
  8
0
 62
     4
 10
107.300247
 20
119.763573
 40
4.856270
 50
145.580399
 51
214.419601
  0
ARC
  8
0
 62
     4
 10
120.595520
 20
111.538574
 40
18.148432
 50
162.424988
 51
197.575012
  0
ARC
  8
0
 62
     4
 10
107.300247
 20
103.313576
 40
4.856270
 50
145.580399
 51
214.419601
  0
ARC
  8
0
 62
     4
 10
105.588150
 20
119.763573
 40
4.864549
 50
325.647186
 51
34.352806
  0
ARC
  8
0
 62
     4
 10
92.292877
 20
111.538574
 40
18.157999
 50
342.434509
 51
17.565479
  0
ARC
  8
0
 62
     4
 10
105.588150
 20
103.313576
 40
4.864549
 50
325.647186
 51
34.352806
  0
ARC
  8
0
 62
     4
 10
117.944199
 20
111.538574
 40
7.998571
 50
331.063721
 51
28.936289
  0
ARC
  8
0
 10
109.999855
 20
20.000000
 40
35.000000
 50
132.024628
 51
137.975372
  0
ARC
  8
0
 10
109.999855
 20
20.000000
 40
35.000000
 50
312.024628
 51
317.975372
  0
ARC
  8
0
 10
109.999855
 20
20.000000
 40
35.000000
 50
222.024628
 51
227.975372
  0
ARC
  8
0
 10
109.999855
 20
20.000000
 40
35.000004
 50
42.024616
 51
47.975372
  0
ARC
  8
0
 10
86.599854
 20
29.100000
 40
2.100000
 50
270.000000
 51
90.000000
  0
ARC
  8
0
 10
86.599854
 20
10.900000
 40
2.100000
 50
270.000000
 51
90.000000
  0
ARC
  8
0
 10
100.899857
 20
43.400002
 40
2.099998
 50
180.000000
 51
0.000000
  0
ARC
  8
0
 10
119.099854
 20
43.400002
 40
2.099998
 50
180.000000
 51
0.000000
  0
ARC
  8
0
 10
133.399857
 20
29.100000
 40
2.100000
 50
90.000000
 51
270.000000
  0
ARC
  8
0
 10
133.399857
 20
10.900000
 40
2.100000
 50
90.000000
 51
270.000000
  0
ARC
  8
0
 10
119.099854
 20
-3.400000
 40
2.099998
 50
0.000000
 51
180.000000
  0
ARC
  8
0
 10
100.899857
 20
-3.400000
 40
2.099998
 50
0.000000
 51
180.000000
  0
CIRCLE
  8
0
 10
109.999855
 20
20.000000
 40
20.000000
  0
CIRCLE
  8
0
 10
129.999847
 20
40.000000
 40
4.750000
  0
CIRCLE
  8
0
 62
     2
 10
129.999847
 20
40.000000
 40
4.000000
  0
CIRCLE
  8
0
 62
     2
 10
129.999847
 20
40.000000
 40
4.000000
  0
CIRCLE
  8
0
 10
129.999847
 20
40.000000
 40
3.323500
  0
CIRCLE
  8
0
 10
89.999855
 20
40.000000
 40
4.750000
  0
CIRCLE
  8
0
 62
     2
 10
89.999855
 20
40.000000
 40
4.000000
  0
CIRCLE
  8
0
 62
     2
 10
89.999855
 20
40.000000
 40
4.000000
  0
CIRCLE
  8
0
 10
89.999855
 20
40.000000
 40
3.323500
  0
CIRCLE
  8
0
 10
89.999855
 20
0.000000
 40
4.750000
  0
CIRCLE
  8
0
 62
     2
 10
89.999855
 20
0.000000
 40
4.000000
  0
CIRCLE
  8
0
 62
     2
 10
89.999855
 20
0.000000
 40
4.000000
  0
CIRCLE
  8
0
 10
89.999855
 20
0.000000
 40
3.323500
  0
CIRCLE
  8
0
 10
129.999847
 20
0.000000
 40
4.750000
  0
CIRCLE
  8
0
 62
     2
 10
129.999847
 20
0.000000
 40
4.000000
  0
CIRCLE
  8
0
 62
     2
 10
129.999847
 20
0.000000
 40
4.000000
  0
CIRCLE
  8
0
 10
129.999847
 20
0.000000
 40
3.323500
  0
ARC
  8
0
 10
-115.000145
 20
20.000000
 40
35.000000
 50
42.024628
 51
47.975372
  0
ARC
  8
0
 10
-115.000145
 20
20.000000
 40
35.000000
 50
312.024628
 51
317.975372
  0
ARC
  8
0
 10
-115.000145
 20
20.000000
 40
34.999996
 50
222.024643
 51
227.975372
  0
ARC
  8
0
 10
-115.000145
 20
20.000000
 40
35.000000
 50
132.024628
 51
137.975357
  0
CIRCLE
  8
0
 10
-95.000145
 20
0.000000
 40
4.750000
  0
CIRCLE
  8
0
 10
-135.000153
 20
0.000000
 40
4.750000
  0
CIRCLE
  8
0
 10
-95.000145
 20
40.000000
 40
4.750000
  0
CIRCLE
  8
0
 10
-135.000153
 20
40.000000
 40
4.750000
  0
CIRCLE
  8
0
 62
     2
 10
-95.000145
 20
40.000000
 40
4.000000
  0
CIRCLE
  8
0
 62
     2
 10
-95.000145
 20
0.000000
 40
4.000000
  0
CIRCLE
  8
0
 62
     2
 10
-135.000153
 20
0.000000
 40
4.000000
  0
CIRCLE
  8
0
 62
     2
 10
-135.000153
 20
40.000000
 40
4.000000
  0
CIRCLE
  8
0
 62
     4
 10
-115.000145
 20
20.000000
 40
8.000000
  0
CIRCLE
  8
0
 62
     1
 10
-115.000145
 20
20.000000
 40
4.000000
  0
CIRCLE
  8
0
 62
     4
 10
-115.000145
 20
20.000000
 40
3.375000
  0
CIRCLE
  8
0
 62
     4
 10
-115.000145
 20
20.000000
 40
7.000000
  0
CIRCLE
  8
0
 62
     2
 10
-95.000145
 20
40.000000
 40
4.000000
  0
CIRCLE
  8
0
 10
-95.000145
 20
40.000000
 40
3.323500
  0
CIRCLE
  8
0
 10
-95.000145
 20
0.000000
 40
3.323500
  0
CIRCLE
  8
0
 10
-135.000153
 20
40.000000
 40
3.323500
  0
ARC
  8
0
 62
     4
 10
-26.000147
 20
20.000000
 40
7.998557
 50
331.063660
 51
28.936331
  0
CIRCLE
  8
0
 62
     2
 10
28.999853
 20
20.000000
 40
4.863999
  0
CIRCLE
  8
0
 10
28.999853
 20
20.000000
 40
4.278000
  0
CIRCLE
  8
0
 62
     2
 10
10.499853
 20
20.000000
 40
4.863999
  0
CIRCLE
  8
0
 10
10.499853
 20
20.000000
 40
4.278000
  0
TEXT
  8
0
 10
-215.142807
 20
-176.050003
 40
4.500000
  1
-5
 50
0.000000
 41
1.052632
 51
0.000000
  7
STANDARD
  0
TEXT
  8
0
 10
-190.892807
 20
-176.050003
 40
4.500000
  1
0
 50
0.000000
 41
1.052632
 51
0.000000
  7
STANDARD
  0
TEXT
  8
0
 10
-168.892807
 20
-176.050003
 40
4.500000
  1
5
 50
0.000000
 41
1.052632
 51
0.000000
  7
STANDARD
  0
TEXT
  8
0
 10
-149.142807
 20
-176.050003
 40
4.500000
  1
10
 50
0.000000
 41
1.052632
 51
0.000000
  7
STANDARD
  0
TEXT
  8
0
 10
-127.142799
 20
-176.050003
 40
4.500000
  1
15
 50
0.000000
 41
1.052632
 51
0.000000
  7
STANDARD
  0
TEXT
  8
0
 10
-105.142799
 20
-176.050003
 40
4.500000
  1
20
 50
0.000000
 41
1.052632
 51
0.000000
  7
STANDARD
  0
TEXT
  8
0
 10
-83.142799
 20
-176.050003
 40
4.500000
  1
25
 50
0.000000
 41
1.052632
 51
0.000000
  7
STANDARD
  0
TEXT
  8
0
 10
-61.142803
 20
-176.050003
 40
4.500000
  1
30
 50
0.000000
 41
1.052632
 51
0.000000
  7
STANDARD
  0
TEXT
  8
0
 10
-39.142803
 20
-176.050003
 40
4.500000
  1
35
 50
0.000000
 41
1.052632
 51
0.000000
  7
STANDARD
  0
TEXT
  8
0
 10
-17.142803
 20
-176.050003
 40
4.500000
  1
40
 50
0.000000
 41
1.052632
 51
0.000000
  7
STANDARD
  0
TEXT
  8
0
 10
4.857197
 20
-176.050003
 40
4.500000
  1
65
 50
0.000000
 41
1.052632
 51
0.000000
  7
STANDARD
  0
TEXT
  8
0
 10
26.857197
 20
-176.050003
 40
4.500000
  1
90
 50
0.000000
 41
1.052632
 51
0.000000
  7
STANDARD
  0
TEXT
  8
0
 10
196.250107
 20
180.830002
 40
6.300000
  1
éuüvÕú‗.ü@éPüDéO
 50
0.000000
 41
0.833333
 51
0.000000
  7
STANDARD
  0
TEXT
  8
0
 10
167.564514
 20
-192.100006
 40
9.000000
  1
KOGANEI CORP.
 50
0.000000
 41
1.052632
 51
0.000000
  7
STANDARD
  0
TEXT
  8
0
 10
-269.149872
 20
180.830002
 40
6.300000
  1
CS JIG CYLINDER
 50
0.000000
 41
1.052632
 51
0.000000
  7
STANDARD
  0
TEXT
  8
0
 10
-232.249863
 20
125.830002
 40
6.300000
  1
CS-CDAS40*ST-R
 50
0.000000
 41
1.052632
 51
0.000000
  7
STANDARD
  0
TEXT
  8
0
 10
-264.000153
 20
-174.699997
 40
4.500000
  1
CDA40-R
 50
0.000000
 41
1.052632
 51
0.000000
  7
STANDARD
  0
TEXT
  8
0
 10
-264.000153
 20
-166.699997
 40
4.500000
  1
CDAS40
 50
0.000000
 41
1.052632
 51
0.000000
  7
STANDARD
  0
TEXT
  8
0
 10
-264.000153
 20
-158.699997
 40
4.500000
  1
CDA40
 50
0.000000
 41
1.052632
 51
0.000000
  7
STANDARD
  0
TEXT
  8
0
 10
-17.142803
 20
-148.050003
 40
4.500000
  1
50
 50
0.000000
 41
1.052632
 51
0.000000
  7
STANDARD
  0
TEXT
  8
0
 10
4.857197
 20
-148.050003
 40
4.500000
  1
75
 50
0.000000
 41
1.052632
 51
0.000000
  7
STANDARD
  0
TEXT
  8
0
 10
24.607197
 20
-148.050003
 40
4.500000
  1
100
 50
0.000000
 41
1.052632
 51
0.000000
  7
STANDARD
  0
TEXT
  8
0
 10
-264.642822
 20
-184.050003
 40
4.500000
  1
CDAS40-R
 50
0.000000
 41
1.052632
 51
0.000000
  7
STANDARD
  0
TEXT
  8
0
 10
-265.408447
 20
-152.050003
 40
4.500000
  1
TYPE
 50
0.000000
 41
1.052632
 51
0.000000
  7
STANDARD
  0
TEXT
  8
0
 10
-250.377182
 20
-144.050003
 40
4.500000
  1
STROKE
 50
0.000000
 41
1.052632
 51
0.000000
  7
STANDARD
  0
TEXT
  8
0
 10
-212.892807
 20
-148.050003
 40
4.500000
  1
5
 50
0.000000
 41
1.052632
 51
0.000000
  7
STANDARD
  0
TEXT
  8
0
 10
-193.142807
 20
-148.050003
 40
4.500000
  1
10
 50
0.000000
 41
1.052632
 51
0.000000
  7
STANDARD
  0
TEXT
  8
0
 10
-171.142807
 20
-148.050003
 40
4.500000
  1
15
 50
0.000000
 41
1.052632
 51
0.000000
  7
STANDARD
  0
TEXT
  8
0
 10
-149.142807
 20
-148.050003
 40
4.500000
  1
20
 50
0.000000
 41
1.052632
 51
0.000000
  7
STANDARD
  0
TEXT
  8
0
 10
-127.142799
 20
-148.050003
 40
4.500000
  1
25
 50
0.000000
 41
1.052632
 51
0.000000
  7
STANDARD
  0
TEXT
  8
0
 10
-105.142799
 20
-148.050003
 40
4.500000
  1
30
 50
0.000000
 41
1.052632
 51
0.000000
  7
STANDARD
  0
TEXT
  8
0
 10
-83.142799
 20
-148.050003
 40
4.500000
  1
35
 50
0.000000
 41
1.052632
 51
0.000000
  7
STANDARD
  0
TEXT
  8
0
 10
-61.142803
 20
-148.050003
 40
4.500000
  1
40
 50
0.000000
 41
1.052632
 51
0.000000
  7
STANDARD
  0
TEXT
  8
0
 10
-39.142803
 20
-148.050003
 40
4.500000
  1
45
 50
0.000000
 41
1.052632
 51
0.000000
  7
STANDARD
  0
TEXT
  8
0
 10
-212.892807
 20
-184.050003
 40
4.500000
  1
5
 50
0.000000
 41
1.052632
 51
0.000000
  7
STANDARD
  0
TEXT
  8
0
 10
-193.142807
 20
-184.050003
 40
4.500000
  1
10
 50
0.000000
 41
1.052632
 51
0.000000
  7
STANDARD
  0
TEXT
  8
0
 10
-171.142807
 20
-184.050003
 40
4.500000
  1
15
 50
0.000000
 41
1.052632
 51
0.000000
  7
STANDARD
  0
TEXT
  8
0
 10
-149.142807
 20
-184.050003
 40
4.500000
  1
20
 50
0.000000
 41
1.052632
 51
0.000000
  7
STANDARD
  0
TEXT
  8
0
 10
-127.142799
 20
-184.050003
 40
4.500000
  1
25
 50
0.000000
 41
1.052632
 51
0.000000
  7
STANDARD
  0
TEXT
  8
0
 10
-105.142799
 20
-184.050003
 40
4.500000
  1
30
 50
0.000000
 41
1.052632
 51
0.000000
  7
STANDARD
  0
TEXT
  8
0
 10
-83.142799
 20
-184.050003
 40
4.500000
  1
35
 50
0.000000
 41
1.052632
 51
0.000000
  7
STANDARD
  0
TEXT
  8
0
 10
-61.142803
 20
-184.050003
 40
4.500000
  1
40
 50
0.000000
 41
1.052632
 51
0.000000
  7
STANDARD
  0
TEXT
  8
0
 10
-39.142803
 20
-184.050003
 40
4.500000
  1
45
 50
0.000000
 41
1.052632
 51
0.000000
  7
STANDARD
  0
TEXT
  8
0
 10
-17.142803
 20
-184.050003
 40
4.500000
  1
50
 50
0.000000
 41
1.052632
 51
0.000000
  7
STANDARD
  0
TEXT
  8
0
 10
4.857197
 20
-184.050003
 40
4.500000
  1
75
 50
0.000000
 41
1.052632
 51
0.000000
  7
STANDARD
  0
TEXT
  8
0
 10
24.607197
 20
-184.050003
 40
4.500000
  1
100
 50
0.000000
 41
1.052632
 51
0.000000
  7
STANDARD
  0
TEXT
  8
0
 10
24.607197
 20
-168.050003
 40
4.500000
  1
100
 50
0.000000
 41
1.052632
 51
0.000000
  7
STANDARD
  0
TEXT
  8
0
 10
4.857197
 20
-168.050003
 40
4.500000
  1
75
 50
0.000000
 41
1.052632
 51
0.000000
  7
STANDARD
  0
TEXT
  8
0
 10
-17.142803
 20
-168.050003
 40
4.500000
  1
50
 50
0.000000
 41
1.052632
 51
0.000000
  7
STANDARD
  0
TEXT
  8
0
 10
-39.142803
 20
-168.050003
 40
4.500000
  1
45
 50
0.000000
 41
1.052632
 51
0.000000
  7
STANDARD
  0
TEXT
  8
0
 10
-61.142803
 20
-168.050003
 40
4.500000
  1
40
 50
0.000000
 41
1.052632
 51
0.000000
  7
STANDARD
  0
TEXT
  8
0
 10
-83.142799
 20
-168.050003
 40
4.500000
  1
35
 50
0.000000
 41
1.052632
 51
0.000000
  7
STANDARD
  0
TEXT
  8
0
 10
-105.142799
 20
-168.050003
 40
4.500000
  1
30
 50
0.000000
 41
1.052632
 51
0.000000
  7
STANDARD
  0
TEXT
  8
0
 10
-127.142799
 20
-168.050003
 40
4.500000
  1
25
 50
0.000000
 41
1.052632
 51
0.000000
  7
STANDARD
  0
TEXT
  8
0
 10
-149.142807
 20
-168.050003
 40
4.500000
  1
20
 50
0.000000
 41
1.052632
 51
0.000000
  7
STANDARD
  0
TEXT
  8
0
 10
-171.142807
 20
-168.050003
 40
4.500000
  1
15
 50
0.000000
 41
1.052632
 51
0.000000
  7
STANDARD
  0
TEXT
  8
0
 10
-193.142807
 20
-168.050003
 40
4.500000
  1
10
 50
0.000000
 41
1.052632
 51
0.000000
  7
STANDARD
  0
TEXT
  8
0
 10
-212.892807
 20
-168.050003
 40
4.500000
  1
5
 50
0.000000
 41
1.052632
 51
0.000000
  7
STANDARD
  0
TEXT
  8
0
 10
-215.142807
 20
-160.050003
 40
4.500000
  1
-5
 50
0.000000
 41
1.052632
 51
0.000000
  7
STANDARD
  0
TEXT
  8
0
 10
-190.892807
 20
-160.050003
 40
4.500000
  1
0
 50
0.000000
 41
1.052632
 51
0.000000
  7
STANDARD
  0
TEXT
  8
0
 10
-168.892807
 20
-160.050003
 40
4.500000
  1
5
 50
0.000000
 41
1.052632
 51
0.000000
  7
STANDARD
  0
TEXT
  8
0
 10
-149.142807
 20
-160.050003
 40
4.500000
  1
10
 50
0.000000
 41
1.052632
 51
0.000000
  7
STANDARD
  0
TEXT
  8
0
 10
-127.142799
 20
-160.050003
 40
4.500000
  1
15
 50
0.000000
 41
1.052632
 51
0.000000
  7
STANDARD
  0
TEXT
  8
0
 10
-105.142799
 20
-160.050003
 40
4.500000
  1
20
 50
0.000000
 41
1.052632
 51
0.000000
  7
STANDARD
  0
TEXT
  8
0
 10
-83.142799
 20
-160.050003
 40
4.500000
  1
25
 50
0.000000
 41
1.052632
 51
0.000000
  7
STANDARD
  0
TEXT
  8
0
 10
-61.142803
 20
-160.050003
 40
4.500000
  1
30
 50
0.000000
 41
1.052632
 51
0.000000
  7
STANDARD
  0
TEXT
  8
0
 10
-39.142803
 20
-160.050003
 40
4.500000
  1
35
 50
0.000000
 41
1.052632
 51
0.000000
  7
STANDARD
  0
TEXT
  8
0
 10
-17.142803
 20
-160.050003
 40
4.500000
  1
40
 50
0.000000
 41
1.052632
 51
0.000000
  7
STANDARD
  0
TEXT
  8
0
 10
4.857197
 20
-160.050003
 40
4.500000
  1
65
 50
0.000000
 41
1.052632
 51
0.000000
  7
STANDARD
  0
TEXT
  8
0
 10
26.857197
 20
-160.050003
 40
4.500000
  1
90
 50
0.000000
 41
1.052632
 51
0.000000
  7
STANDARD
  0
TEXT
  8
0
 10
-141.642807
 20
-135.050003
 40
4.500000
  1
STRETCH LIST
 50
0.000000
 41
1.052632
 51
0.000000
  7
STANDARD
  0
TEXT
  8
0
 62
     3
 10
-20.449865
 20
166.509521
 40
6.300000
  1
STRETCH LINE
 50
0.000000
 41
1.052632
 51
0.000000
  7
STANDARD
  0
TEXT
  8
0
 10
-270.049866
 20
155.830002
 40
6.300000
  1
MODEL:CS-CDA40*ST(10)
 50
0.000000
 41
1.052632
 51
0.000000
  7
STANDARD
  0
TEXT
  8
0
 10
-232.249863
 20
145.830002
 40
6.300000
  1
CS-CDAS40*ST
 50
0.000000
 41
1.052632
 51
0.000000
  7
STANDARD
  0
TEXT
  8
0
 10
-232.249863
 20
135.830002
 40
6.300000
  1
CS-CDA40*ST-R
 50
0.000000
 41
1.052632
 51
0.000000
  7
STANDARD
  0
TEXT
  8
0
 10
22.357197
 20
-136.050003
 40
4.500000
  1
üiéìéìüj
 50
0.000000
 41
0.833333
 51
0.000000
  7
STANDARD
  0
TEXT
  8
0
 10
121.994514
 20
136.868622
 40
6.300000
  1
-B
 50
0.000000
 41
1.052632
 51
0.000000
  7
STANDARD
  0
TEXT
  8
0
 10
202.719330
 20
136.868668
 40
6.300000
  1
-G
 50
0.000000
 41
1.052632
 51
0.000000
  7
STANDARD
  0
ENDSEC
  0
EOF
