  0
SECTION
  2
HEADER
  0
ENDSEC
  0
SECTION
  2
TABLES
  0
TABLE
  2
LTYPE
 70
     4
  0
LTYPE
  2
CONTINUOUS
 70
    64
  3
Solid line
 72
    65
 73
     0
 40
0.000000
  0
LTYPE
  2
DASHED
 70
    64
  3
__ __ __ __ __ __ __ __ __ __ __ __ __ __ __
 72
    65
 73
     2
 40
3.500000
 49
2.000000
 49
-1.500000
  0
LTYPE
  2
CENTER
 70
    64
  3
____ _ ____ _ ____ _ ____ _ ____ _ ____ _ ____
 72
    65
 73
     4
 40
17.500000
 49
13.000000
 49
-1.500000
 49
1.500000
 49
-1.500000
  0
LTYPE
  2
PHANTOM
 70
    64
  3
_____ _ _ _____ _ _ _____ _ _ _____ _ _ ____  
 72
    65
 73
     6
 40
15.500000
 49
8.000000
 49
-1.500000
 49
1.500000
 49
-1.500000
 49
1.500000
 49
-1.500000
  0
LTYPE
  2
DASHED1
 70
    64
  3
__ __ __ __ __ __ __ __ __ __ __ __ __ __ __
 72
    65
 73
     2
 40
1.500000
 49
1.000000
 49
-0.500000
  0
LTYPE
  2
DASHED2
 70
    64
  3
__ __ __ __ __ __ __ __ __ __ __ __ __ __ __
 72
    65
 73
     2
 40
3.500000
 49
2.500000
 49
-1.000000
  0
LTYPE
  2
DASHED3
 70
    64
  3
__ __ __ __ __ __ __ __ __ __ __ __ __ __ __
 72
    65
 73
     2
 40
6.000000
 49
4.000000
 49
-2.000000
  0
LTYPE
  2
DASHED4
 70
    64
  3
__ __ __ __ __ __ __ __ __ __ __ __ __ __ __
 72
    65
 73
     2
 40
12.000000
 49
10.000000
 49
-2.000000
  0
LTYPE
  2
DASHED5
 70
    64
  3
__ __ __ __ __ __ __ __ __ __ __ __ __ __ __
 72
    65
 73
     2
 40
17.000000
 49
15.000000
 49
-2.000000
  0
LTYPE
  2
DASHED6
 70
    64
  3
__ __ __ __ __ __ __ __ __ __ __ __ __ __ __
 72
    65
 73
     2
 40
29.000000
 49
27.000000
 49
-2.000000
  0
LTYPE
  2
PHANTOM1
 70
    64
  3
_____ _ _ _____ _ _ _____ _ _ _____ _ _ ____  
 72
    65
 73
     6
 40
31.000000
 49
25.000000
 49
-1.500000
 49
1.000000
 49
-1.000000
 49
1.000000
 49
-1.500000
  0
LTYPE
  2
PHANTOM2
 70
    64
  3
_____ _ _ _____ _ _ _____ _ _ _____ _ _ ____  
 72
    65
 73
     6
 40
36.000000
 49
27.000000
 49
-1.500000
 49
2.500000
 49
-1.000000
 49
2.500000
 49
-1.500000
  0
LTYPE
  2
PHANTOM3
 70
    64
  3
_____ _ _ _____ _ _ _____ _ _ _____ _ _ ____  
 72
    65
 73
     6
 40
78.000000
 49
64.000000
 49
-2.000000
 49
4.000000
 49
-2.000000
 49
4.000000
 49
-2.000000
  0
LTYPE
  2
CENTER1
 70
    64
  3
____ _ ____ _ ____ _ ____ _ ____ _ ____ _ ____
 72
    65
 73
     4
 40
19.000000
 49
14.000000
 49
-1.000000
 49
3.000000
 49
-1.000000
  0
LTYPE
  2
CENTER2
 70
    64
  3
____ _ ____ _ ____ _ ____ _ ____ _ ____ _ ____
 72
    65
 73
     4
 40
28.500000
 49
25.000000
 49
-1.000000
 49
1.500000
 49
-1.000000
  0
LTYPE
  2
CENTER3
 70
    64
  3
____ _ ____ _ ____ _ ____ _ ____ _ ____ _ ____
 72
    65
 73
     4
 40
31.500000
 49
27.000000
 49
-1.000000
 49
2.500000
 49
-1.000000
  0
LTYPE
  2
CENTER4
 70
    64
  3
____ _ ____ _ ____ _ ____ _ ____ _ ____ _ ____
 72
    65
 73
     4
 40
50.000000
 49
45.000000
 49
-1.000000
 49
3.000000
 49
-1.000000
  0
LTYPE
  2
CENTER5
 70
    64
  3
____ _ ____ _ ____ _ ____ _ ____ _ ____ _ ____
 72
    65
 73
     4
 40
100.000000
 49
92.000000
 49
-2.000000
 49
4.000000
 49
-2.000000
  0
LTYPE
  2
SBK1
 70
    64
  3
______ _ _ _ ______ _ _ _ ______ _ _ _ _____  
 72
    65
 73
     8
 40
60.500000
 49
45.000000
 49
-2.000000
 49
2.500000
 49
-2.000000
 49
2.500000
 49
-2.000000
 49
2.500000
 49
-2.000000
  0
LTYPE
  2
SBK2
 70
    64
  3
______ _ _ _ ______ _ _ _ ______ _ _ _ _____  
 72
    65
 73
     8
 40
84.000000
 49
64.000000
 49
-2.000000
 49
4.000000
 49
-2.000000
 49
4.000000
 49
-2.000000
 49
4.000000
 49
-2.000000
  0
LTYPE
  2
STCH
 70
    64
  3
__ __ __ __ __ __ __ __ __ __ __ __ __ __ __
 72
    65
 73
     2
 40
3.000000
 49
1.000000
 49
-2.000000
  0
LTYPE
  2
MTCH
 70
    64
  3
_____ _ _ _____ _ _ _____ _ _ _____ _ _ ____  
 72
    65
 73
     6
 40
80.000000
 49
66.000000
 49
-2.000000
 49
4.000000
 49
-2.000000
 49
4.000000
 49
-2.000000
  0
ENDTAB
  0
TABLE
  2
LAYER
 70
     1
  0
LAYER
  2
0
 70
     0
 62
     7
  6
CONTINUOUS
  0
ENDTAB
  0
TABLE
  2
STYLE
 70
     1
  0
STYLE
  2
STANDARD
 70
     0
 40
0.000000
 41
1.000000
 50
0.000000
 71
     0
 42
0.200000
  3
txt
  4
BIGFONT
  0
ENDTAB
  0
TABLE
  2
VIEW
 70
     0
  0
ENDTAB
  0
ENDSEC
  0
SECTION
  2
BLOCKS
  0
ENDSEC
  0
SECTION
  2
ENTITIES
  0
LINE
  8
0
 62
     4
 10
90.061424
 20
-45.715775
 11
91.771423
 21
-44.005775
  0
LINE
  8
0
 62
     4
 10
90.481422
 20
-46.145775
 11
92.201424
 21
-44.435776
  0
LINE
  8
0
 62
     4
 10
111.131424
 20
-42.825775
 11
111.131424
 21
-47.325775
  0
LINE
  8
0
 62
     4
 10
106.211426
 20
-47.325775
 11
111.131424
 21
-47.325775
  0
LINE
  8
0
 62
     4
 10
106.211426
 20
-42.825775
 11
111.131424
 21
-42.825775
  0
LINE
  8
0
  6
CENTER
 62
     1
 10
91.131424
 20
-42.245773
 11
91.131424
 21
-47.825775
  0
LINE
  8
0
 62
     4
 10
89.131424
 20
-43.025776
 11
89.131424
 21
-47.125774
  0
LINE
  8
0
 62
     4
 10
89.131424
 20
-43.025776
 11
106.041428
 21
-43.025776
  0
LINE
  8
0
 62
     4
 10
89.131424
 20
-47.125774
 11
106.041428
 21
-47.125774
  0
LINE
  8
0
 62
     4
 10
89.131424
 20
-43.575775
 11
105.691422
 21
-43.575775
  0
LINE
  8
0
 62
     4
 10
89.131424
 20
-46.575775
 11
105.691422
 21
-46.575775
  0
LINE
  8
0
  6
CENTER
 62
     1
 10
87.811424
 20
-45.075775
 11
112.711426
 21
-45.075775
  0
LINE
  8
0
 62
     4
 10
47.388699
 20
-82.025795
 11
47.388699
 21
-85.775795
  0
LINE
  8
0
 62
     4
 10
44.788700
 20
-83.525795
 11
44.788700
 21
-85.775795
  0
LINE
  8
0
 62
     4
 10
44.838699
 20
-92.175797
 11
47.338699
 21
-92.175797
  0
LINE
  8
0
 62
     4
 10
47.338699
 20
-92.175797
 11
47.338699
 21
-92.675797
  0
LINE
  8
0
 62
     1
 10
47.108700
 20
-92.175797
 11
47.108700
 21
-92.675797
  0
LINE
  8
0
 62
     1
 10
45.068699
 20
-92.175797
 11
45.068699
 21
-92.675797
  0
LINE
  8
0
 62
     4
 10
44.838699
 20
-92.175797
 11
44.838699
 21
-92.675797
  0
LINE
  8
0
 62
     4
 10
44.838699
 20
-96.445793
 11
47.338699
 21
-96.445793
  0
LINE
  8
0
 62
     4
 10
47.338699
 20
-95.275795
 11
47.338699
 21
-96.445793
  0
LINE
  8
0
 62
     1
 10
47.108700
 20
-95.275795
 11
47.108700
 21
-96.675797
  0
LINE
  8
0
 62
     1
 10
45.068699
 20
-95.275795
 11
45.068699
 21
-96.675797
  0
LINE
  8
0
 62
     4
 10
44.838699
 20
-95.275795
 11
44.838699
 21
-96.445793
  0
LINE
  8
0
 62
     4
 10
45.068699
 20
-96.675804
 11
44.838699
 21
-96.445801
  0
LINE
  8
0
 62
     4
 10
47.108704
 20
-96.675797
 11
47.338699
 21
-96.445793
  0
LINE
  8
0
 62
     4
 10
45.068699
 20
-96.675797
 11
47.108700
 21
-96.675797
  0
LINE
  8
0
 62
     1
 10
43.928699
 20
-84.025787
 11
48.248699
 21
-81.525787
  0
LINE
  8
0
 62
     4
 10
43.838699
 20
-85.775795
 11
48.338699
 21
-85.775795
  0
LINE
  8
0
 62
     4
 10
44.038700
 20
-95.275795
 11
48.138699
 21
-95.275795
  0
LINE
  8
0
 62
     4
 10
44.038700
 20
-94.475800
 11
48.138699
 21
-94.475800
  0
LINE
  8
0
 62
     4
 10
44.588699
 20
-92.675797
 11
47.588699
 21
-92.675797
  0
LINE
  8
0
  6
CENTER
 62
     1
 10
46.088699
 20
-80.115799
 11
46.088699
 21
-98.735794
  0
LINE
  8
0
 62
     4
 10
48.338699
 20
-85.775795
 11
48.338699
 21
-91.525795
  0
LINE
  8
0
 62
     4
 10
47.588699
 20
-92.275795
 11
48.338699
 21
-91.525795
  0
LINE
  8
0
 62
     4
 10
47.588699
 20
-93.125793
 11
47.588699
 21
-92.275795
  0
LINE
  8
0
 62
     4
 10
48.138699
 20
-93.675789
 11
47.588699
 21
-93.125786
  0
LINE
  8
0
 62
     4
 10
48.138699
 20
-93.675797
 11
48.138699
 21
-95.225800
  0
LINE
  8
0
 62
     4
 10
44.038700
 20
-93.675797
 11
44.038700
 21
-95.225800
  0
LINE
  8
0
 62
     4
 10
44.038696
 20
-93.675797
 11
44.588696
 21
-93.125793
  0
LINE
  8
0
 62
     4
 10
44.588699
 20
-93.125793
 11
44.588699
 21
-92.275795
  0
LINE
  8
0
 62
     4
 10
44.588696
 20
-92.275787
 11
43.838703
 21
-91.525795
  0
LINE
  8
0
 62
     4
 10
43.838699
 20
-85.775795
 11
43.838699
 21
-91.525795
  0
LINE
  8
0
 62
     4
 10
43.838699
 20
-87.275795
 11
48.338699
 21
-87.275795
  0
LINE
  8
0
 62
     4
 10
109.831421
 20
-80.525795
 11
109.831421
 21
-77.275795
  0
LINE
  8
0
 62
     4
 10
107.231422
 20
-82.025795
 11
107.231422
 21
-77.275795
  0
LINE
  8
0
 62
     4
 10
107.231422
 20
-85.775795
 11
107.231422
 21
-83.525795
  0
LINE
  8
0
 62
     4
 10
109.831421
 20
-85.775795
 11
109.831421
 21
-82.025795
  0
LINE
  8
0
 62
     4
 10
89.881424
 20
-92.175797
 11
92.381424
 21
-92.175797
  0
LINE
  8
0
 62
     4
 10
92.381424
 20
-92.175797
 11
92.381424
 21
-92.675797
  0
LINE
  8
0
 62
     1
 10
92.151421
 20
-92.175797
 11
92.151421
 21
-92.675797
  0
LINE
  8
0
 62
     1
 10
90.101425
 20
-92.175797
 11
90.101425
 21
-92.675797
  0
LINE
  8
0
 62
     4
 10
89.881424
 20
-92.175797
 11
89.881424
 21
-92.675797
  0
LINE
  8
0
 62
     4
 10
89.881424
 20
-96.445793
 11
92.381424
 21
-96.445793
  0
LINE
  8
0
 62
     4
 10
92.381424
 20
-95.275795
 11
92.381424
 21
-96.445793
  0
LINE
  8
0
 62
     1
 10
92.151421
 20
-95.275795
 11
92.151421
 21
-96.675797
  0
LINE
  8
0
 62
     1
 10
90.101425
 20
-95.275795
 11
90.101425
 21
-96.675797
  0
LINE
  8
0
 62
     4
 10
89.881424
 20
-95.275795
 11
89.881424
 21
-96.445793
  0
LINE
  8
0
 62
     4
 10
90.101433
 20
-96.675804
 11
89.881424
 21
-96.445793
  0
LINE
  8
0
 62
     4
 10
92.151421
 20
-96.675797
 11
92.381424
 21
-96.445793
  0
LINE
  8
0
 62
     4
 10
90.101425
 20
-96.675797
 11
92.151421
 21
-96.675797
  0
LINE
  8
0
 62
     1
 10
106.371422
 20
-84.025795
 11
110.701424
 21
-81.525795
  0
LINE
  8
0
 62
     1
 10
106.371422
 20
-82.525795
 11
110.701424
 21
-80.025795
  0
LINE
  8
0
 62
     1
 10
106.371422
 20
-75.045799
 11
110.701424
 21
-72.545799
  0
LINE
  8
0
  6
CENTER
 62
     1
 10
108.531425
 20
-87.095795
 11
108.531425
 21
-77.275795
  0
LINE
  8
0
 62
     1
 10
106.371422
 20
-73.545799
 11
110.701424
 21
-71.045799
  0
LINE
  8
0
 62
     4
 10
109.231422
 20
-70.275795
 11
109.231422
 21
-67.275795
  0
LINE
  8
0
 62
     4
 10
108.731422
 20
-70.275795
 11
108.731422
 21
-67.275795
  0
LINE
  8
0
 62
     4
 10
108.331421
 20
-70.275795
 11
108.331421
 21
-67.275795
  0
LINE
  8
0
 62
     4
 10
107.831421
 20
-70.275795
 11
107.831421
 21
-67.275795
  0
LINE
  8
0
 62
     4
 10
107.631424
 20
-72.815796
 11
107.631424
 21
-70.275795
  0
LINE
  8
0
 62
     4
 10
107.631424
 20
-77.275795
 11
107.631424
 21
-74.315796
  0
LINE
  8
0
 62
     4
 10
109.431427
 20
-71.775795
 11
109.431427
 21
-70.275795
  0
LINE
  8
0
 62
     4
 10
108.531425
 20
-72.295799
 11
108.531425
 21
-70.275795
  0
LINE
  8
0
 62
     4
 10
108.531425
 20
-77.275795
 11
108.531425
 21
-73.795799
  0
LINE
  8
0
 62
     4
 10
109.431427
 20
-77.275795
 11
109.431427
 21
-73.275795
  0
LINE
  8
0
 62
     4
 10
107.631424
 20
-70.275795
 11
109.431427
 21
-70.275795
  0
LINE
  8
0
 62
     4
 10
108.731422
 20
-67.275795
 11
109.231422
 21
-67.275795
  0
LINE
  8
0
 62
     4
 10
107.831421
 20
-67.275795
 11
108.331421
 21
-67.275795
  0
LINE
  8
0
  6
CENTER
 62
     1
 10
108.981422
 20
-78.955795
 11
108.981422
 21
-67.025795
  0
LINE
  8
0
  6
CENTER
 62
     1
 10
108.081421
 20
-79.005798
 11
108.081421
 21
-67.075798
  0
LINE
  8
0
 62
     4
 10
107.231422
 20
-77.275795
 11
109.831421
 21
-77.275795
  0
LINE
  8
0
 62
     4
 10
105.231422
 20
-87.275795
 11
111.131424
 21
-87.275795
  0
LINE
  8
0
 62
     4
 10
105.231422
 20
-92.275795
 11
111.131424
 21
-92.275795
  0
LINE
  8
0
 62
     4
 10
105.231422
 20
-91.525795
 11
111.131424
 21
-91.525795
  0
LINE
  8
0
 62
     4
 10
89.131424
 20
-93.125793
 11
111.131424
 21
-93.125793
  0
LINE
  8
0
 62
     4
 10
89.131424
 20
-93.675797
 11
111.131424
 21
-93.675797
  0
LINE
  8
0
 62
     4
 10
93.401421
 20
-94.475800
 11
93.401421
 21
-95.655800
  0
LINE
  8
0
 62
     4
 10
93.401421
 20
-95.655800
 11
93.831421
 21
-95.655800
  0
LINE
  8
0
 62
     4
 10
93.331421
 20
-94.475800
 11
93.331421
 21
-96.475800
  0
LINE
  8
0
 62
     4
 10
93.331421
 20
-96.475800
 11
93.831421
 21
-96.475800
  0
LINE
  8
0
 62
     4
 10
105.231422
 20
-85.775795
 11
111.131424
 21
-85.775795
  0
LINE
  8
0
 62
     4
 10
93.131424
 20
-94.475800
 11
93.131424
 21
-95.275795
  0
LINE
  8
0
 62
     4
 10
89.131424
 20
-95.275795
 11
93.131424
 21
-95.275795
  0
LINE
  8
0
 62
     4
 10
89.131424
 20
-94.475800
 11
93.401421
 21
-94.475800
  0
LINE
  8
0
 62
     4
 10
105.231422
 20
-85.775795
 11
105.231422
 21
-92.675797
  0
LINE
  8
0
  6
CENTER
 62
     1
 10
91.131424
 20
-91.945793
 11
91.131424
 21
-97.845795
  0
LINE
  8
0
 62
     4
 10
93.831421
 20
-95.655800
 11
93.831421
 21
-97.275795
  0
LINE
  8
0
 62
     4
 10
89.131424
 20
-95.275795
 11
89.131424
 21
-92.675797
  0
LINE
  8
0
 62
     4
 10
111.131424
 20
-85.775795
 11
111.131424
 21
-97.275795
  0
LINE
  8
0
 62
     4
 10
93.831421
 20
-97.275795
 11
111.131424
 21
-97.275795
  0
LINE
  8
0
 62
     4
 10
89.131424
 20
-92.675797
 11
105.231422
 21
-92.675797
  0
LINE
  8
0
 62
     4
 10
-46.679520
 20
-51.425793
 11
-43.589520
 21
-51.425793
  0
LINE
  8
0
 62
     4
 10
-46.679520
 20
-48.825794
 11
-45.099518
 21
-48.825794
  0
LINE
  8
0
 62
     1
 10
-45.599518
 20
-47.965794
 11
-43.099518
 21
-52.285793
  0
LINE
  8
0
 62
     4
 10
-67.379517
 20
-51.185799
 11
-65.739517
 21
-49.565796
  0
LINE
  8
0
 62
     4
 10
-67.729515
 20
-50.835789
 11
-65.999519
 21
-49.105793
  0
LINE
  8
0
  6
CENTER
 62
     1
 10
-66.679520
 20
-47.295792
 11
-66.679520
 21
-52.875793
  0
LINE
  8
0
 62
     4
 10
-46.679520
 20
-48.075794
 11
-46.679520
 21
-52.175793
  0
LINE
  8
0
 62
     4
 10
-68.679520
 20
-48.075794
 11
-68.679520
 21
-52.175793
  0
LINE
  8
0
 62
     4
 10
-68.679520
 20
-48.075794
 11
-46.679520
 21
-48.075794
  0
LINE
  8
0
 62
     4
 10
-68.679520
 20
-52.175793
 11
-46.679520
 21
-52.175793
  0
LINE
  8
0
 62
     4
 10
-68.679520
 20
-48.625793
 11
-46.679520
 21
-48.625793
  0
LINE
  8
0
 62
     4
 10
-68.679520
 20
-51.625793
 11
-46.679520
 21
-51.625793
  0
LINE
  8
0
  6
CENTER
 62
     1
 10
-71.479523
 20
-50.125793
 11
-41.279518
 21
-50.125793
  0
LINE
  8
0
  6
CENTER
 62
     1
 10
-113.222244
 20
-90.625793
 11
-113.222244
 21
-99.335800
  0
LINE
  8
0
 62
     4
 10
-114.472244
 20
-92.175797
 11
-111.972244
 21
-92.175797
  0
LINE
  8
0
 62
     4
 10
-111.972244
 20
-92.175797
 11
-111.972244
 21
-92.675797
  0
LINE
  8
0
 62
     1
 10
-112.202248
 20
-92.175797
 11
-112.202248
 21
-92.675797
  0
LINE
  8
0
 62
     1
 10
-114.242241
 20
-92.175797
 11
-114.242241
 21
-92.675797
  0
LINE
  8
0
 62
     4
 10
-114.472244
 20
-92.175797
 11
-114.472244
 21
-92.675797
  0
LINE
  8
0
 62
     4
 10
-114.472244
 20
-96.445793
 11
-111.972244
 21
-96.445793
  0
LINE
  8
0
 62
     4
 10
-111.972244
 20
-95.265793
 11
-111.972244
 21
-96.445793
  0
LINE
  8
0
 62
     1
 10
-112.202248
 20
-95.265793
 11
-112.202248
 21
-96.675797
  0
LINE
  8
0
 62
     1
 10
-114.242241
 20
-95.265793
 11
-114.242241
 21
-96.675797
  0
LINE
  8
0
 62
     4
 10
-114.472244
 20
-95.265793
 11
-114.472244
 21
-96.445793
  0
LINE
  8
0
 62
     4
 10
-114.242233
 20
-96.675789
 11
-114.472237
 21
-96.445786
  0
LINE
  8
0
 62
     4
 10
-112.202248
 20
-96.675797
 11
-111.972244
 21
-96.445793
  0
LINE
  8
0
 62
     4
 10
-114.242241
 20
-96.675797
 11
-112.202248
 21
-96.675797
  0
LINE
  8
0
 62
     4
 10
-115.272247
 20
-95.265793
 11
-111.172241
 21
-95.265793
  0
LINE
  8
0
 62
     4
 10
-115.272247
 20
-94.475800
 11
-111.172241
 21
-94.475800
  0
LINE
  8
0
 62
     4
 10
-111.172241
 20
-93.675797
 11
-111.172241
 21
-95.225800
  0
LINE
  8
0
 62
     4
 10
-111.172241
 20
-93.675797
 11
-111.722244
 21
-93.125793
  0
LINE
  8
0
 62
     4
 10
-111.722244
 20
-92.675797
 11
-111.722244
 21
-93.125793
  0
LINE
  8
0
 62
     4
 10
-114.722244
 20
-92.675797
 11
-111.722244
 21
-92.675797
  0
LINE
  8
0
 62
     4
 10
-114.722244
 20
-92.675797
 11
-114.722244
 21
-93.125793
  0
LINE
  8
0
 62
     4
 10
-115.272247
 20
-93.675797
 11
-114.722244
 21
-93.125793
  0
LINE
  8
0
 62
     4
 10
-115.272247
 20
-93.675797
 11
-115.272247
 21
-95.225800
  0
LINE
  8
0
 62
     4
 10
-41.429535
 20
-96.275902
 11
-38.179535
 21
-96.275902
  0
LINE
  8
0
 62
     4
 10
-42.929535
 20
-93.675903
 11
-38.179535
 21
-93.675903
  0
LINE
  8
0
 62
     4
 10
-46.679535
 20
-96.275902
 11
-42.929535
 21
-96.275902
  0
LINE
  8
0
 62
     4
 10
-46.679535
 20
-93.675903
 11
-44.429535
 21
-93.675903
  0
LINE
  8
0
 62
     4
 10
-68.679535
 20
-93.125900
 11
-46.679535
 21
-93.125900
  0
LINE
  8
0
 62
     4
 10
-68.679535
 20
-93.675903
 11
-46.679535
 21
-93.675903
  0
LINE
  8
0
 62
     4
 10
-67.929535
 20
-92.175903
 11
-65.429535
 21
-92.175903
  0
LINE
  8
0
 62
     4
 10
-65.429535
 20
-92.175903
 11
-65.429535
 21
-92.675903
  0
LINE
  8
0
 62
     1
 10
-65.659538
 20
-92.175903
 11
-65.659538
 21
-92.675903
  0
LINE
  8
0
 62
     1
 10
-67.709534
 20
-92.175903
 11
-67.709534
 21
-92.675903
  0
LINE
  8
0
 62
     4
 10
-67.929535
 20
-92.175903
 11
-67.929535
 21
-92.675903
  0
LINE
  8
0
 62
     4
 10
-67.929535
 20
-96.445900
 11
-65.429535
 21
-96.445900
  0
LINE
  8
0
 62
     4
 10
-65.429535
 20
-95.265900
 11
-65.429535
 21
-96.445900
  0
LINE
  8
0
 62
     1
 10
-65.659538
 20
-95.265900
 11
-65.659538
 21
-96.675903
  0
LINE
  8
0
 62
     1
 10
-67.709534
 20
-95.265900
 11
-67.709534
 21
-96.675903
  0
LINE
  8
0
 62
     4
 10
-67.929535
 20
-95.265900
 11
-67.929535
 21
-96.445900
  0
LINE
  8
0
 62
     4
 10
-67.709534
 20
-96.675903
 11
-67.929535
 21
-96.445900
  0
LINE
  8
0
 62
     4
 10
-65.659538
 20
-96.675903
 11
-65.429535
 21
-96.445900
  0
LINE
  8
0
 62
     4
 10
-67.709534
 20
-96.675903
 11
-65.659538
 21
-96.675903
  0
LINE
  8
0
 62
     1
 10
-44.929535
 20
-92.805901
 11
-42.429535
 21
-97.135902
  0
LINE
  8
0
 62
     1
 10
-43.429531
 20
-92.805901
 11
-40.929531
 21
-97.135902
  0
LINE
  8
0
 62
     1
 10
-35.949532
 20
-92.805901
 11
-33.449532
 21
-97.135902
  0
LINE
  8
0
  6
CENTER
 62
     1
 10
-47.999535
 20
-94.975906
 11
-38.179535
 21
-94.975906
  0
LINE
  8
0
 62
     1
 10
-34.449535
 20
-92.805901
 11
-31.949532
 21
-97.135902
  0
LINE
  8
0
 62
     4
 10
-31.179535
 20
-95.675903
 11
-28.179535
 21
-95.675903
  0
LINE
  8
0
 62
     4
 10
-31.179535
 20
-95.175903
 11
-28.179535
 21
-95.175903
  0
LINE
  8
0
 62
     4
 10
-31.179535
 20
-94.775902
 11
-28.179535
 21
-94.775902
  0
LINE
  8
0
 62
     4
 10
-31.179535
 20
-94.275902
 11
-28.179535
 21
-94.275902
  0
LINE
  8
0
 62
     4
 10
-33.719536
 20
-94.075905
 11
-31.179535
 21
-94.075905
  0
LINE
  8
0
 62
     4
 10
-38.179535
 20
-94.075905
 11
-35.219536
 21
-94.075905
  0
LINE
  8
0
 62
     4
 10
-32.679535
 20
-95.875900
 11
-31.179535
 21
-95.875900
  0
LINE
  8
0
 62
     4
 10
-33.199535
 20
-94.975906
 11
-31.179535
 21
-94.975906
  0
LINE
  8
0
 62
     4
 10
-38.179535
 20
-94.975906
 11
-34.699535
 21
-94.975906
  0
LINE
  8
0
 62
     4
 10
-38.179535
 20
-95.875900
 11
-34.179535
 21
-95.875900
  0
LINE
  8
0
 62
     4
 10
-31.179535
 20
-94.075905
 11
-31.179535
 21
-95.875900
  0
LINE
  8
0
 62
     4
 10
-28.179535
 20
-95.175903
 11
-28.179535
 21
-95.675903
  0
LINE
  8
0
 62
     4
 10
-28.179535
 20
-94.275902
 11
-28.179535
 21
-94.775902
  0
LINE
  8
0
  6
CENTER
 62
     1
 10
-39.859535
 20
-95.425903
 11
-27.929535
 21
-95.425903
  0
LINE
  8
0
  6
CENTER
 62
     1
 10
-39.909534
 20
-94.525902
 11
-27.979534
 21
-94.525902
  0
LINE
  8
0
 62
     4
 10
-38.179535
 20
-93.675903
 11
-38.179535
 21
-96.275902
  0
LINE
  8
0
 62
     4
 10
-64.429535
 20
-95.715904
 11
-63.979534
 21
-95.715904
  0
LINE
  8
0
 62
     4
 10
-64.479538
 20
-96.475906
 11
-63.979534
 21
-96.475906
  0
LINE
  8
0
 62
     4
 10
-64.479538
 20
-94.475906
 11
-64.479538
 21
-96.475906
  0
LINE
  8
0
 62
     4
 10
-68.679535
 20
-95.275902
 11
-64.679535
 21
-95.275902
  0
LINE
  8
0
 62
     4
 10
-68.679535
 20
-94.475906
 11
-68.679535
 21
-95.275902
  0
LINE
  8
0
 62
     4
 10
-64.679535
 20
-94.475906
 11
-64.679535
 21
-95.275902
  0
LINE
  8
0
 62
     4
 10
-64.429535
 20
-94.475906
 11
-64.429535
 21
-95.715904
  0
LINE
  8
0
  6
CENTER
 62
     1
 10
-66.679535
 20
-91.875900
 11
-66.679535
 21
-98.105904
  0
LINE
  8
0
 62
     4
 10
-68.679535
 20
-94.475906
 11
-64.429535
 21
-94.475906
  0
LINE
  8
0
 62
     4
 10
-63.979534
 20
-95.715904
 11
-63.979534
 21
-97.275902
  0
LINE
  8
0
 62
     4
 10
-68.679535
 20
-94.475906
 11
-68.679535
 21
-92.675903
  0
LINE
  8
0
 62
     4
 10
-46.679535
 20
-92.675903
 11
-46.679535
 21
-97.275902
  0
LINE
  8
0
 62
     4
 10
-63.979534
 20
-97.275902
 11
-46.679535
 21
-97.275902
  0
LINE
  8
0
 62
     4
 10
-68.679535
 20
-92.675903
 11
-46.679535
 21
-92.675903
  0
LINE
  8
0
 62
     4
 10
210.675903
 20
120.527756
 11
210.675903
 21
110.007751
  0
LINE
  8
0
 62
     4
 10
207.675903
 20
120.527756
 11
210.675903
 21
120.527756
  0
LINE
  8
0
 62
     4
 10
207.675903
 20
110.007751
 11
210.675903
 21
110.007751
  0
LINE
  8
0
 62
     1
 10
207.675903
 20
120.527756
 11
210.675903
 21
110.007751
  0
LINE
  8
0
 62
     1
 10
207.675903
 20
110.007744
 11
210.675903
 21
120.527756
  0
LINE
  8
0
 62
     4
 10
207.675903
 20
106.267754
 11
207.675903
 21
124.267754
  0
LINE
  8
0
 62
     4
 10
209.415909
 20
105.267754
 11
214.675903
 21
105.267754
  0
LINE
  8
0
 62
     4
 10
207.675903
 20
106.267761
 11
209.415909
 21
105.267754
  0
LINE
  8
0
 62
     4
 10
209.415909
 20
105.267754
 11
209.415909
 21
110.007751
  0
LINE
  8
0
 62
     4
 10
207.675903
 20
124.267754
 11
209.415924
 21
125.267754
  0
LINE
  8
0
 62
     4
 10
209.415909
 20
125.267754
 11
214.675903
 21
125.267754
  0
LINE
  8
0
 62
     4
 10
209.415909
 20
120.527756
 11
209.415909
 21
125.267754
  0
LINE
  8
0
 62
     4
 10
214.675903
 20
96.267754
 11
214.675903
 21
134.267761
  0
LINE
  8
0
 62
     4
 10
214.675903
 20
96.267754
 11
216.675903
 21
96.267754
  0
LINE
  8
0
 62
     4
 10
214.675903
 20
134.267761
 11
216.675903
 21
134.267761
  0
LINE
  8
0
 62
     4
 10
132.712402
 20
125.267754
 11
140.712402
 21
125.267754
  0
LINE
  8
0
 62
     4
 10
132.712402
 20
105.267754
 11
140.712402
 21
105.267754
  0
LINE
  8
0
 62
     4
 10
131.712402
 20
124.267754
 11
131.712402
 21
106.267754
  0
LINE
  8
0
 62
     4
 10
132.712402
 20
125.267754
 11
132.712402
 21
120.537750
  0
LINE
  8
0
 62
     4
 10
131.712402
 20
106.267754
 11
132.712402
 21
105.267754
  0
LINE
  8
0
 62
     4
 10
131.712402
 20
124.267754
 11
132.712402
 21
125.267754
  0
LINE
  8
0
 62
     4
 10
132.712402
 20
109.997757
 11
132.712402
 21
105.267754
  0
LINE
  8
0
 62
     4
 10
104.712402
 20
124.267754
 11
110.712402
 21
124.267754
  0
LINE
  8
0
 62
     4
 10
104.712402
 20
106.267754
 11
110.712402
 21
106.267754
  0
LINE
  8
0
 62
     4
 10
103.712402
 20
123.267754
 11
103.712402
 21
107.267754
  0
LINE
  8
0
 62
     4
 10
104.712402
 20
124.267754
 11
104.712402
 21
106.267754
  0
LINE
  8
0
 62
     4
 10
103.712402
 20
123.267754
 11
104.712402
 21
124.267754
  0
LINE
  8
0
 62
     4
 10
103.712402
 20
107.267754
 11
104.712402
 21
106.267754
  0
LINE
  8
0
 62
     4
 10
128.712402
 20
124.267754
 11
128.712402
 21
106.267754
  0
LINE
  8
0
 62
     4
 10
111.912399
 20
130.857758
 11
120.502403
 21
130.857758
  0
LINE
  8
0
 62
     4
 10
111.912399
 20
123.057755
 11
120.502403
 21
123.057755
  0
LINE
  8
0
 62
     4
 10
110.712402
 20
128.767761
 11
110.712402
 21
101.767754
  0
LINE
  8
0
 62
     4
 10
121.712402
 20
128.767761
 11
121.712402
 21
101.767754
  0
LINE
  8
0
 62
     4
 10
110.712402
 20
128.767761
 11
111.912399
 21
130.857758
  0
LINE
  8
0
 62
     4
 10
120.502403
 20
130.857758
 11
121.712402
 21
128.767746
  0
LINE
  8
0
 62
     4
 10
121.712402
 20
124.267754
 11
131.712402
 21
124.267754
  0
LINE
  8
0
 62
     4
 10
110.712402
 20
101.767754
 11
111.912399
 21
99.677750
  0
LINE
  8
0
 62
     4
 10
111.912399
 20
99.677750
 11
120.502403
 21
99.677750
  0
LINE
  8
0
 62
     4
 10
111.912399
 20
107.467751
 11
120.502403
 21
107.467751
  0
LINE
  8
0
 62
     4
 10
120.502403
 20
99.677757
 11
121.712402
 21
101.767754
  0
LINE
  8
0
 62
     4
 10
121.712402
 20
106.267754
 11
131.712402
 21
106.267754
  0
LINE
  8
0
 62
     1
 10
103.962402
 20
123.517754
 11
110.712402
 21
123.517754
  0
LINE
  8
0
 62
     1
 10
121.712402
 20
123.517754
 11
128.712402
 21
123.517754
  0
LINE
  8
0
 62
     1
 10
128.712387
 20
123.517754
 11
130.009903
 21
124.267754
  0
LINE
  8
0
 62
     4
 10
131.712402
 20
120.537750
 11
134.712402
 21
120.537750
  0
LINE
  8
0
 62
     1
 10
131.712402
 20
120.537750
 11
134.712402
 21
109.997757
  0
LINE
  8
0
 62
     1
 10
131.712402
 20
109.997749
 11
134.712402
 21
120.537758
  0
LINE
  8
0
 62
     4
 10
134.712402
 20
120.537750
 11
134.712402
 21
109.997757
  0
LINE
  8
0
 62
     4
 10
131.712402
 20
109.997757
 11
134.712402
 21
109.997757
  0
LINE
  8
0
 62
     1
 10
128.712402
 20
107.017754
 11
130.009903
 21
106.267754
  0
LINE
  8
0
 62
     1
 10
121.712402
 20
107.017754
 11
128.712402
 21
107.017754
  0
LINE
  8
0
 62
     1
 10
103.962402
 20
107.017754
 11
110.712402
 21
107.017754
  0
LINE
  8
0
  6
CENTER
 62
     2
 10
13.499849
 20
86.968933
 11
13.499849
 21
95.787834
  0
LINE
  8
0
  6
CENTER
 62
     2
 10
-4.010151
 20
86.968933
 11
-4.010151
 21
95.787834
  0
LINE
  8
0
  6
CENTER
 62
     2
 10
25.747911
 20
153.999985
 11
-34.500153
 21
153.999985
  0
LINE
  8
0
 10
-30.000151
 20
98.999985
 11
22.999849
 21
98.999985
  0
LINE
  8
0
 10
-15.000151
 20
119.199982
 11
22.999849
 21
119.199982
  0
LINE
  8
0
 10
-30.000151
 20
160.999985
 11
22.999849
 21
160.999985
  0
LINE
  8
0
 10
-15.000151
 20
90.999985
 11
-15.000151
 21
160.999985
  0
LINE
  8
0
 62
     4
 10
-37.270149
 20
121.499985
 11
-37.270149
 21
138.499985
  0
LINE
  8
0
 62
     4
 10
-34.500153
 20
139.999985
 11
-30.000151
 21
139.999985
  0
LINE
  8
0
 62
     4
 10
-34.500153
 20
119.999985
 11
-30.000151
 21
119.999985
  0
LINE
  8
0
 62
     4
 10
-39.000153
 20
121.499985
 11
-39.000153
 21
138.499985
  0
LINE
  8
0
 10
-26.900150
 20
110.819984
 11
-26.900150
 21
99.499985
  0
LINE
  8
0
 10
-26.900152
 20
99.499985
 11
-27.400152
 21
99.999985
  0
LINE
  8
0
 10
-27.400150
 20
110.819984
 11
-27.400150
 21
99.999985
  0
LINE
  8
0
 10
-26.900150
 20
99.499985
 11
-19.400150
 21
99.499985
  0
LINE
  8
0
  6
CENTER
 62
     2
 10
25.747911
 20
105.999985
 11
-34.500153
 21
105.999985
  0
LINE
  8
0
 10
-30.000151
 20
110.819984
 11
-19.400150
 21
110.819984
  0
LINE
  8
0
 10
-19.400150
 20
110.819984
 11
-19.400150
 21
98.999985
  0
LINE
  8
0
 10
-30.000151
 20
98.999985
 11
-30.000151
 21
160.999985
  0
LINE
  8
0
 10
-15.000151
 20
103.169983
 11
22.999849
 21
103.169983
  0
LINE
  8
0
  6
CENTER
 62
     2
 10
-46.370152
 20
129.999985
 11
28.969851
 21
129.999985
  0
LINE
  8
0
 10
22.999849
 20
90.999985
 11
22.999849
 21
160.999985
  0
LINE
  8
0
 10
-15.000151
 20
115.999985
 11
22.999849
 21
115.999985
  0
LINE
  8
0
 10
-15.000151
 20
140.799988
 11
22.999849
 21
140.799988
  0
LINE
  8
0
 10
-15.000151
 20
143.999985
 11
22.999849
 21
143.999985
  0
LINE
  8
0
 10
-15.000151
 20
156.829987
 11
22.999849
 21
156.829987
  0
LINE
  8
0
 10
-15.000151
 20
90.999985
 11
22.999849
 21
90.999985
  0
LINE
  8
0
 62
     4
 10
-36.000153
 20
121.499985
 11
-39.000153
 21
121.499985
  0
LINE
  8
0
 62
     4
 10
-36.000153
 20
138.499985
 11
-39.000153
 21
138.499985
  0
LINE
  8
0
 62
     4
 10
-36.000145
 20
138.499985
 11
-34.500149
 21
139.999985
  0
LINE
  8
0
 62
     4
 10
-36.000153
 20
121.499985
 11
-34.500149
 21
119.999985
  0
LINE
  8
0
  6
PHANTOM
 62
     3
 10
4.739851
 20
76.332344
 11
4.739851
 21
167.759033
  0
LINE
  8
0
 10
143.989853
 20
56.829987
 11
143.989853
 21
3.169985
  0
LINE
  8
0
 10
139.819855
 20
-1.000015
 11
86.159851
 21
-1.000015
  0
LINE
  8
0
 10
139.819855
 20
60.999985
 11
86.159851
 21
60.999985
  0
LINE
  8
0
 10
81.989853
 20
56.829987
 11
81.989853
 21
40.759987
  0
LINE
  8
0
 10
81.989853
 20
19.239985
 11
81.989853
 21
3.169985
  0
LINE
  8
0
  6
CENTER
 62
     2
 10
112.989853
 20
63.129986
 11
112.989853
 21
-5.420013
  0
LINE
  8
0
  6
CENTER
 62
     2
 10
70.989853
 20
29.999985
 11
146.059845
 21
29.999985
  0
LINE
  8
0
  6
CENTER
 62
     2
 10
96.419853
 20
5.999985
 11
81.339851
 21
5.999985
  0
LINE
  8
0
  6
CENTER
 62
     2
 10
88.989853
 20
13.379984
 11
88.989853
 21
-1.370016
  0
LINE
  8
0
 10
73.989853
 20
39.499985
 11
73.989853
 21
20.499985
  0
LINE
  8
0
 10
127.489853
 20
59.999985
 11
127.489853
 21
58.399986
  0
LINE
  8
0
 10
123.289856
 20
59.999985
 11
123.289856
 21
58.399986
  0
LINE
  8
0
 10
126.989853
 20
60.699986
 11
126.989853
 21
60.499985
  0
LINE
  8
0
 10
123.789856
 20
60.699986
 11
123.789856
 21
60.499985
  0
LINE
  8
0
 10
123.789848
 20
60.499981
 11
123.289848
 21
59.999981
  0
LINE
  8
0
 10
126.989853
 20
60.499981
 11
127.489845
 21
59.999981
  0
LINE
  8
0
 10
98.489853
 20
59.999985
 11
98.489853
 21
58.399986
  0
LINE
  8
0
 10
102.689850
 20
59.999985
 11
102.689850
 21
58.399986
  0
LINE
  8
0
 10
98.989853
 20
60.699986
 11
98.989853
 21
60.499985
  0
LINE
  8
0
 10
102.189850
 20
60.699986
 11
102.189850
 21
60.499985
  0
LINE
  8
0
 10
102.189850
 20
60.499985
 11
102.689850
 21
59.999985
  0
LINE
  8
0
 10
98.989853
 20
60.499985
 11
98.489845
 21
59.999981
  0
LINE
  8
0
 10
142.989853
 20
15.499985
 11
141.389847
 21
15.499985
  0
LINE
  8
0
 10
142.989853
 20
19.699986
 11
141.389847
 21
19.699986
  0
LINE
  8
0
 10
143.689850
 20
15.999985
 11
143.489853
 21
15.999985
  0
LINE
  8
0
 10
143.689850
 20
19.199986
 11
143.489853
 21
19.199986
  0
LINE
  8
0
 10
143.489853
 20
19.199987
 11
142.989853
 21
19.699989
  0
LINE
  8
0
 10
143.489853
 20
15.999981
 11
142.989853
 21
15.499987
  0
LINE
  8
0
 10
142.989853
 20
44.499985
 11
141.389847
 21
44.499985
  0
LINE
  8
0
 10
142.989853
 20
40.299984
 11
141.389847
 21
40.299984
  0
LINE
  8
0
 10
143.689850
 20
43.999985
 11
143.489853
 21
43.999985
  0
LINE
  8
0
 10
143.689850
 20
40.799984
 11
143.489853
 21
40.799984
  0
LINE
  8
0
 10
143.489853
 20
40.799984
 11
142.989853
 21
40.299984
  0
LINE
  8
0
 10
143.489853
 20
43.999981
 11
142.989853
 21
44.499981
  0
LINE
  8
0
 10
98.489853
 20
-0.000015
 11
98.489853
 21
1.599985
  0
LINE
  8
0
 10
102.689850
 20
-0.000015
 11
102.689850
 21
1.599985
  0
LINE
  8
0
 10
98.989853
 20
-0.700016
 11
98.989853
 21
-0.500015
  0
LINE
  8
0
 10
102.189850
 20
-0.700016
 11
102.189850
 21
-0.500015
  0
LINE
  8
0
 10
102.189850
 20
-0.500015
 11
102.689850
 21
-0.000014
  0
LINE
  8
0
 10
98.989853
 20
-0.500015
 11
98.489853
 21
-0.000015
  0
LINE
  8
0
 10
127.489853
 20
-0.000015
 11
127.489853
 21
1.599985
  0
LINE
  8
0
 10
123.289856
 20
-0.000015
 11
123.289856
 21
1.599985
  0
LINE
  8
0
 10
126.989853
 20
-0.700016
 11
126.989853
 21
-0.500015
  0
LINE
  8
0
 10
123.789856
 20
-0.700016
 11
123.789856
 21
-0.500015
  0
LINE
  8
0
 10
123.789856
 20
-0.500014
 11
123.289856
 21
-0.000014
  0
LINE
  8
0
 10
126.989861
 20
-0.500017
 11
127.489861
 21
-0.000016
  0
LINE
  8
0
 10
82.989853
 20
44.499985
 11
84.589851
 21
44.499985
  0
LINE
  8
0
 10
82.989853
 20
40.299984
 11
84.589851
 21
40.299984
  0
LINE
  8
0
 10
82.289856
 20
43.999985
 11
82.489853
 21
43.999985
  0
LINE
  8
0
 10
82.289856
 20
40.799984
 11
82.489853
 21
40.799984
  0
LINE
  8
0
 10
82.489853
 20
40.799980
 11
82.989853
 21
40.299980
  0
LINE
  8
0
 10
82.489845
 20
43.999981
 11
82.989845
 21
44.499981
  0
LINE
  8
0
 10
82.989853
 20
15.499985
 11
84.589851
 21
15.499985
  0
LINE
  8
0
 10
82.989853
 20
19.699986
 11
84.589851
 21
19.699986
  0
LINE
  8
0
 10
82.289856
 20
15.999985
 11
82.489853
 21
15.999985
  0
LINE
  8
0
 10
82.289856
 20
19.199986
 11
82.489853
 21
19.199986
  0
LINE
  8
0
 10
82.489853
 20
19.199982
 11
82.989853
 21
19.699984
  0
LINE
  8
0
 10
82.489853
 20
15.999985
 11
82.989853
 21
15.499985
  0
LINE
  8
0
 10
73.989853
 20
20.499983
 11
82.239853
 21
19.199984
  0
LINE
  8
0
 10
73.989853
 20
39.499985
 11
82.239853
 21
40.799984
  0
LINE
  8
0
  6
CENTER
 62
     2
 10
96.419853
 20
53.999985
 11
81.339851
 21
53.999985
  0
LINE
  8
0
  6
CENTER
 62
     2
 10
88.989853
 20
46.619987
 11
88.989853
 21
61.369987
  0
LINE
  8
0
  6
CENTER
 62
     2
 10
144.669861
 20
5.999985
 11
129.029846
 21
5.999985
  0
LINE
  8
0
  6
CENTER
 62
     2
 10
136.989853
 20
-2.190014
 11
136.989853
 21
13.779985
  0
LINE
  8
0
  6
CENTER
 62
     2
 10
136.989853
 20
62.189983
 11
136.989853
 21
46.219986
  0
LINE
  8
0
  6
CENTER
 62
     2
 10
144.669861
 20
53.999985
 11
129.029846
 21
53.999985
  0
LINE
  8
0
 10
-141.000153
 20
2.536912
 11
-138.000153
 21
4.269989
  0
LINE
  8
0
 10
-144.000153
 20
4.269979
 11
-141.000153
 21
2.536902
  0
LINE
  8
0
 10
-141.000153
 20
9.463058
 11
-144.000153
 21
7.729981
  0
LINE
  8
0
 10
-138.000153
 20
7.729981
 11
-141.000153
 21
9.463058
  0
LINE
  8
0
 10
-143.840149
 20
60.999985
 11
-90.170151
 21
60.999985
  0
LINE
  8
0
 10
-143.840149
 20
-1.000015
 11
-90.170151
 21
-1.000015
  0
LINE
  8
0
 10
-86.000153
 20
56.829987
 11
-86.000153
 21
3.169985
  0
LINE
  8
0
 10
-78.000153
 20
39.499985
 11
-78.000153
 21
20.499985
  0
LINE
  8
0
 10
-148.000153
 20
56.829987
 11
-148.000153
 21
3.169985
  0
LINE
  8
0
 10
-78.000153
 20
20.499985
 11
-86.000153
 21
19.240906
  0
LINE
  8
0
 10
-78.000145
 20
39.499985
 11
-86.000145
 21
40.759064
  0
LINE
  8
0
 62
     4
 10
-125.500153
 20
35.267811
 11
-125.500153
 21
24.732159
  0
LINE
  8
0
 62
     4
 10
-108.500153
 20
35.267811
 11
-108.500153
 21
24.732159
  0
LINE
  8
0
  6
CENTER
 62
     2
 10
-117.000153
 20
65.869980
 11
-117.000153
 21
-5.630016
  0
LINE
  8
0
  6
CENTER
 62
     2
 10
-153.130157
 20
29.999985
 11
-73.340149
 21
29.999985
  0
LINE
  8
0
  6
CENTER
 62
     2
 10
-141.000153
 20
62.189983
 11
-141.000153
 21
46.219986
  0
LINE
  8
0
  6
CENTER
 62
     2
 10
-133.320160
 20
53.999985
 11
-148.960144
 21
53.999985
  0
LINE
  8
0
  6
CENTER
 62
     2
 10
-93.000153
 20
14.189984
 11
-93.000153
 21
-1.780016
  0
LINE
  8
0
  6
CENTER
 62
     2
 10
-85.320152
 20
5.999985
 11
-100.960152
 21
5.999985
  0
LINE
  8
0
 10
-93.000145
 20
57.459980
 11
-96.000153
 21
55.729980
  0
LINE
  8
0
 10
-96.000153
 20
55.729984
 11
-96.000153
 21
52.269985
  0
LINE
  8
0
 10
-93.000153
 20
50.539986
 11
-96.000145
 21
52.269981
  0
LINE
  8
0
 10
-90.000145
 20
52.269985
 11
-93.000153
 21
50.539986
  0
LINE
  8
0
 10
-90.000153
 20
55.729984
 11
-90.000153
 21
52.269985
  0
LINE
  8
0
 10
-93.000153
 20
57.459984
 11
-90.000153
 21
55.729984
  0
LINE
  8
0
 10
-144.000153
 20
7.729984
 11
-144.000153
 21
4.269985
  0
LINE
  8
0
 10
-138.000153
 20
7.729984
 11
-138.000153
 21
4.269985
  0
LINE
  8
0
  6
CENTER
 62
     2
 10
-93.000153
 20
62.189983
 11
-93.000153
 21
46.219986
  0
LINE
  8
0
  6
CENTER
 62
     2
 10
-100.680153
 20
53.999985
 11
-85.040154
 21
53.999985
  0
LINE
  8
0
  6
CENTER
 62
     2
 10
-141.000153
 20
14.189984
 11
-141.000153
 21
-1.780016
  0
LINE
  8
0
  6
CENTER
 62
     2
 10
-148.680145
 20
5.999985
 11
-133.040161
 21
5.999985
  0
LINE
  8
0
  6
DASHED
 10
1.499849
 20
9.374985
 11
-6.500151
 21
9.374985
  0
LINE
  8
0
  6
DASHED
 10
-6.500151
 20
0.499985
 11
-6.500151
 21
11.499985
  0
LINE
  8
0
  6
DASHED
 10
-6.500151
 20
11.499985
 11
-30.000151
 21
11.499985
  0
LINE
  8
0
  6
DASHED
 62
     2
 10
1.499849
 20
9.999985
 11
-6.500151
 21
9.999985
  0
LINE
  8
0
  6
DASHED
 10
1.499849
 20
9.449986
 11
6.499849
 21
9.449986
  0
LINE
  8
0
  6
DASHED
 10
6.499849
 20
9.374985
 11
14.499849
 21
9.374985
  0
LINE
  8
0
  6
DASHED
 10
6.499849
 20
1.999985
 11
6.499849
 21
9.999985
  0
LINE
  8
0
  6
DASHED
 62
     2
 10
6.499849
 20
9.999985
 11
14.499849
 21
9.999985
  0
LINE
  8
0
  6
DASHED
 10
1.499849
 20
1.999985
 11
1.499849
 21
9.999985
  0
LINE
  8
0
  6
DASHED
 10
1.499849
 20
2.624985
 11
-6.500151
 21
2.624985
  0
LINE
  8
0
  6
DASHED
 10
-6.500151
 20
0.499985
 11
-30.000151
 21
0.499985
  0
LINE
  8
0
  6
DASHED
 62
     2
 10
1.499849
 20
1.999985
 11
-6.500151
 21
1.999985
  0
LINE
  8
0
  6
DASHED
 10
6.499849
 20
2.624985
 11
14.499849
 21
2.624985
  0
LINE
  8
0
  6
DASHED
 10
1.499849
 20
2.549984
 11
6.499849
 21
2.549984
  0
LINE
  8
0
  6
DASHED
 62
     2
 10
6.499849
 20
1.999985
 11
14.499849
 21
1.999985
  0
LINE
  8
0
  6
CENTER
 62
     2
 10
25.747911
 20
5.999985
 11
-34.500153
 21
5.999985
  0
LINE
  8
0
  6
DASHED
 10
14.499849
 20
0.499985
 11
14.499849
 21
11.499985
  0
LINE
  8
0
  6
DASHED
 10
14.499849
 20
11.499985
 11
22.999849
 21
11.499985
  0
LINE
  8
0
  6
DASHED
 10
14.499849
 20
0.499985
 11
22.999849
 21
0.499985
  0
LINE
  8
0
  6
CENTER
 62
     2
 10
13.499849
 20
38.049984
 11
13.499849
 21
21.649984
  0
LINE
  8
0
  6
CENTER
 62
     2
 10
-4.010151
 20
38.049984
 11
-4.010151
 21
21.649984
  0
LINE
  8
0
 10
-15.000151
 20
56.829987
 11
22.999849
 21
56.829987
  0
LINE
  8
0
 10
-15.000151
 20
43.999985
 11
22.999849
 21
43.999985
  0
LINE
  8
0
 10
-15.000151
 20
40.799984
 11
22.999849
 21
40.799984
  0
LINE
  8
0
 10
-15.000151
 20
20.499985
 11
22.999849
 21
20.499985
  0
LINE
  8
0
 10
-15.000151
 20
15.999985
 11
22.999849
 21
15.999985
  0
LINE
  8
0
 10
22.999849
 20
-1.000015
 11
22.999849
 21
60.999985
  0
LINE
  8
0
  6
CENTER
 62
     2
 10
-46.370152
 20
29.999985
 11
28.969851
 21
29.999985
  0
LINE
  8
0
 10
-15.000151
 20
3.169985
 11
22.999849
 21
3.169985
  0
LINE
  8
0
 10
-30.000151
 20
-1.000015
 11
-30.000151
 21
60.999985
  0
LINE
  8
0
 10
-19.400150
 20
49.179985
 11
-19.400150
 21
60.999985
  0
LINE
  8
0
 10
-30.000151
 20
49.179985
 11
-19.400150
 21
49.179985
  0
LINE
  8
0
  6
CENTER
 62
     2
 10
25.747911
 20
53.999985
 11
-34.500153
 21
53.999985
  0
LINE
  8
0
 10
-26.900150
 20
60.499985
 11
-19.400150
 21
60.499985
  0
LINE
  8
0
 10
-27.400150
 20
49.179985
 11
-27.400150
 21
59.999985
  0
LINE
  8
0
 10
-26.900150
 20
60.499985
 11
-27.400150
 21
59.999981
  0
LINE
  8
0
 10
-26.900150
 20
49.179985
 11
-26.900150
 21
60.499985
  0
LINE
  8
0
 62
     4
 10
-36.000153
 20
35.269985
 11
-36.000153
 21
24.729984
  0
LINE
  8
0
 62
     4
 10
-39.000153
 20
35.269985
 11
-36.000153
 21
35.269985
  0
LINE
  8
0
 62
     4
 10
-39.000153
 20
24.729984
 11
-36.000153
 21
24.729984
  0
LINE
  8
0
 62
     1
 10
-39.000149
 20
35.269985
 11
-36.000149
 21
24.729982
  0
LINE
  8
0
 62
     1
 10
-39.000149
 20
24.729984
 11
-36.000149
 21
35.269985
  0
LINE
  8
0
 62
     4
 10
-39.000153
 20
20.999985
 11
-39.000153
 21
38.999985
  0
LINE
  8
0
 62
     4
 10
-37.270149
 20
19.999985
 11
-30.000151
 21
19.999985
  0
LINE
  8
0
 62
     4
 10
-39.000149
 20
20.999985
 11
-37.270149
 21
19.999983
  0
LINE
  8
0
 62
     4
 10
-37.270149
 20
19.999985
 11
-37.270149
 21
24.729984
  0
LINE
  8
0
 62
     4
 10
-39.000149
 20
38.999985
 11
-37.270149
 21
39.999985
  0
LINE
  8
0
 62
     4
 10
-37.270149
 20
39.999985
 11
-30.000151
 21
39.999985
  0
LINE
  8
0
 62
     4
 10
-37.270149
 20
35.269985
 11
-37.270149
 21
39.999985
  0
LINE
  8
0
  6
DASHED
 62
     2
 10
-22.500151
 20
-1.000015
 11
-22.500151
 21
3.999985
  0
LINE
  8
0
  6
DASHED
 62
     2
 10
-17.500151
 20
-1.000015
 11
-17.500151
 21
3.999985
  0
LINE
  8
0
  6
DASHED
 62
     2
 10
-18.000151
 20
-1.000015
 11
-18.000151
 21
5.999985
  0
LINE
  8
0
  6
DASHED
 62
     2
 10
-22.000151
 20
-1.000015
 11
-22.000151
 21
5.999985
  0
LINE
  8
0
  6
CENTER
 62
     2
 10
-20.000151
 20
-6.680016
 11
-20.000151
 21
10.509985
  0
LINE
  8
0
 10
-15.000151
 20
-1.000015
 11
-15.000151
 21
60.999985
  0
LINE
  8
0
 10
-30.000151
 20
60.999985
 11
22.999849
 21
60.999985
  0
LINE
  8
0
 10
-15.000151
 20
39.499985
 11
22.999849
 21
39.499985
  0
LINE
  8
0
 10
-15.000151
 20
19.199986
 11
22.999849
 21
19.199986
  0
LINE
  8
0
 10
-30.000151
 20
-1.000015
 11
22.999849
 21
-1.000015
  0
LINE
  8
0
  6
PHANTOM
 62
     3
 10
4.739851
 20
-6.680016
 11
4.739851
 21
76.332344
  0
LINE
  8
0
 10
140.712402
 20
100.267754
 11
140.712402
 21
130.267746
  0
LINE
  8
0
 10
216.675903
 20
93.102539
 11
216.675903
 21
137.776352
  0
LINE
  8
0
  6
CENTER
 62
     2
 10
99.820862
 20
115.267754
 11
146.728363
 21
115.267754
  0
LINE
  8
0
  6
CENTER
 62
     2
 10
204.175903
 20
115.267754
 11
223.790680
 21
115.267754
  0
LINE
  8
0
 10
-271.250153
 20
-137.000000
 11
-271.250153
 21
-185.000000
  0
LINE
  8
0
 10
-271.250153
 20
-185.000000
 11
30.749853
 21
-185.000000
  0
LINE
  8
0
 10
-271.250153
 20
-177.000000
 11
30.749853
 21
-177.000000
  0
LINE
  8
0
 10
-271.250153
 20
-169.000000
 11
30.749853
 21
-169.000000
  0
LINE
  8
0
 10
-271.250153
 20
-161.000000
 11
30.749853
 21
-161.000000
  0
LINE
  8
0
 10
-271.250153
 20
-153.000000
 11
30.749853
 21
-153.000000
  0
LINE
  8
0
 10
-271.250153
 20
-137.000000
 11
30.749853
 21
-137.000000
  0
LINE
  8
0
 10
-211.250153
 20
-137.000000
 11
-211.250153
 21
-185.000000
  0
LINE
  8
0
 10
-211.250137
 20
-153.000015
 11
-271.250153
 21
-137.000015
  0
LINE
  8
0
 10
-189.250153
 20
-137.000000
 11
-189.250153
 21
-185.000000
  0
LINE
  8
0
 10
-167.250153
 20
-137.000000
 11
-167.250153
 21
-185.000000
  0
LINE
  8
0
 10
-145.250153
 20
-137.000000
 11
-145.250153
 21
-185.000000
  0
LINE
  8
0
 10
-123.250145
 20
-137.000000
 11
-123.250145
 21
-185.000000
  0
LINE
  8
0
 10
-101.250145
 20
-137.000000
 11
-101.250145
 21
-185.000000
  0
LINE
  8
0
 10
-79.250145
 20
-137.000000
 11
-79.250145
 21
-185.000000
  0
LINE
  8
0
 10
-57.250145
 20
-137.000000
 11
-57.250145
 21
-185.000000
  0
LINE
  8
0
 10
-35.250145
 20
-137.000000
 11
-35.250145
 21
-185.000000
  0
LINE
  8
0
 10
-13.250147
 20
-137.000000
 11
-13.250147
 21
-185.000000
  0
LINE
  8
0
 10
8.749853
 20
-137.000000
 11
8.749853
 21
-185.000000
  0
LINE
  8
0
 10
30.749853
 20
-137.000000
 11
30.749853
 21
-185.000000
  0
LINE
  8
0
 10
282.099854
 20
195.500000
 11
282.099854
 21
-195.000000
  0
LINE
  8
0
 10
-281.250000
 20
195.500000
 11
282.099854
 21
195.500000
  0
LINE
  8
0
 10
-281.250000
 20
195.500000
 11
-281.250000
 21
-195.000000
  0
LINE
  8
0
 10
-281.250000
 20
-195.000000
 11
282.099854
 21
-195.000000
  0
LINE
  8
0
 10
162.099976
 20
-175.000000
 11
162.099976
 21
-195.000000
  0
LINE
  8
0
 10
162.099976
 20
-175.000000
 11
282.099854
 21
-175.000000
  0
LINE
  8
0
 10
162.099976
 20
175.500000
 11
282.099854
 21
175.500000
  0
LINE
  8
0
 10
-281.250000
 20
175.500000
 11
-161.250000
 21
175.500000
  0
LINE
  8
0
 10
162.099976
 20
195.500000
 11
162.099976
 21
175.500000
  0
LINE
  8
0
 10
-161.250000
 20
195.500000
 11
-161.250000
 21
175.500000
  0
CIRCLE
  8
0
 62
     4
 10
108.248703
 20
-44.757622
 40
0.250000
  0
CIRCLE
  8
0
 62
     4
 10
108.860580
 20
-45.416779
 40
0.250000
  0
CIRCLE
  8
0
 62
     4
 10
108.248703
 20
-44.757622
 40
0.450000
  0
CIRCLE
  8
0
 62
     4
 10
108.860580
 20
-45.416779
 40
0.450000
  0
CIRCLE
  8
0
 62
     4
 10
108.538773
 20
-45.075775
 40
1.299999
  0
CIRCLE
  8
0
 62
     4
 10
91.131424
 20
-45.075775
 40
1.400000
  0
CIRCLE
  8
0
 62
     4
 10
91.131424
 20
-45.075775
 40
1.250000
  0
ARC
  8
0
 62
     4
 10
108.631424
 20
-45.075775
 40
3.304374
 50
137.084778
 51
222.915222
  0
ARC
  8
0
 62
     4
 10
46.093506
 20
-95.220901
 40
2.045202
 50
270.985901
 51
359.862793
  0
ARC
  8
0
 62
     4
 10
46.088703
 20
-95.225792
 40
2.050003
 50
180.000000
 51
269.999908
  0
CIRCLE
  8
0
 62
     4
 10
-66.679504
 20
-50.125793
 40
1.400000
  0
CIRCLE
  8
0
 62
     4
 10
-66.679504
 20
-50.125793
 40
1.250000
  0
ARC
  8
0
 62
     4
 10
-113.222244
 20
-95.225792
 40
2.050003
 50
270.000000
 51
0.000000
  0
ARC
  8
0
 62
     4
 10
-113.222244
 20
-95.225792
 40
2.050003
 50
180.000000
 51
270.000000
  0
ARC
  8
0
 62
     4
 10
202.175903
 20
115.267754
 40
9.995880
 50
328.249786
 51
31.750208
  0
CIRCLE
  8
0
 10
112.989853
 20
29.999985
 40
26.000000
  0
ARC
  8
0
 10
112.988777
 20
30.001060
 40
40.996639
 50
130.875504
 51
139.124496
  0
ARC
  8
0
 10
112.993111
 20
30.003239
 40
40.993565
 50
40.875202
 51
49.124805
  0
ARC
  8
0
 10
112.988777
 20
30.001060
 40
40.999676
 50
310.875824
 51
319.124176
  0
ARC
  8
0
 10
112.993111
 20
30.003239
 40
41.002750
 50
220.876114
 51
229.123871
  0
ARC
  8
0
 10
125.389854
 20
58.399986
 40
2.100006
 50
180.000000
 51
0.000000
  0
ARC
  8
0
 10
123.493111
 20
60.703243
 40
0.296763
 50
359.371002
 51
90.628990
  0
ARC
  8
0
 10
127.288780
 20
60.701054
 40
0.298933
 50
89.795273
 51
180.204727
  0
ARC
  8
0
 10
98.693115
 20
60.703247
 40
0.296756
 50
359.369537
 51
90.630478
  0
ARC
  8
0
 10
102.488792
 20
60.701050
 40
0.298937
 50
89.796738
 51
180.203995
  0
ARC
  8
0
 10
100.589851
 20
58.399986
 40
2.100006
 50
180.000000
 51
0.000000
  0
ARC
  8
0
 10
143.693085
 20
15.703218
 40
0.296786
 50
359.375671
 51
90.624519
  0
ARC
  8
0
 10
143.688736
 20
19.501102
 40
0.301119
 50
270.211945
 51
359.787323
  0
ARC
  8
0
 10
141.389847
 20
42.399986
 40
2.100002
 50
90.000000
 51
270.000000
  0
ARC
  8
0
 10
143.688705
 20
44.301125
 40
0.301142
 50
270.217743
 51
359.782990
  0
ARC
  8
0
 10
141.389847
 20
17.599985
 40
2.100000
 50
90.000000
 51
270.000000
  0
ARC
  8
0
 10
143.693085
 20
40.503212
 40
0.296786
 50
359.376953
 51
90.624512
  0
ARC
  8
0
 10
98.688728
 20
-0.698889
 40
0.301129
 50
270.214844
 51
359.785583
  0
ARC
  8
0
 10
102.493141
 20
-0.696728
 40
0.303309
 50
180.621155
 51
269.378815
  0
ARC
  8
0
 10
125.389854
 20
1.599985
 40
2.100006
 50
0.000000
 51
180.000000
  0
ARC
  8
0
 10
127.293137
 20
-0.696733
 40
0.303301
 50
180.620026
 51
269.380249
  0
ARC
  8
0
 10
100.589851
 20
1.599985
 40
2.100006
 50
0.000000
 51
180.000000
  0
ARC
  8
0
 10
123.488724
 20
-0.698891
 40
0.301127
 50
270.213379
 51
359.785919
  0
ARC
  8
0
 10
82.293144
 20
44.303276
 40
0.303309
 50
180.621170
 51
269.378815
  0
ARC
  8
0
 10
82.264854
 20
40.503101
 40
0.297933
 50
85.186279
 51
94.813721
  0
ARC
  8
0
 10
84.589851
 20
17.599985
 40
2.100001
 50
270.000000
 51
90.000000
  0
ARC
  8
0
 10
82.288773
 20
15.701070
 40
0.298917
 50
89.792343
 51
180.207840
  0
ARC
  8
0
 10
84.589851
 20
42.399986
 40
2.100002
 50
270.000000
 51
90.000000
  0
ARC
  8
0
 10
82.264854
 20
19.505552
 40
0.306588
 50
265.322479
 51
274.677521
  0
CIRCLE
  8
0
 62
     2
 10
88.989853
 20
53.999985
 40
4.000000
  0
CIRCLE
  8
0
 10
88.989853
 20
53.999985
 40
3.375000
  0
CIRCLE
  8
0
 10
88.989853
 20
53.999985
 40
5.500000
  0
CIRCLE
  8
0
 62
     2
 10
136.989853
 20
53.999985
 40
4.000000
  0
CIRCLE
  8
0
 10
136.989853
 20
53.999985
 40
3.375000
  0
CIRCLE
  8
0
 10
136.989853
 20
53.999985
 40
5.500000
  0
CIRCLE
  8
0
 62
     2
 10
136.989853
 20
5.999985
 40
4.000000
  0
CIRCLE
  8
0
 10
136.989853
 20
5.999985
 40
3.375000
  0
CIRCLE
  8
0
 10
136.989853
 20
5.999985
 40
5.500000
  0
CIRCLE
  8
0
 62
     2
 10
88.989853
 20
5.999985
 40
4.000000
  0
CIRCLE
  8
0
 10
88.989853
 20
5.999985
 40
3.375000
  0
CIRCLE
  8
0
 10
88.989853
 20
5.999985
 40
5.500000
  0
ARC
  8
0
 62
     4
 10
-117.000153
 20
29.999985
 40
9.000000
 50
199.188141
 51
340.811859
  0
CIRCLE
  8
0
 62
     4
 10
-117.000153
 20
29.999985
 40
10.000000
  0
ARC
  8
0
 62
     4
 10
-117.000153
 20
29.999985
 40
8.999999
 50
19.188128
 51
160.811844
  0
ARC
  8
0
 10
-93.000153
 20
53.999985
 40
8.499999
 50
124.560310
 51
325.439697
  0
CIRCLE
  8
0
 10
-93.000153
 20
53.999985
 40
6.500000
  0
CIRCLE
  8
0
 10
-93.000153
 20
53.999985
 40
6.000000
  0
CIRCLE
  8
0
 10
-141.000153
 20
5.999985
 40
6.000000
  0
CIRCLE
  8
0
 10
-141.000153
 20
5.999985
 40
6.500000
  0
ARC
  8
0
 10
-141.000153
 20
5.999985
 40
8.499999
 50
304.560303
 51
145.439682
  0
ARC
  8
0
 10
-117.001930
 20
29.998207
 40
41.000664
 50
40.875912
 51
49.124084
  0
ARC
  8
0
 10
-116.974075
 20
30.038319
 40
40.992817
 50
130.948837
 51
139.188705
  0
ARC
  8
0
 10
-116.969734
 20
29.965975
 40
40.998924
 50
220.811905
 51
229.050537
  0
ARC
  8
0
 10
-117.006256
 20
30.006090
 40
41.006771
 50
310.876526
 51
319.123474
  0
ARC
  8
0
 62
     4
 10
-117.000153
 20
30.004314
 40
9.002069
 50
199.225952
 51
340.774048
  0
CIRCLE
  8
0
 62
     1
 10
-117.000153
 20
29.999985
 40
5.000000
  0
CIRCLE
  8
0
 62
     4
 10
-117.000153
 20
29.999985
 40
4.250000
  0
CIRCLE
  8
0
 10
-93.000153
 20
5.999985
 40
5.500000
  0
CIRCLE
  8
0
 62
     2
 10
-93.000153
 20
5.999985
 40
4.000000
  0
CIRCLE
  8
0
 10
-93.000153
 20
5.999985
 40
3.375000
  0
CIRCLE
  8
0
 10
-141.000153
 20
53.999985
 40
5.500000
  0
CIRCLE
  8
0
 62
     2
 10
-141.000153
 20
53.999985
 40
4.000000
  0
CIRCLE
  8
0
 10
-141.000153
 20
53.999985
 40
3.375000
  0
CIRCLE
  8
0
 10
-4.010151
 20
29.999985
 40
5.722500
  0
CIRCLE
  8
0
 62
     2
 10
-4.010151
 20
29.999985
 40
6.578500
  0
CIRCLE
  8
0
 10
13.499849
 20
29.999985
 40
5.722500
  0
CIRCLE
  8
0
 62
     2
 10
13.499849
 20
29.999985
 40
6.578500
  0
POLYLINE
  8
0
 62
     4
 66
     1
  0
VERTEX
  8
0
 10
111.912399
 20
99.677750
  0
VERTEX
  8
0
 10
111.512840
 20
100.395660
  0
VERTEX
  8
0
 10
111.180893
 20
101.154930
  0
VERTEX
  8
0
 10
110.928726
 20
101.945251
  0
VERTEX
  8
0
 10
110.768509
 20
102.756302
  0
VERTEX
  8
0
 10
110.712402
 20
103.577751
  0
VERTEX
  8
0
 10
110.768509
 20
104.397545
  0
VERTEX
  8
0
 10
110.928726
 20
105.206032
  0
VERTEX
  8
0
 10
111.180893
 20
105.993622
  0
VERTEX
  8
0
 10
111.512840
 20
106.750725
  0
VERTEX
  8
0
 10
111.912399
 20
107.467751
  0
SEQEND
  0
POLYLINE
  8
0
 62
     4
 66
     1
  0
VERTEX
  8
0
 10
111.912399
 20
123.057755
  0
VERTEX
  8
0
 10
111.637733
 20
122.110214
  0
VERTEX
  8
0
 10
111.397072
 20
121.152229
  0
VERTEX
  8
0
 10
111.191231
 20
120.185265
  0
VERTEX
  8
0
 10
111.021004
 20
119.210815
  0
VERTEX
  8
0
 10
110.887199
 20
118.230362
  0
VERTEX
  8
0
 10
110.790627
 20
117.245377
  0
VERTEX
  8
0
 10
110.732094
 20
116.257347
  0
VERTEX
  8
0
 10
110.712402
 20
115.267754
  0
VERTEX
  8
0
 10
110.732094
 20
114.277260
  0
VERTEX
  8
0
 10
110.790627
 20
113.287872
  0
VERTEX
  8
0
 10
110.887199
 20
112.301254
  0
VERTEX
  8
0
 10
111.021004
 20
111.319069
  0
VERTEX
  8
0
 10
111.191231
 20
110.342964
  0
VERTEX
  8
0
 10
111.397072
 20
109.374611
  0
VERTEX
  8
0
 10
111.637733
 20
108.415649
  0
VERTEX
  8
0
 10
111.912399
 20
107.467751
  0
SEQEND
  0
POLYLINE
  8
0
 62
     4
 66
     1
  0
VERTEX
  8
0
 10
120.502403
 20
123.057755
  0
VERTEX
  8
0
 10
120.777496
 20
122.110214
  0
VERTEX
  8
0
 10
121.019287
 20
121.152229
  0
VERTEX
  8
0
 10
121.226738
 20
120.185265
  0
VERTEX
  8
0
 10
121.398804
 20
119.210815
  0
VERTEX
  8
0
 10
121.534439
 20
118.230362
  0
VERTEX
  8
0
 10
121.632614
 20
117.245377
  0
VERTEX
  8
0
 10
121.692284
 20
116.257347
  0
VERTEX
  8
0
 10
121.712402
 20
115.267754
  0
VERTEX
  8
0
 10
121.692284
 20
114.277260
  0
VERTEX
  8
0
 10
121.632614
 20
113.287872
  0
VERTEX
  8
0
 10
121.534439
 20
112.301254
  0
VERTEX
  8
0
 10
121.398804
 20
111.319069
  0
VERTEX
  8
0
 10
121.226738
 20
110.342964
  0
VERTEX
  8
0
 10
121.019287
 20
109.374611
  0
VERTEX
  8
0
 10
120.777496
 20
108.415649
  0
VERTEX
  8
0
 10
120.502403
 20
107.467751
  0
SEQEND
  0
POLYLINE
  8
0
 62
     4
 66
     1
  0
VERTEX
  8
0
 10
111.912399
 20
130.857758
  0
VERTEX
  8
0
 10
111.512840
 20
130.139694
  0
VERTEX
  8
0
 10
111.180893
 20
129.380096
  0
VERTEX
  8
0
 10
110.928726
 20
128.589539
  0
VERTEX
  8
0
 10
110.768509
 20
127.778580
  0
VERTEX
  8
0
 10
110.712402
 20
126.957756
  0
VERTEX
  8
0
 10
110.768509
 20
126.136932
  0
VERTEX
  8
0
 10
110.928726
 20
125.325966
  0
VERTEX
  8
0
 10
111.180893
 20
124.535416
  0
VERTEX
  8
0
 10
111.512840
 20
123.775826
  0
VERTEX
  8
0
 10
111.912399
 20
123.057755
  0
SEQEND
  0
POLYLINE
  8
0
 62
     4
 66
     1
  0
VERTEX
  8
0
 10
120.502403
 20
130.857758
  0
VERTEX
  8
0
 10
120.903008
 20
130.139694
  0
VERTEX
  8
0
 10
121.237434
 20
129.380096
  0
VERTEX
  8
0
 10
121.492554
 20
128.589539
  0
VERTEX
  8
0
 10
121.655251
 20
127.778580
  0
VERTEX
  8
0
 10
121.712402
 20
126.957756
  0
VERTEX
  8
0
 10
121.655251
 20
126.136932
  0
VERTEX
  8
0
 10
121.492554
 20
125.325966
  0
VERTEX
  8
0
 10
121.237434
 20
124.535416
  0
VERTEX
  8
0
 10
120.903008
 20
123.775826
  0
VERTEX
  8
0
 10
120.502403
 20
123.057755
  0
SEQEND
  0
POLYLINE
  8
0
 62
     4
 66
     1
  0
VERTEX
  8
0
 10
120.502403
 20
99.677750
  0
VERTEX
  8
0
 10
120.903008
 20
100.395660
  0
VERTEX
  8
0
 10
121.237434
 20
101.154938
  0
VERTEX
  8
0
 10
121.492554
 20
101.945251
  0
VERTEX
  8
0
 10
121.655251
 20
102.756302
  0
VERTEX
  8
0
 10
121.712402
 20
103.577751
  0
VERTEX
  8
0
 10
121.655251
 20
104.397545
  0
VERTEX
  8
0
 10
121.492554
 20
105.206032
  0
VERTEX
  8
0
 10
121.237434
 20
105.993622
  0
VERTEX
  8
0
 10
120.903008
 20
106.750725
  0
VERTEX
  8
0
 10
120.502403
 20
107.467751
  0
SEQEND
  0
POLYLINE
  8
0
 62
     4
 66
     1
  0
VERTEX
  8
0
 10
134.712402
 20
120.537750
  0
VERTEX
  8
0
 10
135.137238
 20
119.724335
  0
VERTEX
  8
0
 10
135.502853
 20
118.875374
  0
VERTEX
  8
0
 10
135.801224
 20
117.998062
  0
VERTEX
  8
0
 10
136.024292
 20
117.099564
  0
VERTEX
  8
0
 10
136.164032
 20
116.187065
  0
VERTEX
  8
0
 10
136.212402
 20
115.267754
  0
VERTEX
  8
0
 10
136.164032
 20
114.348442
  0
VERTEX
  8
0
 10
136.024292
 20
113.435944
  0
VERTEX
  8
0
 10
135.801224
 20
112.537453
  0
VERTEX
  8
0
 10
135.502853
 20
111.660133
  0
VERTEX
  8
0
 10
135.137238
 20
110.811172
  0
VERTEX
  8
0
 10
134.712402
 20
109.997757
  0
SEQEND
  0
POLYLINE
  8
0
 62
     4
 66
     1
  0
VERTEX
  8
0
 10
-36.000153
 20
35.269985
  0
VERTEX
  8
0
 10
-35.575325
 20
34.456570
  0
VERTEX
  8
0
 10
-35.209705
 20
33.607609
  0
VERTEX
  8
0
 10
-34.911339
 20
32.730293
  0
VERTEX
  8
0
 10
-34.688263
 20
31.831795
  0
VERTEX
  8
0
 10
-34.548519
 20
30.919298
  0
VERTEX
  8
0
 10
-34.500153
 20
29.999985
  0
VERTEX
  8
0
 10
-34.548519
 20
29.080671
  0
VERTEX
  8
0
 10
-34.688263
 20
28.168177
  0
VERTEX
  8
0
 10
-34.911339
 20
27.269678
  0
VERTEX
  8
0
 10
-35.209705
 20
26.392361
  0
VERTEX
  8
0
 10
-35.575325
 20
25.543402
  0
VERTEX
  8
0
 10
-36.000153
 20
24.729984
  0
SEQEND
  0
TEXT
  8
0
 10
167.564514
 20
-192.100006
 40
9.000000
  1
KOGANEI CORP.
 50
0.000000
 41
1.052632
 51
0.000000
  7
STANDARD
  0
TEXT
  8
0
 10
-269.149872
 20
180.830002
 40
6.300000
  1
CS JIG CYLINDER
 50
0.000000
 41
1.052632
 51
0.000000
  7
STANDARD
  0
TEXT
  8
0
 10
-232.249863
 20
125.830002
 40
6.300000
  1
CS-CDAS50*ST-R
 50
0.000000
 41
1.052632
 51
0.000000
  7
STANDARD
  0
TEXT
  8
0
 10
-264.000153
 20
-174.699997
 40
4.500000
  1
CS-CDA50-R
 50
0.000000
 41
1.052632
 51
0.000000
  7
STANDARD
  0
TEXT
  8
0
 10
-264.000153
 20
-166.699997
 40
4.500000
  1
CS-CDAS50
 50
0.000000
 41
1.052632
 51
0.000000
  7
STANDARD
  0
TEXT
  8
0
 10
-264.000153
 20
-158.699997
 40
4.500000
  1
CS-CDA50
 50
0.000000
 41
1.052632
 51
0.000000
  7
STANDARD
  0
TEXT
  8
0
 10
-29.142803
 20
-148.050003
 40
4.500000
  1
50
 50
0.000000
 41
1.052632
 51
0.000000
  7
STANDARD
  0
TEXT
  8
0
 10
-7.142803
 20
-148.050003
 40
4.500000
  1
75
 50
0.000000
 41
1.052632
 51
0.000000
  7
STANDARD
  0
TEXT
  8
0
 10
12.607196
 20
-148.050003
 40
4.500000
  1
100
 50
0.000000
 41
1.052632
 51
0.000000
  7
STANDARD
  0
TEXT
  8
0
 10
-264.000153
 20
-184.050003
 40
4.500000
  1
CS-CDAS50-R
 50
0.000000
 41
1.052632
 51
0.000000
  7
STANDARD
  0
TEXT
  8
0
 10
-265.642822
 20
-152.050003
 40
4.500000
  1
TYPE
 50
0.000000
 41
1.052632
 51
0.000000
  7
STANDARD
  0
TEXT
  8
0
 10
-240.142807
 20
-144.050003
 40
4.500000
  1
STROKE
 50
0.000000
 41
1.052632
 51
0.000000
  7
STANDARD
  0
TEXT
  8
0
 10
-205.142807
 20
-148.050003
 40
4.500000
  1
10
 50
0.000000
 41
1.052632
 51
0.000000
  7
STANDARD
  0
TEXT
  8
0
 10
-183.142807
 20
-148.050003
 40
4.500000
  1
15
 50
0.000000
 41
1.052632
 51
0.000000
  7
STANDARD
  0
TEXT
  8
0
 10
-161.142807
 20
-148.050003
 40
4.500000
  1
20
 50
0.000000
 41
1.052632
 51
0.000000
  7
STANDARD
  0
TEXT
  8
0
 10
-139.142807
 20
-148.050003
 40
4.500000
  1
25
 50
0.000000
 41
1.052632
 51
0.000000
  7
STANDARD
  0
TEXT
  8
0
 10
-117.142799
 20
-148.050003
 40
4.500000
  1
30
 50
0.000000
 41
1.052632
 51
0.000000
  7
STANDARD
  0
TEXT
  8
0
 10
-95.142799
 20
-148.050003
 40
4.500000
  1
35
 50
0.000000
 41
1.052632
 51
0.000000
  7
STANDARD
  0
TEXT
  8
0
 10
-73.142799
 20
-148.050003
 40
4.500000
  1
40
 50
0.000000
 41
1.052632
 51
0.000000
  7
STANDARD
  0
TEXT
  8
0
 10
-51.142803
 20
-148.050003
 40
4.500000
  1
45
 50
0.000000
 41
1.052632
 51
0.000000
  7
STANDARD
  0
TEXT
  8
0
 10
-147.642807
 20
-135.050003
 40
4.500000
  1
STRETCH LIST
 50
0.000000
 41
1.052632
 51
0.000000
  7
STANDARD
  0
TEXT
  8
0
 10
-270.049866
 20
155.830002
 40
6.300000
  1
MODEL:CS-CDA50*ST(10)
 50
0.000000
 41
1.052632
 51
0.000000
  7
STANDARD
  0
TEXT
  8
0
 10
-232.249863
 20
145.830002
 40
6.300000
  1
CS-CDAS50*ST
 50
0.000000
 41
1.052632
 51
0.000000
  7
STANDARD
  0
TEXT
  8
0
 10
-232.249863
 20
135.830002
 40
6.300000
  1
CS-CDA50*ST-R
 50
0.000000
 41
1.052632
 51
0.000000
  7
STANDARD
  0
TEXT
  8
0
 10
10.357196
 20
-136.050003
 40
4.500000
  1
üiéìéìüj
 50
0.000000
 41
0.833333
 51
0.000000
  7
STANDARD
  0
TEXT
  8
0
 10
-202.892807
 20
-176.050003
 40
4.500000
  1
0
 50
0.000000
 41
1.052632
 51
0.000000
  7
STANDARD
  0
TEXT
  8
0
 10
-180.892807
 20
-176.050003
 40
4.500000
  1
5
 50
0.000000
 41
1.052632
 51
0.000000
  7
STANDARD
  0
TEXT
  8
0
 10
-205.142807
 20
-184.050003
 40
4.500000
  1
10
 50
0.000000
 41
1.052632
 51
0.000000
  7
STANDARD
  0
TEXT
  8
0
 10
-183.142807
 20
-184.050003
 40
4.500000
  1
15
 50
0.000000
 41
1.052632
 51
0.000000
  7
STANDARD
  0
TEXT
  8
0
 10
-161.142807
 20
-184.050003
 40
4.500000
  1
20
 50
0.000000
 41
1.052632
 51
0.000000
  7
STANDARD
  0
TEXT
  8
0
 10
-139.142807
 20
-184.050003
 40
4.500000
  1
25
 50
0.000000
 41
1.052632
 51
0.000000
  7
STANDARD
  0
TEXT
  8
0
 10
-117.142799
 20
-184.050003
 40
4.500000
  1
30
 50
0.000000
 41
1.052632
 51
0.000000
  7
STANDARD
  0
TEXT
  8
0
 10
-95.142799
 20
-184.050003
 40
4.500000
  1
35
 50
0.000000
 41
1.052632
 51
0.000000
  7
STANDARD
  0
TEXT
  8
0
 10
-73.142799
 20
-184.050003
 40
4.500000
  1
40
 50
0.000000
 41
1.052632
 51
0.000000
  7
STANDARD
  0
TEXT
  8
0
 10
-7.142803
 20
-176.050003
 40
4.500000
  1
65
 50
0.000000
 41
1.052632
 51
0.000000
  7
STANDARD
  0
TEXT
  8
0
 10
14.857197
 20
-176.050003
 40
4.500000
  1
90
 50
0.000000
 41
1.052632
 51
0.000000
  7
STANDARD
  0
TEXT
  8
0
 10
-29.142803
 20
-176.050003
 40
4.500000
  1
40
 50
0.000000
 41
1.052632
 51
0.000000
  7
STANDARD
  0
TEXT
  8
0
 10
-51.142803
 20
-176.050003
 40
4.500000
  1
35
 50
0.000000
 41
1.052632
 51
0.000000
  7
STANDARD
  0
TEXT
  8
0
 10
-73.142799
 20
-176.050003
 40
4.500000
  1
30
 50
0.000000
 41
1.052632
 51
0.000000
  7
STANDARD
  0
TEXT
  8
0
 10
-95.142799
 20
-176.050003
 40
4.500000
  1
25
 50
0.000000
 41
1.052632
 51
0.000000
  7
STANDARD
  0
TEXT
  8
0
 10
-117.142799
 20
-176.050003
 40
4.500000
  1
20
 50
0.000000
 41
1.052632
 51
0.000000
  7
STANDARD
  0
TEXT
  8
0
 10
-139.142807
 20
-176.050003
 40
4.500000
  1
15
 50
0.000000
 41
1.052632
 51
0.000000
  7
STANDARD
  0
TEXT
  8
0
 10
-161.142807
 20
-176.050003
 40
4.500000
  1
10
 50
0.000000
 41
1.052632
 51
0.000000
  7
STANDARD
  0
TEXT
  8
0
 10
-51.142803
 20
-184.050003
 40
4.500000
  1
45
 50
0.000000
 41
1.052632
 51
0.000000
  7
STANDARD
  0
TEXT
  8
0
 10
-29.142803
 20
-184.050003
 40
4.500000
  1
50
 50
0.000000
 41
1.052632
 51
0.000000
  7
STANDARD
  0
TEXT
  8
0
 10
-7.142803
 20
-184.050003
 40
4.500000
  1
75
 50
0.000000
 41
1.052632
 51
0.000000
  7
STANDARD
  0
TEXT
  8
0
 10
12.607196
 20
-184.050003
 40
4.500000
  1
100
 50
0.000000
 41
1.052632
 51
0.000000
  7
STANDARD
  0
TEXT
  8
0
 10
12.607196
 20
-168.050003
 40
4.500000
  1
100
 50
0.000000
 41
1.052632
 51
0.000000
  7
STANDARD
  0
TEXT
  8
0
 10
-7.142803
 20
-168.050003
 40
4.500000
  1
75
 50
0.000000
 41
1.052632
 51
0.000000
  7
STANDARD
  0
TEXT
  8
0
 10
-29.142803
 20
-168.050003
 40
4.500000
  1
50
 50
0.000000
 41
1.052632
 51
0.000000
  7
STANDARD
  0
TEXT
  8
0
 10
-51.142803
 20
-168.050003
 40
4.500000
  1
45
 50
0.000000
 41
1.052632
 51
0.000000
  7
STANDARD
  0
TEXT
  8
0
 10
-161.142807
 20
-160.050003
 40
4.500000
  1
10
 50
0.000000
 41
1.052632
 51
0.000000
  7
STANDARD
  0
TEXT
  8
0
 10
-139.142807
 20
-160.050003
 40
4.500000
  1
15
 50
0.000000
 41
1.052632
 51
0.000000
  7
STANDARD
  0
TEXT
  8
0
 10
-117.142799
 20
-160.050003
 40
4.500000
  1
20
 50
0.000000
 41
1.052632
 51
0.000000
  7
STANDARD
  0
TEXT
  8
0
 10
-95.142799
 20
-160.050003
 40
4.500000
  1
25
 50
0.000000
 41
1.052632
 51
0.000000
  7
STANDARD
  0
TEXT
  8
0
 10
-73.142799
 20
-160.050003
 40
4.500000
  1
30
 50
0.000000
 41
1.052632
 51
0.000000
  7
STANDARD
  0
TEXT
  8
0
 10
-51.142803
 20
-160.050003
 40
4.500000
  1
35
 50
0.000000
 41
1.052632
 51
0.000000
  7
STANDARD
  0
TEXT
  8
0
 10
-29.142803
 20
-160.050003
 40
4.500000
  1
40
 50
0.000000
 41
1.052632
 51
0.000000
  7
STANDARD
  0
TEXT
  8
0
 10
14.857197
 20
-160.050003
 40
4.500000
  1
90
 50
0.000000
 41
1.052632
 51
0.000000
  7
STANDARD
  0
TEXT
  8
0
 10
-7.142803
 20
-160.050003
 40
4.500000
  1
65
 50
0.000000
 41
1.052632
 51
0.000000
  7
STANDARD
  0
TEXT
  8
0
 10
-73.142799
 20
-168.050003
 40
4.500000
  1
40
 50
0.000000
 41
1.052632
 51
0.000000
  7
STANDARD
  0
TEXT
  8
0
 10
-95.142799
 20
-168.050003
 40
4.500000
  1
35
 50
0.000000
 41
1.052632
 51
0.000000
  7
STANDARD
  0
TEXT
  8
0
 10
-117.142799
 20
-168.050003
 40
4.500000
  1
30
 50
0.000000
 41
1.052632
 51
0.000000
  7
STANDARD
  0
TEXT
  8
0
 10
-139.142807
 20
-168.050003
 40
4.500000
  1
25
 50
0.000000
 41
1.052632
 51
0.000000
  7
STANDARD
  0
TEXT
  8
0
 10
-161.142807
 20
-168.050003
 40
4.500000
  1
20
 50
0.000000
 41
1.052632
 51
0.000000
  7
STANDARD
  0
TEXT
  8
0
 10
-183.142807
 20
-168.050003
 40
4.500000
  1
15
 50
0.000000
 41
1.052632
 51
0.000000
  7
STANDARD
  0
TEXT
  8
0
 10
-205.142807
 20
-168.050003
 40
4.500000
  1
10
 50
0.000000
 41
1.052632
 51
0.000000
  7
STANDARD
  0
TEXT
  8
0
 10
-180.892807
 20
-160.050003
 40
4.500000
  1
5
 50
0.000000
 41
1.052632
 51
0.000000
  7
STANDARD
  0
TEXT
  8
0
 10
-202.892807
 20
-160.050003
 40
4.500000
  1
0
 50
0.000000
 41
1.052632
 51
0.000000
  7
STANDARD
  0
TEXT
  8
0
 10
121.994514
 20
136.868622
 40
6.300000
  1
-B
 50
0.000000
 41
1.052632
 51
0.000000
  7
STANDARD
  0
TEXT
  8
0
 10
202.719330
 20
136.868668
 40
6.300000
  1
-G
 50
0.000000
 41
1.052632
 51
0.000000
  7
STANDARD
  0
TEXT
  8
0
 10
196.675110
 20
181.080002
 40
6.300000
  1
éuüvÕú‗.ü@éPüDéO
 50
0.000000
 41
0.833333
 51
0.000000
  7
STANDARD
  0
TEXT
  8
0
 62
     3
 10
-22.652807
 20
169.709015
 40
4.500000
  1
STRETCH LINE
 50
0.000000
 41
1.052632
 51
0.000000
  7
STANDARD
  0
ENDSEC
  0
EOF
