  0
SECTION
  2
HEADER
  9
$ACADVER
  1
AC1003
  9
$EXTMIN
 10
-3.99250000E+02
 20
-2.76750000E+02
  9
$EXTMAX
 10
3.99799805E+02
 20
2.76250000E+02
  9
$LIMMIN
 10
-3.99251000E+02
 20
-2.76751000E+02
  9
$LIMMAX
 10
3.99800805E+02
 20
2.76251000E+02
  9
$SNAPUNIT
 10
1
 20
1
  9
$SNAPBASE
 10
0
 20
0
  9
$GRIDMODE
 70
0
  9
$GRIDUNIT
 10
0
 20
0
  9
$LTSCALE
 40
1.33174967E+01
  9
$TEXTSIZE
 40
3.2
  9
$DIMTAD
 70
0
  9
$LUNITS
 70
2
  9
$LUPREC
 70
4
  9
$FILLETRAD
 40
0
  9
$AUNITS
 70
0
  9
$AUPREC
 70
0
  0
ENDSEC
  0
SECTION
  2
TABLES
  0
TABLE
  2
LTYPE
 70
2
  0
LTYPE
  2
CONTINUOUS
 70
64
  3
Solid-Line
 72
65
 73
0
 40
0
  0
LTYPE
  2
DASHED
 70
64
  3
DASHED
 72
65
 73
2
 40
.75
 49
.5
 49
-.25
  0
LTYPE
  2
HIDDEN
 70
64
  3
HIDDEN
 72
65
 73
2
 40
.375
 49
.25
 49
-.125
  0
LTYPE
  2
CENTER
 70
64
  3
CENTER
 72
65
 73
4
 40
2
 49
1.25
 49
-.25
 49
.25
 49
-.25
  0
LTYPE
  2
PHANTOM
 70
64
  3
PHANTOM
 72
65
 73
6
 40
2.5
 49
1.25
 49
-.25
 49
.25
 49
-.25
 49
.25
 49
-.25
  0
ENDTAB
  0
TABLE
  2
LAYER
 70
1
  0
LAYER
  2
0
 70
0
 62
3
  6
CONTINUOUS
 0
ENDTAB
  0
TABLE
  2
STYLE
 70
2
  0
STYLE
  2
MONOTXT
 70
0
 40
0
 41
1
 50
0
 71
0
 42
.2
  3
monotxt
  0
STYLE
  2
BIGFONT
 70
0
 40
0
 41
1
 50
0
 71
0
 42
.2
  3
txt
  4
bigfont
  0
ENDTAB
  0
ENDSEC
  0
SECTION
  2
ENTITIES
  0
LINE
  8
0
 62
7
 10
-1.13445098E+02
 20
1.85668323E+02
 11
-1.13445098E+02
 21
1.45668323E+02
  0
LINE
  8
0
 62
7
 10
-2.03435098E+02
 20
1.78668323E+02
 11
-2.03435098E+02
 21
1.52668323E+02
  0
LINE
  8
0
 62
7
 10
-1.91435098E+02
 20
1.40368323E+02
 11
-1.25445098E+02
 21
1.40368323E+02
  0
LINE
  8
0
 62
7
 10
-1.76185098E+02
 20
4.96683230E+01
 11
-1.40685098E+02
 21
4.96683230E+01
  0
LINE
  8
0
 62
7
 10
-1.41035098E+02
 20
5.25583230E+01
 11
-1.39745098E+02
 21
8.96683230E+01
  0
LINE
  8
0
 62
7
 10
-1.77125098E+02
 20
8.96683230E+01
 11
-1.75825098E+02
 21
5.25583230E+01
  0
LINE
  8
0
 62
7
 10
-1.82325098E+02
 20
9.96683230E+01
 11
-1.34535098E+02
 21
9.96683230E+01
  0
LINE
  8
0
 62
7
 10
-1.82475098E+02
 20
8.96683230E+01
 11
-1.82235098E+02
 21
8.95283230E+01
  0
LINE
  8
0
 62
7
 10
-1.82235098E+02
 20
8.95283230E+01
 11
-1.81335098E+02
 21
6.36683230E+01
  0
LINE
  8
0
 62
7
 10
-1.27445098E+02
 20
2.06668323E+02
 11
-1.89435098E+02
 21
2.06668323E+02
  0
LINE
  8
0
 62
7
 10
-1.91435098E+02
 20
2.04668323E+02
 11
-1.91435098E+02
 21
1.80668323E+02
  0
LINE
  8
0
 62
7
 10
-1.25445098E+02
 20
2.04668323E+02
 11
-1.25445098E+02
 21
1.80668323E+02
  0
LINE
  8
0
 62
7
 10
-1.25445098E+02
 20
1.40368323E+02
 11
-1.25445098E+02
 21
1.28368323E+02
  0
LINE
  8
0
 62
7
 10
-1.91435098E+02
 20
1.40368323E+02
 11
-1.91435098E+02
 21
1.11668323E+02
  0
LINE
  8
0
 62
7
 10
-1.27445098E+02
 20
1.26368323E+02
 11
-1.89435098E+02
 21
1.26368323E+02
  0
LINE
  8
0
 62
7
 10
-1.82325098E+02
 20
9.96683230E+01
 11
-1.82815098E+02
 21
9.91883230E+01
  0
LINE
  8
0
 62
7
 10
-1.34535098E+02
 20
9.96683230E+01
 11
-1.34055098E+02
 21
9.91883230E+01
  0
LINE
  8
0
 62
7
 10
-1.54435098E+02
 20
8.96683230E+01
 11
-1.54435098E+02
 21
5.25583230E+01
  0
LINE
  8
0
 62
7
 10
-1.62435098E+02
 20
8.96683230E+01
 11
-1.62435098E+02
 21
5.25583230E+01
  0
LINE
  8
0
 62
7
 10
-1.62435098E+02
 20
5.25583230E+01
 11
-1.54435098E+02
 21
5.25583230E+01
  0
LINE
  8
0
 62
7
 10
-1.54435098E+02
 20
8.96683230E+01
 11
-1.39745098E+02
 21
8.96683230E+01
  0
LINE
  8
0
 62
7
 10
-1.63915098E+02
 20
5.98683230E+01
 11
-1.63915098E+02
 21
4.96683230E+01
  0
LINE
  8
0
 62
7
 10
-1.52955098E+02
 20
5.98683230E+01
 11
-1.52955098E+02
 21
4.96683230E+01
  0
LINE
  8
0
 62
7
 10
-1.54435098E+02
 20
5.25583230E+01
 11
-1.52955098E+02
 21
4.96683230E+01
  0
LINE
  8
0
 62
7
 10
-1.62435098E+02
 20
5.25583230E+01
 11
-1.63915098E+02
 21
4.96683230E+01
  0
LINE
  8
0
 62
7
 10
-1.41035098E+02
 20
5.25583230E+01
 11
-1.46545098E+02
 21
4.96683230E+01
  0
LINE
  8
0
 62
7
 10
-1.62435098E+02
 20
8.96683230E+01
 11
-1.77125098E+02
 21
8.96683230E+01
  0
LINE
  8
0
 62
7
 10
-1.62435098E+02
 20
6.36683230E+01
 11
-1.76215098E+02
 21
6.36683230E+01
  0
LINE
  8
0
 62
7
 10
-1.63915098E+02
 20
5.98683230E+01
 11
-1.71085098E+02
 21
5.98683230E+01
  0
LINE
  8
0
 62
7
 10
-1.75825098E+02
 20
5.25583230E+01
 11
-1.70315098E+02
 21
4.96683230E+01
  0
LINE
  8
0
 62
7
 10
-1.75825098E+02
 20
5.25583230E+01
 11
-1.80685098E+02
 21
5.25583230E+01
  0
LINE
  8
0
 62
7
 10
-1.90685098E+02
 20
1.33368323E+02
 11
-1.81435098E+02
 21
1.33368323E+02
  0
LINE
  8
0
 62
7
 10
-1.81435098E+02
 20
1.33368323E+02
 11
-1.81435098E+02
 21
1.28368323E+02
  0
LINE
  8
0
  6
CENTER
 62
2
 10
-1.86435098E+02
 20
1.34368323E+02
 11
-1.86435098E+02
 21
1.25368323E+02
  0
LINE
  8
0
 62
7
 10
-1.90685098E+02
 20
1.99668323E+02
 11
-1.81435098E+02
 21
1.99668323E+02
  0
LINE
  8
0
  6
CENTER
 62
2
 10
-1.86435098E+02
 20
1.98668323E+02
 11
-1.86435098E+02
 21
2.07668323E+02
  0
LINE
  8
0
 62
7
 10
-1.81435098E+02
 20
1.99668323E+02
 11
-1.81435098E+02
 21
2.04668323E+02
  0
LINE
  8
0
  6
CENTER
 62
2
 10
-1.58435098E+02
 20
2.13808323E+02
 11
-1.58435098E+02
 21
4.25283230E+01
  0
LINE
  8
0
 62
7
 10
-1.35435098E+02
 20
1.33368323E+02
 11
-1.35435098E+02
 21
1.28368323E+02
  0
LINE
  8
0
 62
7
 10
-1.26195098E+02
 20
1.33368323E+02
 11
-1.35435098E+02
 21
1.33368323E+02
  0
LINE
  8
0
  6
CENTER
 62
2
 10
-1.30445098E+02
 20
1.34368323E+02
 11
-1.30445098E+02
 21
1.25368323E+02
  0
LINE
  8
0
 62
7
 10
-1.26195098E+02
 20
1.99668323E+02
 11
-1.35435098E+02
 21
1.99668323E+02
  0
LINE
  8
0
  6
CENTER
 62
2
 10
-1.30445098E+02
 20
1.98668323E+02
 11
-1.30445098E+02
 21
2.07668323E+02
  0
LINE
  8
0
 62
7
 10
-1.35435098E+02
 20
1.99668323E+02
 11
-1.35435098E+02
 21
2.04668323E+02
  0
LINE
  8
0
 62
7
 10
-1.54435098E+02
 20
6.36683230E+01
 11
-1.52955098E+02
 21
5.98683230E+01
  0
LINE
  8
0
 62
7
 10
-1.62435098E+02
 20
6.36683230E+01
 11
-1.63915098E+02
 21
5.98683230E+01
  0
LINE
  8
0
 62
7
 10
-1.82815098E+02
 20
9.91883230E+01
 11
-1.82475098E+02
 21
8.96683230E+01
  0
LINE
  8
0
 62
7
 10
-1.71085098E+02
 20
5.98683230E+01
 11
-1.70315098E+02
 21
4.96683230E+01
  0
LINE
  8
0
 62
7
 10
-1.76215098E+02
 20
6.36683230E+01
 11
-1.71085098E+02
 21
5.98683230E+01
  0
LINE
  8
0
 62
7
 10
-1.52955098E+02
 20
5.98683230E+01
 11
-1.45785098E+02
 21
5.98683230E+01
  0
LINE
  8
0
 62
7
 10
-1.54435098E+02
 20
6.36683230E+01
 11
-1.40655098E+02
 21
6.36683230E+01
  0
LINE
  8
0
 62
7
 10
-1.40655098E+02
 20
6.36683230E+01
 11
-1.45785098E+02
 21
5.98683230E+01
  0
LINE
  8
0
 62
7
 10
-1.45785098E+02
 20
5.98683230E+01
 11
-1.46545098E+02
 21
4.96683230E+01
  0
LINE
  8
0
 62
7
 10
-1.81075098E+02
 20
6.36683230E+01
 11
-1.80685098E+02
 21
5.25683230E+01
  0
LINE
  8
0
 62
7
 10
-1.81335098E+02
 20
6.36683230E+01
 11
-1.81075098E+02
 21
6.36683230E+01
  0
LINE
  8
0
 62
7
 10
-1.76185098E+02
 20
4.96683230E+01
 11
-1.80685098E+02
 21
5.25483230E+01
  0
LINE
  8
0
 62
7
 10
-1.34055098E+02
 20
9.91883230E+01
 11
-1.34385098E+02
 21
8.96683230E+01
  0
LINE
  8
0
 62
7
 10
-1.34635098E+02
 20
8.95283230E+01
 11
-1.35535098E+02
 21
6.36683230E+01
  0
LINE
  8
0
 62
7
 10
-1.34385098E+02
 20
8.96683230E+01
 11
-1.34635098E+02
 21
8.95283230E+01
  0
LINE
  8
0
 62
7
 10
-1.35535098E+02
 20
6.36683230E+01
 11
-1.35795098E+02
 21
6.36683230E+01
  0
LINE
  8
0
 62
7
 10
-1.35795098E+02
 20
6.36683230E+01
 11
-1.36185098E+02
 21
5.25683230E+01
  0
LINE
  8
0
 62
7
 10
-1.40685098E+02
 20
4.96683230E+01
 11
-1.36185098E+02
 21
5.25583230E+01
  0
LINE
  8
0
 62
7
 10
-1.91435098E+02
 20
1.90668323E+02
 11
-1.18445098E+02
 21
1.90668323E+02
  0
LINE
  8
0
 62
7
 10
-1.91435098E+02
 20
1.40668323E+02
 11
-1.18445098E+02
 21
1.40668323E+02
  0
LINE
  8
0
 62
7
 10
-1.90435098E+02
 20
1.40668323E+02
 11
-1.90435098E+02
 21
1.40368323E+02
  0
LINE
  8
0
 62
7
 10
-1.26445098E+02
 20
1.40668323E+02
 11
-1.26445098E+02
 21
1.40368323E+02
  0
LINE
  8
0
 62
7
 10
-1.13445098E+02
 20
1.50668323E+02
 11
-2.08435098E+02
 21
1.50668323E+02
  0
LINE
  8
0
 62
7
 10
-1.91435098E+02
 20
1.50668323E+02
 11
-1.91435098E+02
 21
1.40668323E+02
  0
LINE
  8
0
 62
7
 10
-1.25445098E+02
 20
1.50668323E+02
 11
-1.25445098E+02
 21
1.40668323E+02
  0
LINE
  8
0
 62
7
 10
-1.73935098E+02
 20
1.79668323E+02
 11
-1.73935098E+02
 21
1.51668323E+02
  0
LINE
  8
0
 62
7
 10
-1.42935098E+02
 20
1.79668323E+02
 11
-1.42935098E+02
 21
1.51668323E+02
  0
LINE
  8
0
  6
CENTER
 62
2
 10
-1.33435098E+02
 20
1.73168323E+02
 11
-1.33435098E+02
 21
1.58168323E+02
  0
LINE
  8
0
  6
CENTER
 62
2
 10
-1.83435098E+02
 20
1.73168323E+02
 11
-1.83435098E+02
 21
1.58168323E+02
  0
LINE
  8
0
 62
4
 10
-1.43435098E+02
 20
1.79668323E+02
 11
-1.43435098E+02
 21
1.51668323E+02
  0
LINE
  8
0
 62
4
 10
-1.73435098E+02
 20
1.79668323E+02
 11
-1.73435098E+02
 21
1.51668323E+02
  0
LINE
  8
0
 62
7
 10
-2.81435098E+02
 20
1.25668323E+02
 11
-1.91435098E+02
 21
1.25668323E+02
  0
LINE
  8
0
 62
7
 10
-2.81435098E+02
 20
1.89168323E+02
 11
-2.81435098E+02
 21
1.11668323E+02
  0
LINE
  8
0
 62
7
 10
-2.81435098E+02
 20
1.89168323E+02
 11
-2.79935098E+02
 21
1.90668323E+02
  0
LINE
  8
0
 62
7
 10
-2.79935098E+02
 20
1.90668323E+02
 11
-1.92935098E+02
 21
1.90668323E+02
  0
LINE
  8
0
 62
7
 10
-2.80435098E+02
 20
1.40668323E+02
 11
-1.92435098E+02
 21
1.40668323E+02
  0
LINE
  8
0
 62
7
 10
-2.08435098E+02
 20
1.80668323E+02
 11
-1.13445098E+02
 21
1.80668323E+02
  0
LINE
  8
0
 62
7
 10
-2.07555098E+02
 20
1.80048323E+02
 11
-2.07555098E+02
 21
1.51278323E+02
  0
LINE
  8
0
 62
7
 10
-2.07555098E+02
 20
1.80048323E+02
 11
-2.02875098E+02
 21
1.80048323E+02
  0
LINE
  8
0
 62
7
 10
-2.07555098E+02
 20
1.51278323E+02
 11
-2.02875098E+02
 21
1.51278323E+02
  0
LINE
  8
0
 62
7
 10
-2.79935098E+02
 20
1.90668323E+02
 11
-2.79935098E+02
 21
1.40608323E+02
  0
LINE
  8
0
 62
7
 10
-1.91435098E+02
 20
1.89168323E+02
 11
-2.81435098E+02
 21
1.89168323E+02
  0
LINE
  8
0
 62
7
 10
-2.08435098E+02
 20
1.89168323E+02
 11
-2.08435098E+02
 21
1.80668323E+02
  0
LINE
  8
0
 62
7
 10
-2.08435098E+02
 20
1.50668323E+02
 11
-2.08435098E+02
 21
1.40668323E+02
  0
LINE
  8
0
 62
7
 10
-2.65315098E+02
 20
1.80048323E+02
 11
-2.65315098E+02
 21
1.51278323E+02
  0
LINE
  8
0
 62
7
 10
-2.64435098E+02
 20
1.80668323E+02
 11
-2.74435098E+02
 21
1.80668323E+02
  0
LINE
  8
0
 62
7
 10
-2.73555098E+02
 20
1.80048323E+02
 11
-2.73555098E+02
 21
1.51278323E+02
  0
LINE
  8
0
 62
7
 10
-2.74435098E+02
 20
1.80668323E+02
 11
-2.74435098E+02
 21
1.50668323E+02
  0
LINE
  8
0
 62
7
 10
-2.64435098E+02
 20
1.50668323E+02
 11
-2.74435098E+02
 21
1.50668323E+02
  0
LINE
  8
0
 62
7
 10
-2.65315098E+02
 20
1.51278323E+02
 11
-2.73555098E+02
 21
1.51278323E+02
  0
LINE
  8
0
 62
7
 10
-2.64435098E+02
 20
1.50668323E+02
 11
-2.64435098E+02
 21
1.40668323E+02
  0
LINE
  8
0
 62
7
 10
-2.65315098E+02
 20
1.80048323E+02
 11
-2.73555098E+02
 21
1.80048323E+02
  0
LINE
  8
0
 62
7
 10
-2.64435098E+02
 20
1.89168323E+02
 11
-2.64435098E+02
 21
1.80668323E+02
  0
LINE
  8
0
 62
7
 10
-2.73555098E+02
 20
1.80048323E+02
 11
-2.74435098E+02
 21
1.80668323E+02
  0
LINE
  8
0
 62
7
 10
-2.73555098E+02
 20
1.51278323E+02
 11
-2.74435098E+02
 21
1.50668323E+02
  0
LINE
  8
0
 62
7
 10
-2.65315098E+02
 20
1.80048323E+02
 11
-2.64435098E+02
 21
1.80668323E+02
  0
LINE
  8
0
 62
7
 10
-2.65315098E+02
 20
1.51278323E+02
 11
-2.64435098E+02
 21
1.50668323E+02
  0
LINE
  8
0
 62
7
 10
-2.80435098E+02
 20
1.33168323E+02
 11
-2.66935098E+02
 21
1.33168323E+02
  0
LINE
  8
0
 62
7
 10
-2.05935098E+02
 20
1.33168323E+02
 11
-1.92435098E+02
 21
1.33168323E+02
  0
LINE
  8
0
 62
7
 10
-2.06435098E+02
 20
1.39668323E+02
 11
-2.06435098E+02
 21
1.33668323E+02
  0
LINE
  8
0
  6
CENTER
 62
2
 10
-1.99435098E+02
 20
1.43668323E+02
 11
-1.99435098E+02
 21
1.30168323E+02
  0
LINE
  8
0
  6
CENTER
 62
2
 10
-2.73435098E+02
 20
1.43668323E+02
 11
-2.73435098E+02
 21
1.30168323E+02
  0
LINE
  8
0
  6
CENTER
 62
2
 10
-2.36435098E+02
 20
1.97808323E+02
 11
-2.36435098E+02
 21
-5.70716770E+01
  0
LINE
  8
0
 62
7
 10
-2.66435098E+02
 20
1.39668323E+02
 11
-2.66435098E+02
 21
1.33668323E+02
  0
LINE
  8
0
 62
7
 10
-2.63175098E+02
 20
1.90668323E+02
 11
-2.64435098E+02
 21
1.89168323E+02
  0
LINE
  8
0
 62
7
 10
-2.62015098E+02
 20
1.90668323E+02
 11
-2.63395098E+02
 21
1.89168323E+02
  0
LINE
  8
0
 62
7
 10
-2.62865098E+02
 20
1.40668323E+02
 11
-2.63395098E+02
 21
1.89168323E+02
  0
LINE
  8
0
 62
7
 10
-2.10005098E+02
 20
1.40668323E+02
 11
-2.09475098E+02
 21
1.89168323E+02
  0
LINE
  8
0
 62
7
 10
-2.10855098E+02
 20
1.90668323E+02
 11
-2.09475098E+02
 21
1.89168323E+02
  0
LINE
  8
0
 62
7
 10
-2.09695098E+02
 20
1.90668323E+02
 11
-2.08435098E+02
 21
1.89168323E+02
  0
LINE
  8
0
 62
7
 10
-2.76435098E+02
 20
1.91668323E+02
 11
-2.65445098E+02
 21
1.91668323E+02
  0
LINE
  8
0
 62
7
 10
-2.76435098E+02
 20
1.91668323E+02
 11
-2.76435098E+02
 21
1.90668323E+02
  0
LINE
  8
0
 62
7
 10
-2.65445098E+02
 20
1.91668323E+02
 11
-2.65445098E+02
 21
1.90668323E+02
  0
LINE
  8
0
 62
7
 10
-2.74405098E+02
 20
6.56683230E+01
 11
-1.98465098E+02
 21
6.56683230E+01
  0
LINE
  8
0
 62
7
 10
-2.80435098E+02
 20
1.10668323E+02
 11
-1.92435098E+02
 21
1.10668323E+02
  0
LINE
  8
0
 62
7
 10
-2.75465098E+02
 20
6.66683230E+01
 11
-2.76585098E+02
 21
1.09688323E+02
  0
LINE
  8
0
 62
7
 10
-2.75465098E+02
 20
6.66683230E+01
 11
-2.74405098E+02
 21
6.56683230E+01
  0
LINE
  8
0
 62
7
 10
-1.97405098E+02
 20
6.66683230E+01
 11
-1.98465098E+02
 21
6.56683230E+01
  0
LINE
  8
0
 62
7
 10
-2.75465098E+02
 20
6.66683230E+01
 11
-1.97405098E+02
 21
6.66683230E+01
  0
LINE
  8
0
 62
7
 10
-2.78435098E+02
 20
1.40068323E+02
 11
-2.78435098E+02
 21
1.34668323E+02
  0
LINE
  8
0
 62
7
 10
-2.68435098E+02
 20
1.40068323E+02
 11
-2.68435098E+02
 21
1.34668323E+02
  0
LINE
  8
0
 62
7
 10
-2.67335098E+02
 20
1.34668323E+02
 11
-2.79535098E+02
 21
1.34668323E+02
  0
LINE
  8
0
 62
7
 10
-2.67335098E+02
 20
1.34668323E+02
 11
-2.67335098E+02
 21
1.33168323E+02
  0
LINE
  8
0
 62
7
 10
-2.79535098E+02
 20
1.34668323E+02
 11
-2.79535098E+02
 21
1.33168323E+02
  0
LINE
  8
0
 62
7
 10
-2.78435098E+02
 20
1.40068323E+02
 11
-2.68435098E+02
 21
1.40068323E+02
  0
LINE
  8
0
 62
7
 10
-2.78435098E+02
 20
1.40068323E+02
 11
-2.77835098E+02
 21
1.40668323E+02
  0
LINE
  8
0
 62
7
 10
-2.68435098E+02
 20
1.40068323E+02
 11
-2.69035098E+02
 21
1.40668323E+02
  0
LINE
  8
0
 62
7
 10
-2.04435098E+02
 20
1.40068323E+02
 11
-2.04435098E+02
 21
1.34668323E+02
  0
LINE
  8
0
 62
7
 10
-1.93335098E+02
 20
1.34668323E+02
 11
-2.05535098E+02
 21
1.34668323E+02
  0
LINE
  8
0
 62
7
 10
-2.05535098E+02
 20
1.34668323E+02
 11
-2.05535098E+02
 21
1.33168323E+02
  0
LINE
  8
0
 62
7
 10
-2.04435098E+02
 20
1.40068323E+02
 11
-1.94435098E+02
 21
1.40068323E+02
  0
LINE
  8
0
 62
7
 10
-2.04435098E+02
 20
1.40068323E+02
 11
-2.03835098E+02
 21
1.40668323E+02
  0
LINE
  8
0
 62
7
 10
-2.07555098E+02
 20
1.80048323E+02
 11
-2.08435098E+02
 21
1.80668323E+02
  0
LINE
  8
0
 62
7
 10
-2.07555098E+02
 20
1.51278323E+02
 11
-2.08435098E+02
 21
1.50668323E+02
  0
LINE
  8
0
 62
7
 10
-1.92935098E+02
 20
1.90668323E+02
 11
-1.91435098E+02
 21
1.89168323E+02
  0
LINE
  8
0
 62
7
 10
-1.92935098E+02
 20
1.90668323E+02
 11
-1.92935098E+02
 21
1.80668323E+02
  0
LINE
  8
0
 62
7
 10
-1.97405098E+02
 20
6.66683230E+01
 11
-1.96285098E+02
 21
1.09688323E+02
  0
LINE
  8
0
 62
7
 10
-1.94435098E+02
 20
1.40068323E+02
 11
-1.94435098E+02
 21
1.34668323E+02
  0
LINE
  8
0
 62
7
 10
-1.93335098E+02
 20
1.34668323E+02
 11
-1.93335098E+02
 21
1.33168323E+02
  0
LINE
  8
0
 62
7
 10
-1.94435098E+02
 20
1.40068323E+02
 11
-1.95035098E+02
 21
1.40668323E+02
  0
LINE
  8
0
 62
7
 10
-1.92935098E+02
 20
1.50668323E+02
 11
-1.92935098E+02
 21
1.40668323E+02
  0
LINE
  8
0
  6
CENTER
 62
2
 10
-2.95715098E+02
 20
1.65668323E+02
 11
-9.41550977E+01
 21
1.65668323E+02
  0
LINE
  8
0
 62
7
 10
-2.08435098E+02
 20
1.99678323E+02
 11
-2.08435098E+02
 21
1.90668323E+02
  0
LINE
  8
0
 62
7
 10
-2.03695098E+02
 20
2.04668323E+02
 11
-1.91435098E+02
 21
2.04668323E+02
  0
LINE
  8
0
  6
CENTER
 62
2
 10
-2.03935098E+02
 20
1.95178323E+02
 11
-1.89435098E+02
 21
1.95178323E+02
  0
LINE
  8
0
  6
CENTER
 62
2
 10
-1.97435098E+02
 20
2.01678323E+02
 11
-1.97435098E+02
 21
1.88678323E+02
  0
LINE
  8
0
  6
CENTER
 62
2
 10
-1.95435098E+02
 20
2.01678323E+02
 11
-1.95435098E+02
 21
1.88678323E+02
  0
LINE
  8
0
  6
CENTER
 62
2
 10
-1.93435098E+02
 20
2.01678323E+02
 11
-1.93435098E+02
 21
1.88678323E+02
  0
LINE
  8
0
 62
7
 10
-1.97435098E+02
 20
1.99678323E+02
 11
-1.93435098E+02
 21
1.99678323E+02
  0
LINE
  8
0
 62
7
 10
-1.25445098E+02
 20
2.04668323E+02
 11
-1.13185098E+02
 21
2.04668323E+02
  0
LINE
  8
0
 62
7
 10
-1.08445098E+02
 20
1.99678323E+02
 11
-1.08445098E+02
 21
1.55668323E+02
  0
LINE
  8
0
  6
CENTER
 62
2
 10
-1.12945098E+02
 20
1.95178323E+02
 11
-1.27445098E+02
 21
1.95178323E+02
  0
LINE
  8
0
  6
CENTER
 62
2
 10
-1.19445098E+02
 20
2.01678323E+02
 11
-1.19445098E+02
 21
1.88678323E+02
  0
LINE
  8
0
  6
CENTER
 62
2
 10
-1.21445098E+02
 20
2.01678323E+02
 11
-1.21445098E+02
 21
1.88678323E+02
  0
LINE
  8
0
  6
CENTER
 62
2
 10
-1.23445098E+02
 20
2.01678323E+02
 11
-1.23445098E+02
 21
1.88678323E+02
  0
LINE
  8
0
 62
7
 10
-1.19445098E+02
 20
1.99678323E+02
 11
-1.23445098E+02
 21
1.99678323E+02
  0
LINE
  8
0
 62
7
 10
-1.97435098E+02
 20
1.90678323E+02
 11
-1.93435098E+02
 21
1.90678323E+02
  0
LINE
  8
0
 62
7
 10
-1.73935098E+02
 20
1.10368323E+02
 11
-1.73695098E+02
 21
9.96683230E+01
  0
LINE
  8
0
 62
7
 10
-1.69935098E+02
 20
1.03868323E+02
 11
-1.69935098E+02
 21
9.96683230E+01
  0
LINE
  8
0
 62
7
 10
-1.82435098E+02
 20
1.26368323E+02
 11
-1.82435098E+02
 21
1.10368323E+02
  0
LINE
  8
0
 62
7
 10
-1.34435098E+02
 20
1.26368323E+02
 11
-1.34435098E+02
 21
1.10368323E+02
  0
LINE
  8
0
 62
7
 10
-1.82435098E+02
 20
1.12368323E+02
 11
-1.34435098E+02
 21
1.12368323E+02
  0
LINE
  8
0
 62
7
 10
-1.34435098E+02
 20
1.10368323E+02
 11
-1.82435098E+02
 21
1.10368323E+02
  0
LINE
  8
0
 62
7
 10
-1.34435098E+02
 20
1.24368323E+02
 11
-1.82435098E+02
 21
1.24368323E+02
  0
LINE
  8
0
 62
7
 10
-1.43175098E+02
 20
9.96683230E+01
 11
-1.42935098E+02
 21
1.10368323E+02
  0
LINE
  8
0
 62
7
 10
-1.46935098E+02
 20
1.03868323E+02
 11
-1.46935098E+02
 21
9.96683230E+01
  0
LINE
  8
0
 62
7
 10
-1.46935098E+02
 20
1.03868323E+02
 11
-1.50435098E+02
 21
1.03868323E+02
  0
LINE
  8
0
 62
7
 10
-1.48435098E+02
 20
1.03868323E+02
 11
-1.48435098E+02
 21
9.96683230E+01
  0
LINE
  8
0
 62
7
 10
-1.50435098E+02
 20
1.03868323E+02
 11
-1.50435098E+02
 21
9.96683230E+01
  0
LINE
  8
0
 62
7
 10
-1.53935098E+02
 20
1.10368323E+02
 11
-1.53935098E+02
 21
9.96683230E+01
  0
LINE
  8
0
 62
7
 10
-1.62935098E+02
 20
1.10368323E+02
 11
-1.62935098E+02
 21
9.96683230E+01
  0
LINE
  8
0
 62
7
 10
-1.66435098E+02
 20
1.03868323E+02
 11
-1.66435098E+02
 21
9.96683230E+01
  0
LINE
  8
0
 62
7
 10
-1.66435098E+02
 20
1.03868323E+02
 11
-1.69935098E+02
 21
1.03868323E+02
  0
LINE
  8
0
 62
7
 10
-1.68435098E+02
 20
1.03868323E+02
 11
-1.68435098E+02
 21
9.96683230E+01
  0
LINE
  8
0
 62
7
 10
-1.36055098E+02
 20
1.10368323E+02
 11
-1.36525098E+02
 21
9.96683230E+01
  0
LINE
  8
0
 62
7
 10
-1.80815098E+02
 20
1.10368323E+02
 11
-1.80335098E+02
 21
9.96683230E+01
  0
LINE
  8
0
 62
4
 10
-1.50935098E+02
 20
1.65668323E+02
 11
-1.50935098E+02
 21
1.63668323E+02
  0
LINE
  8
0
 62
4
 10
-1.52935098E+02
 20
1.65668323E+02
 11
-1.52935098E+02
 21
1.63668323E+02
  0
LINE
  8
0
 62
4
 10
-1.52935098E+02
 20
1.63668323E+02
 11
-1.50935098E+02
 21
1.63668323E+02
  0
LINE
  8
0
 62
4
 10
-1.63935098E+02
 20
1.65668323E+02
 11
-1.63935098E+02
 21
1.63668323E+02
  0
LINE
  8
0
 62
4
 10
-1.63935098E+02
 20
1.63668323E+02
 11
-1.65935098E+02
 21
1.63668323E+02
  0
LINE
  8
0
 62
4
 10
-1.65935098E+02
 20
1.65668323E+02
 11
-1.65935098E+02
 21
1.63668323E+02
  0
ARC
  8
0
 62
7
 10
-1.89437928E+02
 20
2.04671153E+02
 40
1.99717211E+00
 50
8.99188149E+01
 51
1.80081185E+02
  0
ARC
  8
0
 62
7
 10
-1.27440122E+02
 20
2.04673299E+02
 40
1.99503027E+00
 50
3.59857095E+02
 51
9.01429050E+01
  0
ARC
  8
0
 62
7
 10
-1.27442948E+02
 20
1.28366173E+02
 40
1.99785101E+00
 50
2.69938337E+02
 51
6.16633841E-02
  0
ARC
  8
0
 62
7
 10
-1.89435105E+02
 20
1.28368316E+02
 40
1.99999287E+00
 50
1.79999796E+02
 51
2.70000000E+02
  0
ARC
  8
0
 62
7
 10
-1.89435105E+02
 20
1.35368316E+02
 40
1.99999287E+00
 50
1.79999796E+02
 51
2.70000000E+02
  0
ARC
  8
0
 62
7
 10
-1.79435105E+02
 20
1.28368316E+02
 40
1.99999287E+00
 50
1.79999796E+02
 51
2.70000000E+02
  0
ARC
  8
0
 62
7
 10
-1.89437928E+02
 20
1.97671153E+02
 40
1.99717211E+00
 50
8.99188149E+01
 51
1.80081185E+02
  0
ARC
  8
0
 62
7
 10
-1.79437928E+02
 20
2.04671153E+02
 40
1.99717211E+00
 50
8.99188149E+01
 51
1.80081185E+02
  0
ARC
  8
0
 62
7
 10
-1.37437941E+02
 20
1.28371167E+02
 40
2.00284565E+00
 50
2.70081348E+02
 51
3.59918652E+02
  0
ARC
  8
0
 62
7
 10
-1.27442948E+02
 20
1.35366173E+02
 40
1.99785101E+00
 50
2.69938337E+02
 51
6.16633841E-02
  0
ARC
  8
0
 62
7
 10
-1.27440122E+02
 20
1.97673299E+02
 40
1.99503027E+00
 50
3.59857095E+02
 51
9.01429050E+01
  0
ARC
  8
0
 62
7
 10
-1.37435123E+02
 20
2.04668298E+02
 40
2.00002489E+00
 50
7.13044607E-04
 51
9.00000002E+01
  0
ARC
  8
0
 62
7
 10
-2.01437935E+02
 20
1.78671161E+02
 40
1.99716449E+00
 50
8.99185955E+01
 51
1.80081404E+02
  0
ARC
  8
0
 62
7
 10
-2.01435088E+02
 20
1.52668333E+02
 40
2.00000965E+00
 50
1.80000277E+02
 51
2.70000000E+02
  0
ARC
  8
0
 62
7
 10
-1.15442960E+02
 20
1.52666186E+02
 40
1.99786398E+00
 50
2.69938710E+02
 51
6.12906412E-02
  0
ARC
  8
0
 62
7
 10
-1.15440110E+02
 20
1.78673310E+02
 40
1.99501883E+00
 50
3.59856765E+02
 51
9.01432356E+01
  0
ARC
  8
0
 62
7
 10
-1.74935125E+02
 20
1.79668296E+02
 40
1.00002689E+00
 50
1.54077687E-03
 51
9.00000002E+01
  0
ARC
  8
0
 62
7
 10
-1.74937943E+02
 20
1.51671168E+02
 40
1.00284919E+00
 50
2.70162552E+02
 51
3.59837447E+02
  0
ARC
  8
0
 62
7
 10
-1.41937924E+02
 20
1.79671149E+02
 40
9.97177925E-01
 50
8.98376188E+01
 51
1.80162381E+02
  0
ARC
  8
0
 62
7
 10
-1.41935097E+02
 20
1.51668323E+02
 40
1.00000022E+00
 50
1.80000013E+02
 51
2.70000000E+02
  0
CIRCLE
  8
0
 62
7
 10
-1.33437950E+02
 20
1.65671145E+02
 40
5.50000000E+00
  0
CIRCLE
  8
0
 62
7
 10
-1.83437950E+02
 20
1.65671145E+02
 40
5.50000000E+00
  0
ARC
  8
0
 62
4
 10
-1.72437928E+02
 20
1.79671153E+02
 40
9.97174121E-01
 50
8.98373993E+01
 51
1.80162601E+02
  0
ARC
  8
0
 62
4
 10
-1.72435101E+02
 20
1.51668319E+02
 40
9.99996418E-01
 50
1.79999795E+02
 51
2.70000000E+02
  0
ARC
  8
0
 62
4
 10
-1.44437939E+02
 20
1.51671164E+02
 40
1.00284536E+00
 50
2.70162335E+02
 51
3.59837665E+02
  0
ARC
  8
0
 62
4
 10
-1.44435121E+02
 20
1.79668300E+02
 40
1.00002307E+00
 50
1.32160366E-03
 51
9.00000002E+01
  0
ARC
  8
0
 62
7
 10
-2.66937950E+02
 20
1.33671176E+02
 40
5.02860876E-01
 50
2.70325047E+02
 51
3.59674953E+02
  0
ARC
  8
0
 62
7
 10
-2.05935074E+02
 20
1.33668347E+02
 40
5.00023485E-01
 50
1.80002691E+02
 51
2.70000000E+02
  0
ARC
  8
0
 62
7
 10
-2.65437950E+02
 20
1.39671176E+02
 40
9.97151298E-01
 50
8.98360804E+01
 51
1.80163920E+02
  0
ARC
  8
0
 62
7
 10
-2.07435117E+02
 20
1.39668304E+02
 40
1.00001937E+00
 50
1.10989162E-03
 51
9.00000002E+01
  0
ARC
  8
0
 62
7
 10
-2.80437935E+02
 20
1.32171161E+02
 40
9.97166513E-01
 50
8.98369599E+01
 51
1.80163040E+02
  0
ARC
  8
0
 62
7
 10
-2.80437935E+02
 20
1.39671161E+02
 40
9.97166513E-01
 50
8.98369599E+01
 51
1.80163040E+02
  0
ARC
  8
0
 62
7
 10
-2.80435078E+02
 20
1.11668342E+02
 40
1.00001928E+00
 50
1.80001105E+02
 51
2.70000000E+02
  0
ARC
  8
0
 62
7
 10
-2.77586050E+02
 20
1.09666877E+02
 40
1.00144641E+00
 50
1.79941398E+00
 51
9.00000002E+01
  0
ARC
  8
0
 62
7
 10
-1.92435117E+02
 20
1.32168304E+02
 40
1.00001937E+00
 50
1.10989162E-03
 51
9.00000002E+01
  0
ARC
  8
0
 62
7
 10
-1.92435117E+02
 20
1.39668304E+02
 40
1.00001937E+00
 50
1.10989162E-03
 51
9.00000002E+01
  0
ARC
  8
0
 62
7
 10
-1.92437943E+02
 20
1.11671168E+02
 40
1.00284919E+00
 50
2.70162552E+02
 51
3.59837447E+02
  0
ARC
  8
0
 62
7
 10
-1.95286912E+02
 20
1.09669730E+02
 40
9.98595153E-01
 50
8.98959018E+01
 51
1.78359184E+02
  0
ARC
  8
0
 62
7
 10
-1.18440113E+02
 20
1.85673307E+02
 40
4.99501821E+00
 50
3.59942828E+02
 51
9.00571728E+01
  0
ARC
  8
0
 62
7
 10
-1.18442938E+02
 20
1.45666163E+02
 40
4.99784048E+00
 50
2.69975238E+02
 51
2.47623673E-02
  0
ARC
  8
0
 62
7
 10
-2.03436361E+02
 20
1.99679586E+02
 40
4.99873729E+00
 50
8.99855250E+01
 51
1.80014475E+02
  0
ARC
  8
0
 62
7
 10
-1.97435098E+02
 20
1.95178323E+02
 40
4.50000090E+00
 50
9.00000002E+01
 51
2.70000000E+02
  0
ARC
  8
0
 62
7
 10
-1.93418179E+02
 20
1.95182590E+02
 40
4.50429837E+00
 50
2.69784790E+02
 51
2.96120739E+02
  0
ARC
  8
0
 62
7
 10
-1.93437476E+02
 20
1.95177885E+02
 40
4.50043878E+00
 50
6.35811718E+01
 51
8.99697257E+01
  0
ARC
  8
0
 62
7
 10
-1.13441689E+02
 20
1.99681732E+02
 40
4.99659222E+00
 50
3.59960910E+02
 51
9.00390902E+01
  0
ARC
  8
0
 62
7
 10
-1.19445098E+02
 20
1.95178323E+02
 40
4.50000569E+00
 50
2.70000000E+02
 51
9.00000002E+01
  0
ARC
  8
0
 62
7
 10
-1.23442494E+02
 20
1.95176926E+02
 40
4.50139754E+00
 50
9.00331355E+01
 51
1.16415967E+02
  0
ARC
  8
0
 62
7
 10
-1.23461796E+02
 20
1.95183547E+02
 40
4.50525536E+00
 50
2.43882108E+02
 51
2.70212363E+02
  0
ARC
  8
0
 62
7
 10
-1.13442938E+02
 20
1.55666163E+02
 40
4.99784048E+00
 50
2.69975238E+02
 51
2.47623673E-02
  0
ARC
  8
0
 62
7
 10
-1.13440113E+02
 20
1.75673307E+02
 40
4.99501821E+00
 50
3.59942828E+02
 51
9.00571728E+01
  0
CIRCLE
  8
0
 62
4
 10
-1.58437950E+02
 20
1.65671145E+02
 40
1.40000000E+01
  0
CIRCLE
  8
0
 62
4
 10
-1.58437950E+02
 20
1.65671145E+02
 40
1.25000000E+01
  0
ARC
  8
0
 62
4
 10
-1.58435098E+02
 20
1.65668323E+02
 40
7.50000053E+00
 50
0.00000000E+00
 51
1.80000000E+02
  0
ARC
  8
0
 62
4
 10
-1.58435098E+02
 20
1.65668323E+02
 40
5.50000072E+00
 50
0.00000000E+00
 51
1.80000000E+02
  0
LINE
  8
0
 62
7
 10
-2.54845098E+02
 20
-3.35216770E+01
 11
-2.18015098E+02
 21
-3.35216770E+01
  0
LINE
  8
0
 62
7
 10
-2.56395098E+02
 20
-1.60216770E+01
 11
-2.63295098E+02
 21
-1.60216770E+01
  0
LINE
  8
0
 62
7
 10
-2.56395098E+02
 20
1.99683230E+01
 11
-2.63295098E+02
 21
1.99683230E+01
  0
LINE
  8
0
 62
7
 10
-2.56395098E+02
 20
2.59683230E+01
 11
-2.63295098E+02
 21
2.59683230E+01
  0
LINE
  8
0
 62
7
 10
-2.63295098E+02
 20
5.99683230E+01
 11
-2.56395098E+02
 21
5.99683230E+01
  0
LINE
  8
0
 62
7
 10
-2.03015098E+02
 20
-1.86516770E+01
 11
-2.02285098E+02
 21
6.56683230E+01
  0
LINE
  8
0
 62
7
 10
-2.69845098E+02
 20
-1.86516770E+01
 11
-2.70325098E+02
 21
3.57683230E+01
  0
LINE
  8
0
 62
7
 10
-2.61465098E+02
 20
5.94683230E+01
 11
-2.56395098E+02
 21
5.94683230E+01
  0
LINE
  8
0
 62
7
 10
-2.56395098E+02
 20
1.94683230E+01
 11
-2.61465098E+02
 21
1.94683230E+01
  0
LINE
  8
0
 62
7
 10
-2.56395098E+02
 20
2.64683230E+01
 11
-2.61465098E+02
 21
2.64683230E+01
  0
LINE
  8
0
 62
7
 10
-2.56395098E+02
 20
-1.55216770E+01
 11
-2.61465098E+02
 21
-1.55216770E+01
  0
LINE
  8
0
 62
7
 10
-2.64295098E+02
 20
1.89683230E+01
 11
-2.64295098E+02
 21
-1.50216770E+01
  0
LINE
  8
0
 62
7
 10
-2.62465098E+02
 20
1.84683230E+01
 11
-2.62465098E+02
 21
-1.45216770E+01
  0
LINE
  8
0
 62
7
 10
-2.55395098E+02
 20
1.89683230E+01
 11
-2.55395098E+02
 21
-1.50216770E+01
  0
LINE
  8
0
 62
7
 10
-2.56005098E+02
 20
-1.65216770E+01
 11
-2.63555098E+02
 21
-1.65216770E+01
  0
LINE
  8
0
 62
7
 10
-2.56005098E+02
 20
-1.70216770E+01
 11
-2.64155098E+02
 21
-1.70216770E+01
  0
LINE
  8
0
 62
7
 10
-2.63555098E+02
 20
6.04683230E+01
 11
-2.56005098E+02
 21
6.04683230E+01
  0
LINE
  8
0
 62
7
 10
-2.64155098E+02
 20
6.09683230E+01
 11
-2.56005098E+02
 21
6.09683230E+01
  0
LINE
  8
0
 62
7
 10
-2.55005098E+02
 20
5.99683230E+01
 11
-2.55005098E+02
 21
-1.60216770E+01
  0
LINE
  8
0
 62
7
 10
-2.55395098E+02
 20
5.89683230E+01
 11
-2.55395098E+02
 21
2.69683230E+01
  0
LINE
  8
0
 62
7
 10
-2.62465098E+02
 20
5.84683230E+01
 11
-2.62465098E+02
 21
2.74683230E+01
  0
LINE
  8
0
 62
7
 10
-2.64295098E+02
 20
5.89683230E+01
 11
-2.64295098E+02
 21
2.69683230E+01
  0
LINE
  8
0
 62
7
 10
-2.64555098E+02
 20
5.94683230E+01
 11
-2.64555098E+02
 21
-1.55216770E+01
  0
LINE
  8
0
 62
7
 10
-2.65155098E+02
 20
5.99683230E+01
 11
-2.65155098E+02
 21
-1.60216770E+01
  0
LINE
  8
0
 62
7
 10
-2.16475098E+02
 20
-1.60216770E+01
 11
-2.09575098E+02
 21
-1.60216770E+01
  0
LINE
  8
0
 62
7
 10
-2.16475098E+02
 20
1.99683230E+01
 11
-2.09575098E+02
 21
1.99683230E+01
  0
LINE
  8
0
 62
7
 10
-2.16475098E+02
 20
2.59683230E+01
 11
-2.09575098E+02
 21
2.59683230E+01
  0
LINE
  8
0
 62
7
 10
-2.09575098E+02
 20
5.99683230E+01
 11
-2.16475098E+02
 21
5.99683230E+01
  0
LINE
  8
0
 62
7
 10
-2.11405098E+02
 20
5.94683230E+01
 11
-2.16475098E+02
 21
5.94683230E+01
  0
LINE
  8
0
 62
7
 10
-2.16475098E+02
 20
1.94683230E+01
 11
-2.11405098E+02
 21
1.94683230E+01
  0
LINE
  8
0
 62
7
 10
-2.16475098E+02
 20
2.64683230E+01
 11
-2.11405098E+02
 21
2.64683230E+01
  0
LINE
  8
0
 62
7
 10
-2.16475098E+02
 20
-1.55216770E+01
 11
-2.11405098E+02
 21
-1.55216770E+01
  0
LINE
  8
0
 62
7
 10
-2.08575098E+02
 20
1.89683230E+01
 11
-2.08575098E+02
 21
-1.50216770E+01
  0
LINE
  8
0
 62
7
 10
-2.10405098E+02
 20
1.84683230E+01
 11
-2.10405098E+02
 21
-1.45216770E+01
  0
LINE
  8
0
 62
7
 10
-2.17475098E+02
 20
1.89683230E+01
 11
-2.17475098E+02
 21
-1.50216770E+01
  0
LINE
  8
0
 62
7
 10
-2.16855098E+02
 20
-1.65216770E+01
 11
-2.09315098E+02
 21
-1.65216770E+01
  0
LINE
  8
0
 62
7
 10
-2.16855098E+02
 20
-1.70216770E+01
 11
-2.08715098E+02
 21
-1.70216770E+01
  0
LINE
  8
0
 62
7
 10
-2.09315098E+02
 20
6.04683230E+01
 11
-2.16855098E+02
 21
6.04683230E+01
  0
LINE
  8
0
 62
7
 10
-2.08715098E+02
 20
6.09683230E+01
 11
-2.16855098E+02
 21
6.09683230E+01
  0
LINE
  8
0
 62
7
 10
-2.17855098E+02
 20
5.99683230E+01
 11
-2.17855098E+02
 21
-1.60216770E+01
  0
LINE
  8
0
 62
7
 10
-2.17475098E+02
 20
5.89683230E+01
 11
-2.17475098E+02
 21
2.69683230E+01
  0
LINE
  8
0
 62
7
 10
-2.10405098E+02
 20
5.84683230E+01
 11
-2.10405098E+02
 21
2.74683230E+01
  0
LINE
  8
0
 62
7
 10
-2.08575098E+02
 20
5.89683230E+01
 11
-2.08575098E+02
 21
2.69683230E+01
  0
LINE
  8
0
 62
7
 10
-2.08315098E+02
 20
5.94683230E+01
 11
-2.08315098E+02
 21
-1.55216770E+01
  0
LINE
  8
0
 62
7
 10
-2.07715098E+02
 20
5.99683230E+01
 11
-2.07715098E+02
 21
-1.60216770E+01
  0
LINE
  8
0
 62
7
 10
-2.70325098E+02
 20
3.57683230E+01
 11
-2.73105098E+02
 21
3.97483230E+01
  0
LINE
  8
0
 62
7
 10
-2.73165098E+02
 20
3.99183230E+01
 11
-2.73245098E+02
 21
4.92683230E+01
  0
LINE
  8
0
 62
7
 10
-2.70475098E+02
 20
5.35883230E+01
 11
-2.73245098E+02
 21
4.92683230E+01
  0
LINE
  8
0
 62
7
 10
-2.70475098E+02
 20
5.35883230E+01
 11
-2.70585098E+02
 21
6.56683230E+01
  0
LINE
  8
0
 62
7
 10
-2.73835098E+02
 20
6.31483230E+01
 11
-2.73295098E+02
 21
4.11483230E+01
  0
LINE
  8
0
 62
7
 10
-2.73355098E+02
 20
6.36583230E+01
 11
-2.72275098E+02
 21
6.36883230E+01
  0
LINE
  8
0
 62
7
 10
-2.73295098E+02
 20
4.11483230E+01
 11
-2.73175098E+02
 21
4.10283230E+01
  0
LINE
  8
0
 62
7
 10
-2.73835098E+02
 20
6.31483230E+01
 11
-2.73355098E+02
 21
6.36583230E+01
  0
LINE
  8
0
 62
7
 10
-2.72895098E+02
 20
6.56683230E+01
 11
-2.72855098E+02
 21
6.36683230E+01
  0
LINE
  8
0
 62
7
 10
-2.72325098E+02
 20
6.56683230E+01
 11
-2.72275098E+02
 21
6.36883230E+01
  0
LINE
  8
0
 62
7
 10
-2.73355098E+02
 20
6.36583230E+01
 11
-2.73005098E+02
 21
4.96383230E+01
  0
LINE
  8
0
 62
4
 10
-2.44005098E+02
 20
-3.50216770E+01
 11
-2.28855098E+02
 21
-3.50216770E+01
  0
LINE
  8
0
 62
4
 10
-2.44505098E+02
 20
-3.45216770E+01
 11
-2.44505098E+02
 21
-3.35216770E+01
  0
LINE
  8
0
 62
4
 10
-2.28355098E+02
 20
-3.45216770E+01
 11
-2.28355098E+02
 21
-3.35216770E+01
  0
LINE
  8
0
 62
4
 10
-2.28855098E+02
 20
-3.50216770E+01
 11
-2.28355098E+02
 21
-3.45216770E+01
  0
LINE
  8
0
 62
4
 10
-2.44005098E+02
 20
-3.50216770E+01
 11
-2.44505098E+02
 21
-3.45216770E+01
  0
LINE
  8
0
 62
4
 10
-2.29685098E+02
 20
-4.98216770E+01
 11
-2.43185098E+02
 21
-4.98216770E+01
  0
LINE
  8
0
 62
4
 10
-2.28685098E+02
 20
-3.68216770E+01
 11
-2.28685098E+02
 21
-4.88216770E+01
  0
LINE
  8
0
 62
4
 10
-2.44185098E+02
 20
-3.68216770E+01
 11
-2.44185098E+02
 21
-4.88216770E+01
  0
LINE
  8
0
 62
4
 10
-2.28685098E+02
 20
-4.88216770E+01
 11
-2.29685098E+02
 21
-4.98216770E+01
  0
LINE
  8
0
 62
4
 10
-2.43185098E+02
 20
-4.98216770E+01
 11
-2.44185098E+02
 21
-4.88216770E+01
  0
LINE
  8
0
 62
4
 10
-2.29185098E+02
 20
-3.63216770E+01
 11
-2.43685098E+02
 21
-3.63216770E+01
  0
LINE
  8
0
 62
4
 10
-2.29185098E+02
 20
-3.63216770E+01
 11
-2.28685098E+02
 21
-3.68216770E+01
  0
LINE
  8
0
 62
4
 10
-2.43685098E+02
 20
-3.63216770E+01
 11
-2.44185098E+02
 21
-3.68216770E+01
  0
LINE
  8
0
 62
4
 10
-2.30435098E+02
 20
-3.50216770E+01
 11
-2.30435098E+02
 21
-3.63216770E+01
  0
LINE
  8
0
 62
4
 10
-2.42435098E+02
 20
-3.50216770E+01
 11
-2.42435098E+02
 21
-3.63216770E+01
  0
LINE
  8
0
 62
6
 10
-2.41685098E+02
 20
-3.50216770E+01
 11
-2.41685098E+02
 21
-3.63216770E+01
  0
LINE
  8
0
 62
6
 10
-2.31185098E+02
 20
-3.50216770E+01
 11
-2.31185098E+02
 21
-3.63216770E+01
  0
LINE
  8
0
 62
4
 10
-2.37935098E+02
 20
-3.93216770E+01
 11
-2.37935098E+02
 21
-4.88216770E+01
  0
LINE
  8
0
 62
4
 10
-2.34935098E+02
 20
-3.93216770E+01
 11
-2.34935098E+02
 21
-4.88216770E+01
  0
LINE
  8
0
 62
4
 10
-2.34595098E+02
 20
-3.96016770E+01
 11
-2.34595098E+02
 21
-4.93216770E+01
  0
LINE
  8
0
 62
4
 10
-2.38275098E+02
 20
-3.96016770E+01
 11
-2.38275098E+02
 21
-4.93216770E+01
  0
LINE
  8
0
 62
4
 10
-2.40095098E+02
 20
-3.96016770E+01
 11
-2.40095098E+02
 21
-4.93216770E+01
  0
LINE
  8
0
 62
4
 10
-2.40745098E+02
 20
-3.93216770E+01
 11
-2.40745098E+02
 21
-4.88216770E+01
  0
LINE
  8
0
 62
4
 10
-2.42875098E+02
 20
-3.93216770E+01
 11
-2.42875098E+02
 21
-4.88216770E+01
  0
LINE
  8
0
 62
4
 10
-2.43445098E+02
 20
-3.96016770E+01
 11
-2.43445098E+02
 21
-4.93216770E+01
  0
LINE
  8
0
 62
4
 10
-2.44035098E+02
 20
-3.93216770E+01
 11
-2.44035098E+02
 21
-4.88216770E+01
  0
LINE
  8
0
 62
4
 10
-2.32775098E+02
 20
-3.96016770E+01
 11
-2.32775098E+02
 21
-4.93216770E+01
  0
LINE
  8
0
 62
4
 10
-2.32115098E+02
 20
-3.93216770E+01
 11
-2.32115098E+02
 21
-4.88216770E+01
  0
LINE
  8
0
 62
4
 10
-2.29995098E+02
 20
-3.93216770E+01
 11
-2.29995098E+02
 21
-4.88216770E+01
  0
LINE
  8
0
 62
4
 10
-2.29425098E+02
 20
-3.96016770E+01
 11
-2.29425098E+02
 21
-4.93216770E+01
  0
LINE
  8
0
 62
4
 10
-2.28825098E+02
 20
-3.93216770E+01
 11
-2.28825098E+02
 21
-4.88216770E+01
  0
LINE
  8
0
 62
4
 10
-2.28825098E+02
 20
-3.93216770E+01
 11
-2.29995098E+02
 21
-3.93216770E+01
  0
LINE
  8
0
 62
4
 10
-2.29425098E+02
 20
-3.96016770E+01
 11
-2.29995098E+02
 21
-3.96016770E+01
  0
LINE
  8
0
 62
4
 10
-2.28685098E+02
 20
-4.88216770E+01
 11
-2.28825098E+02
 21
-4.88216770E+01
  0
LINE
  8
0
 62
4
 10
-2.37935098E+02
 20
-3.93216770E+01
 11
-2.40745098E+02
 21
-3.93216770E+01
  0
LINE
  8
0
 62
4
 10
-2.38275098E+02
 20
-3.96016770E+01
 11
-2.40095098E+02
 21
-3.96016770E+01
  0
LINE
  8
0
 62
4
 10
-2.32115098E+02
 20
-3.93216770E+01
 11
-2.34935098E+02
 21
-3.93216770E+01
  0
LINE
  8
0
 62
4
 10
-2.32775098E+02
 20
-3.96016770E+01
 11
-2.34595098E+02
 21
-3.96016770E+01
  0
LINE
  8
0
 62
4
 10
-2.42875098E+02
 20
-3.93216770E+01
 11
-2.44035098E+02
 21
-3.93216770E+01
  0
LINE
  8
0
 62
4
 10
-2.42875098E+02
 20
-3.96016770E+01
 11
-2.43445098E+02
 21
-3.96016770E+01
  0
LINE
  8
0
 62
4
 10
-2.34935098E+02
 20
-4.88216770E+01
 11
-2.37935098E+02
 21
-4.88216770E+01
  0
LINE
  8
0
 62
4
 10
-2.40745098E+02
 20
-4.88216770E+01
 11
-2.42875098E+02
 21
-4.88216770E+01
  0
LINE
  8
0
 62
4
 10
-2.44035098E+02
 20
-4.88216770E+01
 11
-2.44185098E+02
 21
-4.88216770E+01
  0
LINE
  8
0
 62
4
 10
-2.29995098E+02
 20
-4.88216770E+01
 11
-2.32115098E+02
 21
-4.88216770E+01
  0
LINE
  8
0
 62
4
 10
-2.32775098E+02
 20
-4.93216770E+01
 11
-2.34595098E+02
 21
-4.93216770E+01
  0
LINE
  8
0
 62
4
 10
-2.29425098E+02
 20
-4.93216770E+01
 11
-2.28825098E+02
 21
-4.88216770E+01
  0
LINE
  8
0
 62
4
 10
-2.32775098E+02
 20
-4.93216770E+01
 11
-2.32115098E+02
 21
-4.88216770E+01
  0
LINE
  8
0
 62
4
 10
-2.34595098E+02
 20
-4.93216770E+01
 11
-2.34935098E+02
 21
-4.88216770E+01
  0
LINE
  8
0
 62
4
 10
-2.37935098E+02
 20
-4.88216770E+01
 11
-2.38275098E+02
 21
-4.93216770E+01
  0
LINE
  8
0
 62
4
 10
-2.40095098E+02
 20
-4.93216770E+01
 11
-2.40745098E+02
 21
-4.88216770E+01
  0
LINE
  8
0
 62
4
 10
-2.43445098E+02
 20
-4.93216770E+01
 11
-2.44035098E+02
 21
-4.88216770E+01
  0
LINE
  8
0
 62
4
 10
-2.43445098E+02
 20
-3.96016770E+01
 11
-2.44035098E+02
 21
-3.93216770E+01
  0
LINE
  8
0
 62
4
 10
-2.40095098E+02
 20
-3.96016770E+01
 11
-2.40745098E+02
 21
-3.93216770E+01
  0
LINE
  8
0
 62
4
 10
-2.38275098E+02
 20
-3.96016770E+01
 11
-2.37935098E+02
 21
-3.93216770E+01
  0
LINE
  8
0
 62
4
 10
-2.34595098E+02
 20
-3.96016770E+01
 11
-2.34935098E+02
 21
-3.93216770E+01
  0
LINE
  8
0
 62
4
 10
-2.32775098E+02
 20
-3.96016770E+01
 11
-2.32115098E+02
 21
-3.93216770E+01
  0
LINE
  8
0
 62
4
 10
-2.29425098E+02
 20
-3.96016770E+01
 11
-2.28825098E+02
 21
-3.93216770E+01
  0
LINE
  8
0
 62
4
 10
-2.29995098E+02
 20
-4.88216770E+01
 11
-2.30175098E+02
 21
-4.93216770E+01
  0
LINE
  8
0
 62
4
 10
-2.42875098E+02
 20
-4.88216770E+01
 11
-2.42695098E+02
 21
-4.93216770E+01
  0
LINE
  8
0
 62
4
 10
-2.38275098E+02
 20
-4.93216770E+01
 11
-2.40095098E+02
 21
-4.93216770E+01
  0
LINE
  8
0
 62
4
 10
-2.29425098E+02
 20
-4.93216770E+01
 11
-2.30175098E+02
 21
-4.93216770E+01
  0
LINE
  8
0
 62
4
 10
-2.42695098E+02
 20
-4.93216770E+01
 11
-2.43445098E+02
 21
-4.93216770E+01
  0
LINE
  8
0
 62
4
 10
-2.28685098E+02
 20
-3.68216770E+01
 11
-2.44185098E+02
 21
-3.68216770E+01
  0
LINE
  8
0
 62
4
 10
-2.44505098E+02
 20
-3.45216770E+01
 11
-2.28355098E+02
 21
-3.45216770E+01
  0
ARC
  8
0
 62
7
 10
-2.54853183E+02
 20
-1.85292645E+01
 40
1.49924146E+01
 50
1.80467823E+02
 51
2.70030898E+02
  0
ARC
  8
0
 62
7
 10
-2.18014776E+02
 20
-1.85214331E+01
 40
1.50002439E+01
 50
2.70000000E+02
 51
3.59502507E+02
  0
ARC
  8
0
 62
7
 10
-2.61467051E+02
 20
1.84702760E+01
 40
9.98048902E-01
 50
8.98878821E+01
 51
1.80112118E+02
  0
ARC
  8
0
 62
7
 10
-2.56393643E+02
 20
1.84697774E+01
 40
9.98546678E-01
 50
3.59916549E+02
 51
9.00834515E+01
  0
ARC
  8
0
 62
7
 10
-2.56393643E+02
 20
1.89697774E+01
 40
9.98546678E-01
 50
3.59916549E+02
 51
9.00834515E+01
  0
ARC
  8
0
 62
7
 10
-2.56391527E+02
 20
-1.45252474E+01
 40
9.96435992E-01
 50
2.69794699E+02
 51
2.05301279E-01
  0
ARC
  8
0
 62
7
 10
-2.56391527E+02
 20
-1.50252474E+01
 40
9.96435992E-01
 50
2.69794699E+02
 51
2.05301279E-01
  0
ARC
  8
0
 62
7
 10
-2.56004794E+02
 20
-1.55219802E+01
 40
9.99696848E-01
 50
2.70000000E+02
 51
1.73772274E-02
  0
ARC
  8
0
 62
7
 10
-2.56004794E+02
 20
-1.60219802E+01
 40
9.99696848E-01
 50
2.70000000E+02
 51
1.73772274E-02
  0
ARC
  8
0
 62
7
 10
-2.61469168E+02
 20
-1.45257471E+01
 40
9.95938227E-01
 50
1.79765849E+02
 51
2.70234151E+02
  0
ARC
  8
0
 62
7
 10
-2.63299180E+02
 20
1.89724052E+01
 40
9.95926154E-01
 50
8.97651488E+01
 51
1.80234851E+02
  0
ARC
  8
0
 62
7
 10
-2.63301301E+02
 20
-1.50278808E+01
 40
9.93815553E-01
 50
1.79642334E+02
 51
2.70357667E+02
  0
ARC
  8
0
 62
7
 10
-2.63559854E+02
 20
-1.55264337E+01
 40
9.95254617E-01
 50
1.79726157E+02
 51
2.70273842E+02
  0
ARC
  8
0
 62
7
 10
-2.64158511E+02
 20
-1.60250899E+01
 40
9.96592866E-01
 50
1.79803782E+02
 51
2.70196218E+02
  0
ARC
  8
0
 62
7
 10
-2.56393643E+02
 20
5.84697774E+01
 40
9.98546678E-01
 50
3.59916549E+02
 51
9.00834515E+01
  0
ARC
  8
0
 62
7
 10
-2.56393643E+02
 20
5.89697774E+01
 40
9.98546678E-01
 50
3.59916549E+02
 51
9.00834515E+01
  0
ARC
  8
0
 62
7
 10
-2.56006904E+02
 20
5.94665171E+01
 40
1.00180756E+00
 50
1.03285552E-01
 51
8.98967142E+01
  0
ARC
  8
0
 62
7
 10
-2.56006904E+02
 20
5.99665171E+01
 40
1.00180756E+00
 50
1.03285552E-01
 51
8.98967142E+01
  0
ARC
  8
0
 62
7
 10
-2.61467051E+02
 20
5.84702760E+01
 40
9.98048902E-01
 50
8.98878821E+01
 51
1.80112118E+02
  0
ARC
  8
0
 62
7
 10
-2.63299180E+02
 20
5.89724052E+01
 40
9.95926154E-01
 50
8.97651488E+01
 51
1.80234851E+02
  0
ARC
  8
0
 62
7
 10
-2.63557736E+02
 20
5.94709612E+01
 40
9.97365272E-01
 50
8.98484420E+01
 51
1.80151558E+02
  0
ARC
  8
0
 62
7
 10
-2.64156395E+02
 20
5.99696203E+01
 40
9.98703556E-01
 50
8.99255747E+01
 51
1.80074425E+02
  0
ARC
  8
0
 62
7
 10
-2.56396514E+02
 20
2.74697398E+01
 40
1.00141777E+00
 50
2.70081060E+02
 51
3.59918940E+02
  0
ARC
  8
0
 62
7
 10
-2.56396514E+02
 20
2.69697398E+01
 40
1.00141777E+00
 50
2.70081060E+02
 51
3.59918940E+02
  0
ARC
  8
0
 62
7
 10
-2.61464178E+02
 20
2.74692426E+01
 40
1.00091999E+00
 50
1.80052639E+02
 51
2.70000000E+02
  0
ARC
  8
0
 62
7
 10
-2.63296301E+02
 20
2.69671195E+01
 40
9.98797207E-01
 50
1.79930961E+02
 51
2.70069040E+02
  0
ARC
  8
0
 62
7
 10
-2.11405973E+02
 20
1.84674472E+01
 40
1.00087621E+00
 50
5.01373820E-02
 51
9.00000002E+01
  0
ARC
  8
0
 62
7
 10
-2.16479374E+02
 20
1.84725997E+01
 40
9.95732524E-01
 50
8.97539148E+01
 51
1.80246086E+02
  0
ARC
  8
0
 62
7
 10
-2.16479374E+02
 20
1.89725997E+01
 40
9.95732524E-01
 50
8.97539148E+01
 51
1.80246086E+02
  0
ARC
  8
0
 62
7
 10
-2.16481496E+02
 20
-1.45280756E+01
 40
9.93621933E-01
 50
1.79631028E+02
 51
2.70368973E+02
  0
ARC
  8
0
 62
7
 10
-2.16481496E+02
 20
-1.50280756E+01
 40
9.93621933E-01
 50
1.79631028E+02
 51
2.70368973E+02
  0
ARC
  8
0
 62
7
 10
-2.16863246E+02
 20
-1.55298249E+01
 40
9.91885504E-01
 50
1.79529332E+02
 51
2.70470668E+02
  0
ARC
  8
0
 62
7
 10
-2.16863246E+02
 20
-1.60298249E+01
 40
9.91885504E-01
 50
1.79529332E+02
 51
2.70470668E+02
  0
ARC
  8
0
 62
7
 10
-2.11403862E+02
 20
-1.45229122E+01
 40
9.98765500E-01
 50
2.69929137E+02
 51
7.08629291E-02
  0
ARC
  8
0
 62
7
 10
-2.09573838E+02
 20
1.89695824E+01
 40
9.98741410E-01
 50
3.59927752E+02
 51
9.00722484E+01
  0
ARC
  8
0
 62
7
 10
-2.09571723E+02
 20
-1.50250520E+01
 40
9.96630719E-01
 50
2.69805973E+02
 51
1.94027092E-01
  0
ARC
  8
0
 62
7
 10
-2.09313174E+02
 20
-1.55236008E+01
 40
9.98077996E-01
 50
2.69889559E+02
 51
1.10441296E-01
  0
ARC
  8
0
 62
7
 10
-2.08714521E+02
 20
-1.60222533E+01
 40
9.99423862E-01
 50
2.70000000E+02
 51
3.30388166E-02
  0
ARC
  8
0
 62
7
 10
-2.16479374E+02
 20
5.84725997E+01
 40
9.95732524E-01
 50
8.97539148E+01
 51
1.80246086E+02
  0
ARC
  8
0
 62
7
 10
-2.16479374E+02
 20
5.89725997E+01
 40
9.95732524E-01
 50
8.97539148E+01
 51
1.80246086E+02
  0
ARC
  8
0
 62
7
 10
-2.16861120E+02
 20
5.94743453E+01
 40
9.93996002E-01
 50
8.96528645E+01
 51
1.80347135E+02
  0
ARC
  8
0
 62
7
 10
-2.16861120E+02
 20
5.99743453E+01
 40
9.93996002E-01
 50
8.96528645E+01
 51
1.80347135E+02
  0
ARC
  8
0
 62
7
 10
-2.11405973E+02
 20
5.84674472E+01
 40
1.00087621E+00
 50
5.01373820E-02
 51
9.00000002E+01
  0
ARC
  8
0
 62
7
 10
-2.09573838E+02
 20
5.89695824E+01
 40
9.98741410E-01
 50
3.59927752E+02
 51
9.00722484E+01
  0
ARC
  8
0
 62
7
 10
-2.09315286E+02
 20
5.94681343E+01
 40
1.00018871E+00
 50
1.08089796E-02
 51
9.00000002E+01
  0
ARC
  8
0
 62
7
 10
-2.08716631E+02
 20
5.99667896E+01
 40
1.00153457E+00
 50
8.77227668E-02
 51
8.99122775E+01
  0
ARC
  8
0
 62
7
 10
-2.16476495E+02
 20
2.74669256E+01
 40
9.98603572E-01
 50
1.79919822E+02
 51
2.70080177E+02
  0
ARC
  8
0
 62
7
 10
-2.16476495E+02
 20
2.69669256E+01
 40
9.98603572E-01
 50
1.79919822E+02
 51
2.70080177E+02
  0
ARC
  8
0
 62
7
 10
-2.11408838E+02
 20
2.74720633E+01
 40
1.00374728E+00
 50
2.70213504E+02
 51
3.59786496E+02
  0
ARC
  8
0
 62
7
 10
-2.09576709E+02
 20
2.69699342E+01
 40
1.00161250E+00
 50
2.70092167E+02
 51
3.59907833E+02
  0
ARC
  8
0
 62
7
 10
-2.72866736E+02
 20
3.99280388E+01
 40
2.98519475E-01
 50
1.81865106E+02
 51
2.17014964E+02
  0
LINE
  8
0
 62
4
 10
-1.63937950E+02
 20
1.65671145E+02
 11
-1.63937950E+02
 21
1.63671145E+02
  0
LINE
  8
0
 62
4
 10
-1.63937950E+02
 20
1.63671145E+02
 11
-1.65937950E+02
 21
1.63671145E+02
  0
LINE
  8
0
 62
4
 10
-1.63937950E+02
 20
1.65671145E+02
 11
-1.65937950E+02
 21
1.65671145E+02
  0
LINE
  8
0
 62
4
 10
-1.65937950E+02
 20
1.65671145E+02
 11
-1.65937950E+02
 21
1.63671145E+02
  0
CIRCLE
  8
0
 62
7
 10
-1.33437950E+02
 20
1.65671146E+02
 40
2.89829731E+00
  0
CIRCLE
  8
0
 62
7
 10
-1.33437950E+02
 20
1.65671146E+02
 40
3.96076870E+00
  0
CIRCLE
  8
0
 62
7
 10
-1.33437950E+02
 20
1.65671145E+02
 40
5.00000000E+00
  0
LINE
  8
0
 62
7
 10
-1.35947950E+02
 20
1.64231145E+02
 11
-1.33437950E+02
 21
1.62781145E+02
  0
LINE
  8
0
 62
7
 10
-1.33437950E+02
 20
1.68561145E+02
 11
-1.30927950E+02
 21
1.67111145E+02
  0
LINE
  8
0
 62
7
 10
-1.33437950E+02
 20
1.62781145E+02
 11
-1.30927950E+02
 21
1.64231145E+02
  0
LINE
  8
0
 62
7
 10
-1.35947950E+02
 20
1.67111145E+02
 11
-1.33437950E+02
 21
1.68561145E+02
  0
LINE
  8
0
 62
7
 10
-1.30927950E+02
 20
1.67111145E+02
 11
-1.30927950E+02
 21
1.64231145E+02
  0
LINE
  8
0
 62
7
 10
-1.35947950E+02
 20
1.67111145E+02
 11
-1.35947950E+02
 21
1.64231145E+02
  0
CIRCLE
  8
0
 62
7
 10
-1.83437950E+02
 20
1.65671146E+02
 40
2.89829731E+00
  0
CIRCLE
  8
0
 62
7
 10
-1.83437950E+02
 20
1.65671146E+02
 40
3.96076870E+00
  0
CIRCLE
  8
0
 62
7
 10
-1.83437950E+02
 20
1.65671145E+02
 40
5.00000000E+00
  0
LINE
  8
0
 62
7
 10
-1.85947950E+02
 20
1.64231145E+02
 11
-1.83437950E+02
 21
1.62781145E+02
  0
LINE
  8
0
 62
7
 10
-1.83437950E+02
 20
1.68561145E+02
 11
-1.80927950E+02
 21
1.67111145E+02
  0
LINE
  8
0
 62
7
 10
-1.83437950E+02
 20
1.62781145E+02
 11
-1.80927950E+02
 21
1.64231145E+02
  0
LINE
  8
0
 62
7
 10
-1.85947950E+02
 20
1.67111145E+02
 11
-1.83437950E+02
 21
1.68561145E+02
  0
LINE
  8
0
 62
7
 10
-1.80927950E+02
 20
1.67111145E+02
 11
-1.80927950E+02
 21
1.64231145E+02
  0
LINE
  8
0
 62
7
 10
-1.85947950E+02
 20
1.67111145E+02
 11
-1.85947950E+02
 21
1.64231145E+02
  0
LINE
  8
0
 62
7
 10
-1.82187952E+02
 20
1.28671156E+02
 11
-1.82187950E+02
 21
1.33371156E+02
  0
LINE
  8
0
 62
7
 10
-1.82187952E+02
 20
1.28671156E+02
 11
-1.82707952E+02
 21
1.28371156E+02
  0
LINE
  8
0
 62
7
 10
-1.90687952E+02
 20
1.28671159E+02
 11
-1.82187952E+02
 21
1.28671156E+02
  0
LINE
  8
0
 62
7
 10
-1.90167952E+02
 20
1.28371159E+02
 11
-1.82707952E+02
 21
1.28371156E+02
  0
LINE
  8
0
 62
7
 10
-1.90687952E+02
 20
1.28671159E+02
 11
-1.90167952E+02
 21
1.28371159E+02
  0
LINE
  8
0
 62
7
 10
-1.90687952E+02
 20
1.28671159E+02
 11
-1.90687950E+02
 21
1.33371159E+02
  0
LINE
  8
0
 62
7
 10
-1.26187960E+02
 20
1.28671156E+02
 11
-1.26187958E+02
 21
1.33371156E+02
  0
LINE
  8
0
 62
7
 10
-1.26187960E+02
 20
1.28671156E+02
 11
-1.26707960E+02
 21
1.28371156E+02
  0
LINE
  8
0
 62
7
 10
-1.34687960E+02
 20
1.28671159E+02
 11
-1.26187960E+02
 21
1.28671156E+02
  0
LINE
  8
0
 62
7
 10
-1.34167960E+02
 20
1.28371159E+02
 11
-1.26707960E+02
 21
1.28371156E+02
  0
LINE
  8
0
 62
7
 10
-1.34687960E+02
 20
1.28671159E+02
 11
-1.34167960E+02
 21
1.28371159E+02
  0
LINE
  8
0
 62
7
 10
-1.34687960E+02
 20
1.28671159E+02
 11
-1.34687958E+02
 21
1.33371159E+02
  0
LINE
  8
0
 62
7
 10
-1.34687937E+02
 20
2.04371129E+02
 11
-1.34687935E+02
 21
1.99671129E+02
  0
LINE
  8
0
 62
7
 10
-1.34687937E+02
 20
2.04371129E+02
 11
-1.34167937E+02
 21
2.04671129E+02
  0
LINE
  8
0
 62
7
 10
-1.26187937E+02
 20
2.04371131E+02
 11
-1.34687937E+02
 21
2.04371129E+02
  0
LINE
  8
0
 62
7
 10
-1.26707937E+02
 20
2.04671131E+02
 11
-1.34167937E+02
 21
2.04671129E+02
  0
LINE
  8
0
 62
7
 10
-1.26187937E+02
 20
2.04371131E+02
 11
-1.26707937E+02
 21
2.04671131E+02
  0
LINE
  8
0
 62
7
 10
-1.26187937E+02
 20
2.04371131E+02
 11
-1.26187935E+02
 21
1.99671131E+02
  0
LINE
  8
0
 62
7
 10
-1.90687952E+02
 20
2.04371129E+02
 11
-1.90687950E+02
 21
1.99671129E+02
  0
LINE
  8
0
 62
7
 10
-1.90687952E+02
 20
2.04371129E+02
 11
-1.90167952E+02
 21
2.04671129E+02
  0
LINE
  8
0
 62
7
 10
-1.82187952E+02
 20
2.04371131E+02
 11
-1.90687952E+02
 21
2.04371129E+02
  0
LINE
  8
0
 62
7
 10
-1.82707952E+02
 20
2.04671131E+02
 11
-1.90167952E+02
 21
2.04671129E+02
  0
LINE
  8
0
 62
7
 10
-1.82187952E+02
 20
2.04371131E+02
 11
-1.82707952E+02
 21
2.04671131E+02
  0
LINE
  8
0
 62
7
 10
-1.82187952E+02
 20
2.04371131E+02
 11
-1.82187950E+02
 21
1.99671131E+02
  0
POLYLINE
  8
0
 62
7
 66
1
  0
VERTEX
  8
0
 62
7
 10
-2.70475098E+02
 20
5.35883230E+01
  0
VERTEX
  8
0
 62
7
 10
-2.70255595E+02
 20
5.28251816E+01
  0
VERTEX
  8
0
 62
7
 10
-2.70054159E+02
 20
5.20566038E+01
  0
VERTEX
  8
0
 62
7
 10
-2.69871142E+02
 20
5.12830566E+01
  0
VERTEX
  8
0
 62
7
 10
-2.69706892E+02
 20
5.05050073E+01
  0
VERTEX
  8
0
 62
7
 10
-2.69561759E+02
 20
4.97229228E+01
  0
VERTEX
  8
0
 62
7
 10
-2.69436093E+02
 20
4.89372703E+01
  0
VERTEX
  8
0
 62
7
 10
-2.69330244E+02
 20
4.81485170E+01
  0
VERTEX
  8
0
 62
7
 10
-2.69244562E+02
 20
4.73571299E+01
  0
VERTEX
  8
0
 62
7
 10
-2.69179397E+02
 20
4.65635762E+01
  0
VERTEX
  8
0
 62
7
 10
-2.69135098E+02
 20
4.57683230E+01
  0
VERTEX
  8
0
 62
7
 10
-2.69109392E+02
 20
4.47572898E+01
  0
VERTEX
  8
0
 62
7
 10
-2.69117527E+02
 20
4.37455607E+01
  0
VERTEX
  8
0
 62
7
 10
-2.69158873E+02
 20
4.27343159E+01
  0
VERTEX
  8
0
 62
7
 10
-2.69232797E+02
 20
4.17247360E+01
  0
VERTEX
  8
0
 62
7
 10
-2.69338667E+02
 20
4.07180014E+01
  0
VERTEX
  8
0
 62
7
 10
-2.69475851E+02
 20
3.97152925E+01
  0
VERTEX
  8
0
 62
7
 10
-2.69643719E+02
 20
3.87177898E+01
  0
VERTEX
  8
0
 62
7
 10
-2.69841637E+02
 20
3.77266737E+01
  0
VERTEX
  8
0
 62
7
 10
-2.70068974E+02
 20
3.67431246E+01
  0
VERTEX
  8
0
 62
7
 10
-2.70325098E+02
 20
3.57683230E+01
  0
SEQEND
  8
0
  0
LINE
  8
0
 62
7
 10
-3.77050977E+01
 20
6.56683230E+01
 11
-2.26950977E+01
 21
6.56683230E+01
  0
LINE
  8
0
 62
7
 10
-3.87550977E+01
 20
6.66683230E+01
 11
-3.77050977E+01
 21
6.56683230E+01
  0
LINE
  8
0
 62
7
 10
3.92949023E+01
 20
6.66683230E+01
 11
3.82449023E+01
 21
6.56683230E+01
  0
LINE
  8
0
 62
7
 10
-3.87550977E+01
 20
6.66683230E+01
 11
-2.27350977E+01
 21
6.66683230E+01
  0
LINE
  8
0
 62
7
 10
4.52749023E+01
 20
1.39668323E+02
 11
4.52749023E+01
 21
1.11668323E+02
  0
LINE
  8
0
  6
CENTER
 62
2
 10
-4.88450977E+01
 20
1.65668323E+02
 11
6.74149023E+01
 21
1.65668323E+02
  0
LINE
  8
0
  6
CENTER
 62
2
 10
3.72749023E+01
 20
1.43668323E+02
 11
3.72749023E+01
 21
1.30168323E+02
  0
LINE
  8
0
 62
7
 10
3.32749023E+01
 20
1.33168323E+02
 11
4.42749023E+01
 21
1.33168323E+02
  0
LINE
  8
0
  6
CENTER
 62
2
 10
2.74902344E-01
 20
2.13808323E+02
 11
2.74902344E-01
 21
-5.70716770E+01
  0
LINE
  8
0
 62
7
 10
3.35649023E+01
 20
1.50668323E+02
 11
3.41949023E+01
 21
1.40668323E+02
  0
LINE
  8
0
 62
7
 10
4.12749023E+01
 20
1.89168323E+02
 11
3.97749023E+01
 21
1.90668323E+02
  0
LINE
  8
0
 62
7
 10
3.92949023E+01
 20
6.66683230E+01
 11
4.04249023E+01
 21
1.09698323E+02
  0
LINE
  8
0
 62
7
 10
4.33749023E+01
 20
1.34668323E+02
 11
4.33749023E+01
 21
1.33168323E+02
  0
LINE
  8
0
 62
7
 10
4.33749023E+01
 20
1.34668323E+02
 11
3.32749023E+01
 21
1.34668323E+02
  0
LINE
  8
0
 62
7
 10
4.22749023E+01
 20
1.40068323E+02
 11
4.22749023E+01
 21
1.34668323E+02
  0
LINE
  8
0
 62
7
 10
4.22749023E+01
 20
1.40068323E+02
 11
4.16749023E+01
 21
1.40668323E+02
  0
LINE
  8
0
 62
7
 10
3.32749023E+01
 20
1.40068323E+02
 11
4.22749023E+01
 21
1.40068323E+02
  0
LINE
  8
0
 62
2
 10
2.51849023E+01
 20
1.24368323E+02
 11
2.51849023E+01
 21
1.11288323E+02
  0
LINE
  8
0
 62
7
 10
2.62749023E+01
 20
1.24368323E+02
 11
2.62749023E+01
 21
1.12368323E+02
  0
LINE
  8
0
 62
7
 10
2.62749023E+01
 20
1.12368323E+02
 11
2.42749023E+01
 21
1.10368323E+02
  0
LINE
  8
0
 62
7
 10
2.51849023E+01
 20
1.26368323E+02
 11
2.51849023E+01
 21
1.24368323E+02
  0
LINE
  8
0
 62
7
 10
1.55249023E+01
 20
1.41168323E+02
 11
1.55249023E+01
 21
1.43668323E+02
  0
LINE
  8
0
 62
7
 10
2.52749023E+01
 20
1.85668323E+02
 11
2.52749023E+01
 21
1.45668323E+02
  0
LINE
  8
0
 62
7
 10
1.55249023E+01
 20
1.87668323E+02
 11
1.55249023E+01
 21
1.90168323E+02
  0
LINE
  8
0
 62
7
 10
2.07490234E+00
 20
1.61268323E+02
 11
2.07490234E+00
 21
1.58898323E+02
  0
LINE
  8
0
 62
7
 10
2.07749023E+01
 20
1.78668323E+02
 11
2.07749023E+01
 21
1.52668323E+02
  0
LINE
  8
0
 62
7
 10
3.32749023E+01
 20
2.04668323E+02
 11
3.32749023E+01
 21
1.81418323E+02
  0
LINE
  8
0
 62
7
 10
2.52749023E+01
 20
1.80918323E+02
 11
3.27749023E+01
 21
1.80918323E+02
  0
LINE
  8
0
 62
7
 10
2.52749023E+01
 20
1.50418323E+02
 11
3.27749023E+01
 21
1.50418323E+02
  0
LINE
  8
0
 62
7
 10
3.32749023E+01
 20
1.49918323E+02
 11
3.32749023E+01
 21
1.28368323E+02
  0
LINE
  8
0
 62
7
 10
3.25249023E+01
 20
1.33368323E+02
 11
2.32749023E+01
 21
1.33368323E+02
  0
LINE
  8
0
 62
7
 10
2.32749023E+01
 20
1.33368323E+02
 11
2.32749023E+01
 21
1.28368323E+02
  0
LINE
  8
0
  6
CENTER
 62
2
 10
2.82749023E+01
 20
1.34368323E+02
 11
2.82749023E+01
 21
1.25368323E+02
  0
LINE
  8
0
 62
7
 10
2.32749023E+01
 20
1.99668323E+02
 11
2.32749023E+01
 21
2.04668323E+02
  0
LINE
  8
0
 62
7
 10
3.25249023E+01
 20
1.99668323E+02
 11
2.32749023E+01
 21
1.99668323E+02
  0
LINE
  8
0
  6
CENTER
 62
2
 10
2.82749023E+01
 20
1.98668323E+02
 11
2.82749023E+01
 21
2.07668323E+02
  0
LINE
  8
0
 62
7
 10
-1.74750977E+01
 20
4.96683230E+01
 11
1.80249023E+01
 21
4.96683230E+01
  0
LINE
  8
0
 62
7
 10
1.76649023E+01
 20
5.25483230E+01
 11
1.89649023E+01
 21
8.96683230E+01
  0
LINE
  8
0
 62
7
 10
-1.84150977E+01
 20
8.96683230E+01
 11
-1.71250977E+01
 21
5.25483230E+01
  0
LINE
  8
0
 62
7
 10
-2.36250977E+01
 20
9.96683230E+01
 11
2.41649023E+01
 21
9.96683230E+01
  0
LINE
  8
0
 62
7
 10
-2.37750977E+01
 20
8.96683230E+01
 11
-2.35250977E+01
 21
8.95283230E+01
  0
LINE
  8
0
 62
7
 10
-2.35250977E+01
 20
8.95283230E+01
 11
-2.26250977E+01
 21
6.36683230E+01
  0
LINE
  8
0
 62
7
 10
-2.36250977E+01
 20
9.96683230E+01
 11
-2.41050977E+01
 21
9.91883230E+01
  0
LINE
  8
0
 62
7
 10
2.41649023E+01
 20
9.96683230E+01
 11
2.46549023E+01
 21
9.91883230E+01
  0
LINE
  8
0
 62
7
 10
2.26549023E+01
 20
1.10368323E+02
 11
2.21749023E+01
 21
9.96683230E+01
  0
LINE
  8
0
 62
7
 10
4.27490234E+00
 20
8.96683230E+01
 11
4.27490234E+00
 21
5.25583230E+01
  0
LINE
  8
0
 62
7
 10
-3.72509766E+00
 20
8.96683230E+01
 11
-3.72509766E+00
 21
5.25583230E+01
  0
LINE
  8
0
 62
7
 10
-3.72509766E+00
 20
5.25583230E+01
 11
4.27490234E+00
 21
5.25583230E+01
  0
LINE
  8
0
 62
7
 10
4.27490234E+00
 20
8.96683230E+01
 11
1.89649023E+01
 21
8.96683230E+01
  0
LINE
  8
0
 62
7
 10
-5.20509766E+00
 20
5.98683230E+01
 11
-5.20509766E+00
 21
4.96683230E+01
  0
LINE
  8
0
 62
7
 10
5.74490234E+00
 20
5.98683230E+01
 11
5.74490234E+00
 21
4.96683230E+01
  0
LINE
  8
0
 62
7
 10
4.27490234E+00
 20
5.25483230E+01
 11
5.74490234E+00
 21
4.96683230E+01
  0
LINE
  8
0
 62
7
 10
-3.72509766E+00
 20
5.25483230E+01
 11
-5.20509766E+00
 21
4.96683230E+01
  0
LINE
  8
0
 62
7
 10
1.76649023E+01
 20
5.25583230E+01
 11
1.21549023E+01
 21
4.96683230E+01
  0
LINE
  8
0
 62
7
 10
-3.72509766E+00
 20
8.96683230E+01
 11
-1.84150977E+01
 21
8.96683230E+01
  0
LINE
  8
0
 62
7
 10
-3.72509766E+00
 20
6.36683230E+01
 11
-1.75150977E+01
 21
6.36683230E+01
  0
LINE
  8
0
 62
7
 10
-5.20509766E+00
 20
5.98683230E+01
 11
-1.23750977E+01
 21
5.98683230E+01
  0
LINE
  8
0
 62
7
 10
-1.71250977E+01
 20
5.25583230E+01
 11
-1.16150977E+01
 21
4.96683230E+01
  0
LINE
  8
0
 62
7
 10
-1.71250977E+01
 20
5.25583230E+01
 11
-2.19750977E+01
 21
5.25583230E+01
  0
LINE
  8
0
 62
7
 10
1.80249023E+01
 20
4.96683230E+01
 11
2.25249023E+01
 21
5.25483230E+01
  0
LINE
  8
0
 62
7
 10
4.27490234E+00
 20
6.36683230E+01
 11
5.74490234E+00
 21
5.98683230E+01
  0
LINE
  8
0
 62
7
 10
-3.72509766E+00
 20
6.36683230E+01
 11
-5.20509766E+00
 21
5.98683230E+01
  0
LINE
  8
0
 62
7
 10
-2.41050977E+01
 20
9.91883230E+01
 11
-2.37750977E+01
 21
8.96683230E+01
  0
LINE
  8
0
 62
7
 10
-1.23750977E+01
 20
5.98683230E+01
 11
-1.16150977E+01
 21
4.96683230E+01
  0
LINE
  8
0
 62
7
 10
-1.75150977E+01
 20
6.36683230E+01
 11
-1.23750977E+01
 21
5.98683230E+01
  0
LINE
  8
0
 62
7
 10
5.74490234E+00
 20
5.98683230E+01
 11
1.29249023E+01
 21
5.98683230E+01
  0
LINE
  8
0
 62
7
 10
4.27490234E+00
 20
6.36683230E+01
 11
1.80549023E+01
 21
6.36683230E+01
  0
LINE
  8
0
 62
7
 10
1.80549023E+01
 20
6.36683230E+01
 11
1.29249023E+01
 21
5.98683230E+01
  0
LINE
  8
0
 62
7
 10
1.29249023E+01
 20
5.98683230E+01
 11
1.21549023E+01
 21
4.96683230E+01
  0
LINE
  8
0
 62
7
 10
-2.23650977E+01
 20
6.36683230E+01
 11
-2.19750977E+01
 21
5.25683230E+01
  0
LINE
  8
0
 62
7
 10
-2.26250977E+01
 20
6.36683230E+01
 11
-2.23650977E+01
 21
6.36683230E+01
  0
LINE
  8
0
 62
7
 10
-1.74750977E+01
 20
4.96683230E+01
 11
-2.19750977E+01
 21
5.25583230E+01
  0
LINE
  8
0
 62
7
 10
2.46549023E+01
 20
9.91883230E+01
 11
2.43149023E+01
 21
8.96683230E+01
  0
LINE
  8
0
 62
7
 10
2.40749023E+01
 20
8.95283230E+01
 11
2.31749023E+01
 21
6.36683230E+01
  0
LINE
  8
0
 62
7
 10
2.43149023E+01
 20
8.96683230E+01
 11
2.40749023E+01
 21
8.95283230E+01
  0
LINE
  8
0
 62
7
 10
2.31749023E+01
 20
6.36683230E+01
 11
2.29149023E+01
 21
6.36683230E+01
  0
LINE
  8
0
 62
7
 10
2.29149023E+01
 20
6.36683230E+01
 11
2.25249023E+01
 21
5.25683230E+01
  0
LINE
  8
0
 62
7
 10
2.32749023E+01
 20
6.66683230E+01
 11
3.92949023E+01
 21
6.66683230E+01
  0
LINE
  8
0
 62
7
 10
2.32449023E+01
 20
6.56683230E+01
 11
3.82449023E+01
 21
6.56683230E+01
  0
LINE
  8
0
 62
7
 10
2.51849023E+01
 20
1.25668323E+02
 11
4.52749023E+01
 21
1.25668323E+02
  0
LINE
  8
0
 62
7
 10
2.45749023E+01
 20
1.10668323E+02
 11
4.42749023E+01
 21
1.10668323E+02
  0
LINE
  8
0
 62
7
 10
3.32749023E+01
 20
1.89168323E+02
 11
4.12749023E+01
 21
1.89168323E+02
  0
LINE
  8
0
 62
7
 10
4.52749023E+01
 20
1.80668323E+02
 11
2.27749023E+01
 21
1.80668323E+02
  0
LINE
  8
0
 62
7
 10
5.02749023E+01
 20
1.85668323E+02
 11
4.52749023E+01
 21
1.80668323E+02
  0
LINE
  8
0
 62
7
 10
5.97749023E+01
 20
2.04668323E+02
 11
5.05649023E+01
 21
2.04668323E+02
  0
LINE
  8
0
 62
7
 10
6.02749023E+01
 20
2.04168323E+02
 11
6.02749023E+01
 21
1.51168323E+02
  0
LINE
  8
0
 62
7
 10
5.97749023E+01
 20
1.50668323E+02
 11
2.27749023E+01
 21
1.50668323E+02
  0
LINE
  8
0
 62
7
 10
5.02749023E+01
 20
2.04578323E+02
 11
5.02749023E+01
 21
1.85668323E+02
  0
LINE
  8
0
 62
7
 10
5.01249023E+01
 20
2.04418323E+02
 11
3.64149023E+01
 21
1.80668323E+02
  0
LINE
  8
0
 62
7
 10
4.12749023E+01
 20
1.89168323E+02
 11
4.12749023E+01
 21
1.89088323E+02
  0
LINE
  8
0
 62
7
 10
4.28549023E+01
 20
1.50668323E+02
 11
4.32349023E+01
 21
1.41628323E+02
  0
LINE
  8
0
 62
7
 10
7.27490234E+00
 20
1.10368323E+02
 11
7.27490234E+00
 21
9.96683230E+01
  0
LINE
  8
0
 62
7
 10
1.40349023E+01
 20
9.96683230E+01
 11
1.42749023E+01
 21
1.10368323E+02
  0
LINE
  8
0
 62
7
 10
2.01249023E+01
 20
1.03868323E+02
 11
1.71249023E+01
 21
1.03868323E+02
  0
LINE
  8
0
 62
7
 10
1.71249023E+01
 20
1.03868323E+02
 11
1.70349023E+01
 21
9.96683230E+01
  0
LINE
  8
0
 62
7
 10
1.91249023E+01
 20
1.03868323E+02
 11
1.90349023E+01
 21
9.96683230E+01
  0
LINE
  8
0
 62
7
 10
2.01249023E+01
 20
1.03868323E+02
 11
2.00349023E+01
 21
9.96683230E+01
  0
LINE
  8
0
 62
7
 10
-4.47250977E+01
 20
1.25668323E+02
 11
-2.46450977E+01
 21
1.25668323E+02
  0
LINE
  8
0
 62
7
 10
-4.37250977E+01
 20
1.40668323E+02
 11
4.42749023E+01
 21
1.40668323E+02
  0
LINE
  8
0
 62
7
 10
-4.47250977E+01
 20
1.39668323E+02
 11
-4.47250977E+01
 21
1.11668323E+02
  0
LINE
  8
0
  6
CENTER
 62
2
 10
-3.67250977E+01
 20
1.43668323E+02
 11
-3.67250977E+01
 21
1.30168323E+02
  0
LINE
  8
0
 62
7
 10
-4.37250977E+01
 20
1.33168323E+02
 11
-3.27250977E+01
 21
1.33168323E+02
  0
LINE
  8
0
 62
7
 10
-4.07250977E+01
 20
1.89168323E+02
 11
-3.27250977E+01
 21
1.89168323E+02
  0
LINE
  8
0
 62
7
 10
-4.07250977E+01
 20
1.89168323E+02
 11
-4.26850977E+01
 21
1.41628323E+02
  0
LINE
  8
0
 62
7
 10
-3.30250977E+01
 20
1.50668323E+02
 11
-3.36450977E+01
 21
1.40668323E+02
  0
LINE
  8
0
 62
7
 10
-4.07250977E+01
 20
1.89168323E+02
 11
-3.92250977E+01
 21
1.90668323E+02
  0
LINE
  8
0
 62
7
 10
-4.37250977E+01
 20
1.10668323E+02
 11
-2.40250977E+01
 21
1.10668323E+02
  0
LINE
  8
0
 62
7
 10
-4.17250977E+01
 20
1.40068323E+02
 11
-4.17250977E+01
 21
1.34668323E+02
  0
LINE
  8
0
 62
7
 10
-3.27250977E+01
 20
1.34668323E+02
 11
-4.28250977E+01
 21
1.34668323E+02
  0
LINE
  8
0
 62
7
 10
-4.28250977E+01
 20
1.34668323E+02
 11
-4.28250977E+01
 21
1.33168323E+02
  0
LINE
  8
0
 62
7
 10
-4.17250977E+01
 20
1.40068323E+02
 11
-3.27250977E+01
 21
1.40068323E+02
  0
LINE
  8
0
 62
7
 10
-4.17250977E+01
 20
1.40068323E+02
 11
-4.11250977E+01
 21
1.40668323E+02
  0
LINE
  8
0
 62
7
 10
-3.87550977E+01
 20
6.66683230E+01
 11
-3.98850977E+01
 21
1.09698323E+02
  0
LINE
  8
0
 62
7
 10
-3.27250977E+01
 20
2.04668323E+02
 11
-3.27250977E+01
 21
1.81418323E+02
  0
LINE
  8
0
 62
7
 10
-3.27250977E+01
 20
1.49918323E+02
 11
-3.27250977E+01
 21
1.28368323E+02
  0
LINE
  8
0
 62
7
 10
-2.57250977E+01
 20
1.24368323E+02
 11
-2.57250977E+01
 21
1.12368323E+02
  0
LINE
  8
0
 62
2
 10
-2.46450977E+01
 20
1.24368323E+02
 11
-2.46450977E+01
 21
1.11288323E+02
  0
LINE
  8
0
 62
7
 10
-2.57250977E+01
 20
1.12368323E+02
 11
-2.37250977E+01
 21
1.10368323E+02
  0
LINE
  8
0
 62
7
 10
-2.37250977E+01
 20
1.10368323E+02
 11
2.42749023E+01
 21
1.10368323E+02
  0
LINE
  8
0
 62
7
 10
2.62749023E+01
 20
1.24368323E+02
 11
-2.57250977E+01
 21
1.24368323E+02
  0
LINE
  8
0
 62
7
 10
-2.46450977E+01
 20
1.26368323E+02
 11
-2.46450977E+01
 21
1.24368323E+02
  0
LINE
  8
0
 62
7
 10
-2.47250977E+01
 20
1.85668323E+02
 11
-2.47250977E+01
 21
1.80668323E+02
  0
LINE
  8
0
 62
7
 10
-1.29750977E+01
 20
1.45668323E+02
 11
1.35249023E+01
 21
1.45668323E+02
  0
LINE
  8
0
 62
7
 10
-3.22250977E+01
 20
1.80918323E+02
 11
-2.47250977E+01
 21
1.80918323E+02
  0
LINE
  8
0
 62
7
 10
-3.22250977E+01
 20
1.50418323E+02
 11
-2.47250977E+01
 21
1.50418323E+02
  0
LINE
  8
0
 62
7
 10
-1.52509766E+00
 20
1.61268323E+02
 11
-1.52509766E+00
 21
1.58898323E+02
  0
LINE
  8
0
 62
7
 10
-2.47250977E+01
 20
1.50668323E+02
 11
-2.47250977E+01
 21
1.45668323E+02
  0
LINE
  8
0
 62
4
 10
-3.72250977E+01
 20
1.80668323E+02
 11
-2.22250977E+01
 21
1.80668323E+02
  0
LINE
  8
0
 62
4
 10
-3.72250977E+01
 20
1.50668323E+02
 11
-2.22250977E+01
 21
1.50668323E+02
  0
LINE
  8
0
 62
4
 10
-3.92250977E+01
 20
1.78668323E+02
 11
-3.92250977E+01
 21
1.52668323E+02
  0
LINE
  8
0
 62
4
 10
-2.02250977E+01
 20
1.78668323E+02
 11
-2.02250977E+01
 21
1.52668323E+02
  0
LINE
  8
0
 62
7
 10
-1.49750977E+01
 20
1.41168323E+02
 11
-1.49750977E+01
 21
1.43668323E+02
  0
LINE
  8
0
 62
7
 10
3.12749023E+01
 20
2.06668323E+02
 11
-3.07250977E+01
 21
2.06668323E+02
  0
LINE
  8
0
 62
7
 10
-3.07250977E+01
 20
1.26368323E+02
 11
3.12749023E+01
 21
1.26368323E+02
  0
LINE
  8
0
 62
7
 10
-3.27250977E+01
 20
1.40368323E+02
 11
3.32749023E+01
 21
1.40368323E+02
  0
LINE
  8
0
 62
7
 10
-1.29750977E+01
 20
1.85668323E+02
 11
1.35249023E+01
 21
1.85668323E+02
  0
LINE
  8
0
 62
7
 10
-1.49750977E+01
 20
1.87668323E+02
 11
-1.49750977E+01
 21
1.90168323E+02
  0
LINE
  8
0
 62
7
 10
-3.92250977E+01
 20
1.90668323E+02
 11
3.97749023E+01
 21
1.90668323E+02
  0
LINE
  8
0
 62
7
 10
-2.57250977E+01
 20
1.12368323E+02
 11
2.62749023E+01
 21
1.12368323E+02
  0
LINE
  8
0
  6
CENTER
 62
2
 10
-2.77250977E+01
 20
1.34368323E+02
 11
-2.77250977E+01
 21
1.25368323E+02
  0
LINE
  8
0
 62
7
 10
-3.19750977E+01
 20
1.33368323E+02
 11
-2.27250977E+01
 21
1.33368323E+02
  0
LINE
  8
0
 62
7
 10
-2.27250977E+01
 20
1.33368323E+02
 11
-2.27250977E+01
 21
1.28368323E+02
  0
LINE
  8
0
 62
7
 10
-3.19750977E+01
 20
1.99668323E+02
 11
-2.27250977E+01
 21
1.99668323E+02
  0
LINE
  8
0
  6
CENTER
 62
2
 10
-2.77250977E+01
 20
1.98668323E+02
 11
-2.77250977E+01
 21
2.07668323E+02
  0
LINE
  8
0
 62
7
 10
-2.27250977E+01
 20
1.99668323E+02
 11
-2.27250977E+01
 21
2.04668323E+02
  0
LINE
  8
0
 62
7
 10
-2.21150977E+01
 20
1.10368323E+02
 11
-2.16350977E+01
 21
9.96683230E+01
  0
LINE
  8
0
 62
7
 10
-1.95850977E+01
 20
1.03868323E+02
 11
-1.65850977E+01
 21
1.03868323E+02
  0
LINE
  8
0
 62
7
 10
-1.95850977E+01
 20
1.03868323E+02
 11
-1.94850977E+01
 21
9.96683230E+01
  0
LINE
  8
0
 62
7
 10
-1.85850977E+01
 20
1.03868323E+02
 11
-1.84850977E+01
 21
9.96683230E+01
  0
LINE
  8
0
 62
7
 10
-1.65850977E+01
 20
1.03868323E+02
 11
-1.64850977E+01
 21
9.96683230E+01
  0
LINE
  8
0
 62
7
 10
-1.37250977E+01
 20
1.10368323E+02
 11
-1.34850977E+01
 21
9.96683230E+01
  0
LINE
  8
0
 62
7
 10
-6.72509766E+00
 20
1.10368323E+02
 11
-6.72509766E+00
 21
9.96683230E+01
  0
ARC
  8
0
 62
7
 10
4.42741260E+01
 20
1.11669099E+02
 40
1.00077666E+00
 50
2.70000000E+02
 51
3.59955552E+02
  0
ARC
  8
0
 62
7
 10
4.14251383E+01
 20
1.09667616E+02
 40
1.00070719E+00
 50
9.00000002E+01
 51
1.78241577E+02
  0
ARC
  8
0
 62
7
 10
4.42769730E+01
 20
1.39670394E+02
 40
9.97931531E-01
 50
3.59881117E+02
 51
9.01188838E+01
  0
ARC
  8
0
 62
7
 10
4.42362691E+01
 20
1.41670580E+02
 40
1.00225797E+00
 50
1.82416411E+02
 51
2.69921867E+02
  0
ARC
  8
0
 62
7
 10
4.42769730E+01
 20
1.32170394E+02
 40
9.97931531E-01
 50
3.59881117E+02
 51
9.01188838E+01
  0
ARC
  8
0
 62
7
 10
1.60270272E+01
 20
1.41170448E+02
 40
5.02129333E-01
 50
1.80242457E+02
 51
2.69757543E+02
  0
ARC
  8
0
 62
7
 10
1.35270265E+01
 20
1.43670447E+02
 40
1.99787693E+00
 50
3.59939082E+02
 51
9.00609188E+01
  0
ARC
  8
0
 62
7
 10
3.27741392E+01
 20
1.81419086E+02
 40
5.00763748E-01
 50
2.70000000E+02
 51
3.59912681E+02
  0
ARC
  8
0
 62
7
 10
3.27769650E+01
 20
1.49920386E+02
 40
4.97941578E-01
 50
3.59762655E+02
 51
9.02373451E+01
  0
ARC
  8
0
 62
7
 10
3.12769502E+01
 20
2.04670371E+02
 40
1.99795316E+00
 50
3.59941272E+02
 51
9.00587278E+01
  0
ARC
  8
0
 62
7
 10
3.12741286E+01
 20
1.28369097E+02
 40
2.00077392E+00
 50
2.70000000E+02
 51
3.59977842E+02
  0
ARC
  8
0
 62
7
 10
2.02770190E+01
 20
1.85670440E+02
 40
4.99788380E+00
 50
3.59975735E+02
 51
9.00242655E+01
  0
ARC
  8
0
 62
7
 10
2.02741963E+01
 20
1.45669029E+02
 40
5.00070606E+00
 50
2.70000000E+02
 51
3.59991911E+02
  0
ARC
  8
0
 62
7
 10
1.60242089E+01
 20
1.90169017E+02
 40
4.99306993E-01
 50
9.00000002E+01
 51
1.80079578E+02
  0
ARC
  8
0
 62
7
 10
1.35242033E+01
 20
1.87669022E+02
 40
2.00069917E+00
 50
2.70000000E+02
 51
3.59979980E+02
  0
ARC
  8
0
 62
7
 10
2.27742131E+01
 20
1.78669012E+02
 40
1.99931092E+00
 50
9.00000002E+01
 51
1.80019751E+02
  0
ARC
  8
0
 62
7
 10
2.27770115E+01
 20
1.52670432E+02
 40
2.00211030E+00
 50
1.80060360E+02
 51
2.69939640E+02
  0
ARC
  8
0
 62
7
 10
2.12741895E+01
 20
1.28369036E+02
 40
2.00071292E+00
 50
2.70000000E+02
 51
3.59979587E+02
  0
ARC
  8
0
 62
7
 10
3.12741286E+01
 20
1.35369097E+02
 40
2.00077392E+00
 50
2.70000000E+02
 51
3.59977842E+02
  0
ARC
  8
0
 62
7
 10
2.12770113E+01
 20
2.04670432E+02
 40
1.99789217E+00
 50
3.59939519E+02
 51
9.00604805E+01
  0
ARC
  8
0
 62
7
 10
3.12769502E+01
 20
1.97670371E+02
 40
1.99795316E+00
 50
3.59941272E+02
 51
9.00587278E+01
  0
ARC
  8
0
 62
7
 10
5.05584523E+01
 20
2.04167475E+02
 40
5.00889503E-01
 50
8.92621749E+01
 51
1.49946726E+02
  0
ARC
  8
0
 62
7
 10
5.97769422E+01
 20
2.04170363E+02
 40
4.97964337E-01
 50
3.59765295E+02
 51
9.02347049E+01
  0
ARC
  8
0
 62
7
 10
5.97741468E+01
 20
1.51169079E+02
 40
5.00756076E-01
 50
2.70000000E+02
 51
3.59913556E+02
  0
ARC
  8
0
 62
7
 10
-4.08791597E+01
 20
1.09673981E+02
 40
9.94360073E-01
 50
1.40276439E+00
 51
9.03421500E+01
  0
CIRCLE
  8
0
 62
7
 10
2.76313477E-01
 20
1.65671145E+02
 40
1.20585012E+01
  0
ARC
  8
0
 62
7
 10
-4.37229654E+01
 20
1.11670455E+02
 40
1.00213449E+00
 50
1.80121907E+02
 51
2.69878093E+02
  0
CIRCLE
  8
0
 62
2
 10
2.76313477E-01
 20
1.65671145E+02
 40
1.32205000E+01
  0
ARC
  8
0
 62
7
 10
-4.37258162E+01
 20
1.39669042E+02
 40
9.99281706E-01
 50
9.00000002E+01
 51
1.80041199E+02
  0
ARC
  8
0
 62
7
 10
-4.36852296E+01
 20
1.41669294E+02
 40
1.00097077E+00
 50
2.70000000E+02
 51
3.57654169E+02
  0
ARC
  8
0
 62
7
 10
-4.37258162E+01
 20
1.32169042E+02
 40
9.99281706E-01
 50
9.00000002E+01
 51
1.80041199E+02
  0
ARC
  8
0
 62
7
 10
-3.07257945E+01
 20
2.04669020E+02
 40
1.99930330E+00
 50
9.00000002E+01
 51
1.80019970E+02
  0
ARC
  8
0
 62
7
 10
-3.07229747E+01
 20
1.28370446E+02
 40
2.00212405E+00
 50
1.80060753E+02
 51
2.69939247E+02
  0
ARC
  8
0
 62
7
 10
-1.97258028E+01
 20
1.85669028E+02
 40
4.99929493E+00
 50
9.00000002E+01
 51
1.80008081E+02
  0
ARC
  8
0
 62
7
 10
-1.97229809E+01
 20
1.45670440E+02
 40
5.00211720E+00
 50
1.80024246E+02
 51
2.69975754E+02
  0
ARC
  8
0
 62
7
 10
-1.54758154E+01
 20
1.41169041E+02
 40
5.00718223E-01
 50
2.70000000E+02
 51
3.59917875E+02
  0
ARC
  8
0
 62
7
 10
-1.29758097E+01
 20
1.43669035E+02
 40
1.99928806E+00
 50
9.00000002E+01
 51
1.80020406E+02
  0
ARC
  8
0
 62
4
 10
-2.22229963E+01
 20
1.78670424E+02
 40
1.99789978E+00
 50
3.59939738E+02
 51
9.00602616E+01
  0
ARC
  8
0
 62
4
 10
-2.22257967E+01
 20
1.52669022E+02
 40
2.00069917E+00
 50
2.70000000E+02
 51
3.59979980E+02
  0
ARC
  8
0
 62
4
 10
-3.72257869E+01
 20
1.78669012E+02
 40
1.99931092E+00
 50
9.00000002E+01
 51
1.80019751E+02
  0
ARC
  8
0
 62
4
 10
-3.72229885E+01
 20
1.52670432E+02
 40
2.00211030E+00
 50
1.80060360E+02
 51
2.69939640E+02
  0
ARC
  8
0
 62
7
 10
-3.22229881E+01
 20
1.81420433E+02
 40
5.02113988E-01
 50
1.80240721E+02
 51
2.69759280E+02
  0
ARC
  8
0
 62
7
 10
-3.22258063E+01
 20
1.49919032E+02
 40
4.99291820E-01
 50
9.00000002E+01
 51
1.80081324E+02
  0
ARC
  8
0
 62
7
 10
-1.54729891E+01
 20
1.90170432E+02
 40
4.97895882E-01
 50
3.59757353E+02
 51
9.02426478E+01
  0
ARC
  8
0
 62
7
 10
-1.29729885E+01
 20
1.87670432E+02
 40
2.00211030E+00
 50
1.80060360E+02
 51
2.69939640E+02
  0
CIRCLE
  8
0
 62
7
 10
2.76313477E-01
 20
1.65671145E+02
 40
7.00000000E+00
  0
CIRCLE
  8
0
 62
7
 10
2.76313477E-01
 20
1.61271121E+02
 40
1.09999847E+00
  0
CIRCLE
  8
0
 62
7
 10
2.76313477E-01
 20
1.61271121E+02
 40
1.80000305E+00
  0
ARC
  8
0
 62
7
 10
-3.07229747E+01
 20
1.35370446E+02
 40
2.00212405E+00
 50
1.80060753E+02
 51
2.69939247E+02
  0
ARC
  8
0
 62
7
 10
-2.07229747E+01
 20
1.28370446E+02
 40
2.00212405E+00
 50
1.80060753E+02
 51
2.69939247E+02
  0
ARC
  8
0
 62
7
 10
-3.07257945E+01
 20
1.97669020E+02
 40
1.99930330E+00
 50
9.00000002E+01
 51
1.80019970E+02
  0
ARC
  8
0
 62
7
 10
-2.07257945E+01
 20
2.04669020E+02
 40
1.99930330E+00
 50
9.00000002E+01
 51
1.80019970E+02
  0
POLYLINE
  8
0
 62
4
 66
1
  0
VERTEX
  8
0
 62
4
 10
-3.72236848E+01
 20
1.71171145E+02
  0
VERTEX
  8
0
 62
4
 10
-3.73544184E+01
 20
1.71150216E+02
  0
VERTEX
  8
0
 62
4
 10
-3.74841571E+01
 20
1.71087588E+02
  0
VERTEX
  8
0
 62
4
 10
-3.76119134E+01
 20
1.70983737E+02
  0
VERTEX
  8
0
 62
4
 10
-3.77367151E+01
 20
1.70839455E+02
  0
VERTEX
  8
0
 62
4
 10
-3.78576123E+01
 20
1.70655838E+02
  0
VERTEX
  8
0
 62
4
 10
-3.79736850E+01
 20
1.70434285E+02
  0
VERTEX
  8
0
 62
4
 10
-3.80840497E+01
 20
1.70176482E+02
  0
VERTEX
  8
0
 62
4
 10
-3.81878666E+01
 20
1.69884390E+02
  0
VERTEX
  8
0
 62
4
 10
-3.82843454E+01
 20
1.69560233E+02
  0
VERTEX
  8
0
 62
4
 10
-3.83727520E+01
 20
1.69206477E+02
  0
VERTEX
  8
0
 62
4
 10
-3.84524136E+01
 20
1.68825816E+02
  0
VERTEX
  8
0
 62
4
 10
-3.85227237E+01
 20
1.68421145E+02
  0
VERTEX
  8
0
 62
4
 10
-3.85831474E+01
 20
1.67995546E+02
  0
VERTEX
  8
0
 62
4
 10
-3.86332248E+01
 20
1.67552256E+02
  0
VERTEX
  8
0
 62
4
 10
-3.86725748E+01
 20
1.67094650E+02
  0
VERTEX
  8
0
 62
4
 10
-3.87008978E+01
 20
1.66626210E+02
  0
VERTEX
  8
0
 62
4
 10
-3.87179784E+01
 20
1.66150502E+02
  0
VERTEX
  8
0
 62
4
 10
-3.87236865E+01
 20
1.65671145E+02
  0
VERTEX
  8
0
 62
4
 10
-3.87179787E+01
 20
1.65191789E+02
  0
VERTEX
  8
0
 62
4
 10
-3.87008984E+01
 20
1.64716080E+02
  0
VERTEX
  8
0
 62
4
 10
-3.86725757E+01
 20
1.64247641E+02
  0
VERTEX
  8
0
 62
4
 10
-3.86332260E+01
 20
1.63790035E+02
  0
VERTEX
  8
0
 62
4
 10
-3.85831489E+01
 20
1.63346745E+02
  0
VERTEX
  8
0
 62
4
 10
-3.85227255E+01
 20
1.62921145E+02
  0
VERTEX
  8
0
 62
4
 10
-3.84524156E+01
 20
1.62516475E+02
  0
VERTEX
  8
0
 62
4
 10
-3.83727543E+01
 20
1.62135814E+02
  0
VERTEX
  8
0
 62
4
 10
-3.82843479E+01
 20
1.61782058E+02
  0
VERTEX
  8
0
 62
4
 10
-3.81878692E+01
 20
1.61457901E+02
  0
VERTEX
  8
0
 62
4
 10
-3.80840526E+01
 20
1.61165809E+02
  0
VERTEX
  8
0
 62
4
 10
-3.79736880E+01
 20
1.60908006E+02
  0
VERTEX
  8
0
 62
4
 10
-3.78576155E+01
 20
1.60686452E+02
  0
VERTEX
  8
0
 62
4
 10
-3.77367184E+01
 20
1.60502836E+02
  0
VERTEX
  8
0
 62
4
 10
-3.76119168E+01
 20
1.60358553E+02
  0
VERTEX
  8
0
 62
4
 10
-3.74841605E+01
 20
1.60254702E+02
  0
VERTEX
  8
0
 62
4
 10
-3.73544218E+01
 20
1.60192074E+02
  0
VERTEX
  8
0
 62
4
 10
-3.72236882E+01
 20
1.60171145E+02
  0
VERTEX
  8
0
 62
4
 10
-3.70929546E+01
 20
1.60192074E+02
  0
VERTEX
  8
0
 62
4
 10
-3.69632159E+01
 20
1.60254702E+02
  0
VERTEX
  8
0
 62
4
 10
-3.68354596E+01
 20
1.60358553E+02
  0
VERTEX
  8
0
 62
4
 10
-3.67106579E+01
 20
1.60502835E+02
  0
VERTEX
  8
0
 62
4
 10
-3.65897607E+01
 20
1.60686452E+02
  0
VERTEX
  8
0
 62
4
 10
-3.64736880E+01
 20
1.60908005E+02
  0
VERTEX
  8
0
 62
4
 10
-3.63633233E+01
 20
1.61165808E+02
  0
VERTEX
  8
0
 62
4
 10
-3.62595064E+01
 20
1.61457900E+02
  0
VERTEX
  8
0
 62
4
 10
-3.61630276E+01
 20
1.61782057E+02
  0
VERTEX
  8
0
 62
4
 10
-3.60746210E+01
 20
1.62135813E+02
  0
VERTEX
  8
0
 62
4
 10
-3.59949594E+01
 20
1.62516474E+02
  0
VERTEX
  8
0
 62
4
 10
-3.59246493E+01
 20
1.62921145E+02
  0
VERTEX
  8
0
 62
4
 10
-3.58642256E+01
 20
1.63346744E+02
  0
VERTEX
  8
0
 62
4
 10
-3.58141482E+01
 20
1.63790034E+02
  0
VERTEX
  8
0
 62
4
 10
-3.57747982E+01
 20
1.64247640E+02
  0
VERTEX
  8
0
 62
4
 10
-3.57464752E+01
 20
1.64716080E+02
  0
VERTEX
  8
0
 62
4
 10
-3.57293946E+01
 20
1.65191788E+02
  0
VERTEX
  8
0
 62
4
 10
-3.57236865E+01
 20
1.65671145E+02
  0
VERTEX
  8
0
 62
4
 10
-3.57293943E+01
 20
1.66150501E+02
  0
VERTEX
  8
0
 62
4
 10
-3.57464746E+01
 20
1.66626210E+02
  0
VERTEX
  8
0
 62
4
 10
-3.57747973E+01
 20
1.67094649E+02
  0
VERTEX
  8
0
 62
4
 10
-3.58141470E+01
 20
1.67552255E+02
  0
VERTEX
  8
0
 62
4
 10
-3.58642241E+01
 20
1.67995545E+02
  0
VERTEX
  8
0
 62
4
 10
-3.59246475E+01
 20
1.68421145E+02
  0
VERTEX
  8
0
 62
4
 10
-3.59949574E+01
 20
1.68825815E+02
  0
VERTEX
  8
0
 62
4
 10
-3.60746187E+01
 20
1.69206476E+02
  0
VERTEX
  8
0
 62
4
 10
-3.61630251E+01
 20
1.69560232E+02
  0
VERTEX
  8
0
 62
4
 10
-3.62595038E+01
 20
1.69884389E+02
  0
VERTEX
  8
0
 62
4
 10
-3.63633204E+01
 20
1.70176481E+02
  0
VERTEX
  8
0
 62
4
 10
-3.64736850E+01
 20
1.70434284E+02
  0
VERTEX
  8
0
 62
4
 10
-3.65897575E+01
 20
1.70655838E+02
  0
VERTEX
  8
0
 62
4
 10
-3.67106546E+01
 20
1.70839454E+02
  0
VERTEX
  8
0
 62
4
 10
-3.68354562E+01
 20
1.70983737E+02
  0
VERTEX
  8
0
 62
4
 10
-3.69632125E+01
 20
1.71087588E+02
  0
VERTEX
  8
0
 62
4
 10
-3.70929512E+01
 20
1.71150216E+02
  0
VERTEX
  8
0
 62
4
 10
-3.72236848E+01
 20
1.71171145E+02
  0
SEQEND
  8
0
  0
LINE
  8
0
 62
4
 10
-7.30509766E+00
 20
-3.50216770E+01
 11
7.84490234E+00
 21
-3.50216770E+01
  0
LINE
  8
0
 62
4
 10
-7.80509766E+00
 20
-3.45216770E+01
 11
-7.80509766E+00
 21
-3.35216770E+01
  0
LINE
  8
0
 62
4
 10
8.34490234E+00
 20
-3.45216770E+01
 11
8.34490234E+00
 21
-3.35216770E+01
  0
LINE
  8
0
 62
4
 10
7.84490234E+00
 20
-3.50216770E+01
 11
8.34490234E+00
 21
-3.45216770E+01
  0
LINE
  8
0
 62
4
 10
-7.30509766E+00
 20
-3.50216770E+01
 11
-7.80509766E+00
 21
-3.45216770E+01
  0
LINE
  8
0
 62
4
 10
7.02490234E+00
 20
-4.98216770E+01
 11
-6.47509766E+00
 21
-4.98216770E+01
  0
LINE
  8
0
 62
4
 10
8.02490234E+00
 20
-3.68216770E+01
 11
8.02490234E+00
 21
-4.88216770E+01
  0
LINE
  8
0
 62
4
 10
-7.47509766E+00
 20
-3.68216770E+01
 11
-7.47509766E+00
 21
-4.88216770E+01
  0
LINE
  8
0
 62
4
 10
8.02490234E+00
 20
-4.88216770E+01
 11
7.02490234E+00
 21
-4.98216770E+01
  0
LINE
  8
0
 62
4
 10
-6.47509766E+00
 20
-4.98216770E+01
 11
-7.47509766E+00
 21
-4.88216770E+01
  0
LINE
  8
0
 62
4
 10
7.52490234E+00
 20
-3.63216770E+01
 11
-6.97509766E+00
 21
-3.63216770E+01
  0
LINE
  8
0
 62
4
 10
7.52490234E+00
 20
-3.63216770E+01
 11
8.02490234E+00
 21
-3.68216770E+01
  0
LINE
  8
0
 62
4
 10
-6.97509766E+00
 20
-3.63216770E+01
 11
-7.47509766E+00
 21
-3.68216770E+01
  0
LINE
  8
0
 62
4
 10
6.27490234E+00
 20
-3.50216770E+01
 11
6.27490234E+00
 21
-3.63216770E+01
  0
LINE
  8
0
 62
4
 10
-5.72509766E+00
 20
-3.50216770E+01
 11
-5.72509766E+00
 21
-3.63216770E+01
  0
LINE
  8
0
 62
6
 10
-4.97509766E+00
 20
-3.50216770E+01
 11
-4.97509766E+00
 21
-3.63216770E+01
  0
LINE
  8
0
 62
6
 10
5.52490234E+00
 20
-3.50216770E+01
 11
5.52490234E+00
 21
-3.63216770E+01
  0
LINE
  8
0
 62
4
 10
-1.22509766E+00
 20
-3.93216770E+01
 11
-1.22509766E+00
 21
-4.88216770E+01
  0
LINE
  8
0
 62
4
 10
1.77490234E+00
 20
-3.93216770E+01
 11
1.77490234E+00
 21
-4.88216770E+01
  0
LINE
  8
0
 62
4
 10
2.11490234E+00
 20
-3.96016770E+01
 11
2.11490234E+00
 21
-4.93216770E+01
  0
LINE
  8
0
 62
4
 10
-1.56509766E+00
 20
-3.96016770E+01
 11
-1.56509766E+00
 21
-4.93216770E+01
  0
LINE
  8
0
 62
4
 10
-3.38509766E+00
 20
-3.96016770E+01
 11
-3.38509766E+00
 21
-4.93216770E+01
  0
LINE
  8
0
 62
4
 10
-4.04509766E+00
 20
-3.93216770E+01
 11
-4.04509766E+00
 21
-4.88216770E+01
  0
LINE
  8
0
 62
4
 10
-6.16509766E+00
 20
-3.93216770E+01
 11
-6.16509766E+00
 21
-4.88216770E+01
  0
LINE
  8
0
 62
4
 10
-6.73509766E+00
 20
-3.96016770E+01
 11
-6.73509766E+00
 21
-4.93216770E+01
  0
LINE
  8
0
 62
4
 10
-7.33509766E+00
 20
-3.93216770E+01
 11
-7.33509766E+00
 21
-4.88216770E+01
  0
LINE
  8
0
 62
4
 10
3.92490234E+00
 20
-3.96016770E+01
 11
3.92490234E+00
 21
-4.93216770E+01
  0
LINE
  8
0
 62
4
 10
4.58490234E+00
 20
-3.93216770E+01
 11
4.58490234E+00
 21
-4.88216770E+01
  0
LINE
  8
0
 62
4
 10
6.70490234E+00
 20
-3.93216770E+01
 11
6.70490234E+00
 21
-4.88216770E+01
  0
LINE
  8
0
 62
4
 10
7.28490234E+00
 20
-3.96016770E+01
 11
7.28490234E+00
 21
-4.93216770E+01
  0
LINE
  8
0
 62
4
 10
7.87490234E+00
 20
-3.93216770E+01
 11
7.87490234E+00
 21
-4.88216770E+01
  0
LINE
  8
0
 62
4
 10
7.87490234E+00
 20
-3.93216770E+01
 11
6.70490234E+00
 21
-3.93216770E+01
  0
LINE
  8
0
 62
4
 10
7.28490234E+00
 20
-3.96016770E+01
 11
6.70490234E+00
 21
-3.96016770E+01
  0
LINE
  8
0
 62
4
 10
8.02490234E+00
 20
-4.88216770E+01
 11
7.87490234E+00
 21
-4.88216770E+01
  0
LINE
  8
0
 62
4
 10
-1.22509766E+00
 20
-3.93216770E+01
 11
-4.04509766E+00
 21
-3.93216770E+01
  0
LINE
  8
0
 62
4
 10
-1.56509766E+00
 20
-3.96016770E+01
 11
-3.38509766E+00
 21
-3.96016770E+01
  0
LINE
  8
0
 62
4
 10
4.58490234E+00
 20
-3.93216770E+01
 11
1.77490234E+00
 21
-3.93216770E+01
  0
LINE
  8
0
 62
4
 10
3.92490234E+00
 20
-3.96016770E+01
 11
2.11490234E+00
 21
-3.96016770E+01
  0
LINE
  8
0
 62
4
 10
-6.16509766E+00
 20
-3.93216770E+01
 11
-7.33509766E+00
 21
-3.93216770E+01
  0
LINE
  8
0
 62
4
 10
-6.16509766E+00
 20
-3.96016770E+01
 11
-6.73509766E+00
 21
-3.96016770E+01
  0
LINE
  8
0
 62
4
 10
1.77490234E+00
 20
-4.88216770E+01
 11
-1.22509766E+00
 21
-4.88216770E+01
  0
LINE
  8
0
 62
4
 10
-4.04509766E+00
 20
-4.88216770E+01
 11
-6.16509766E+00
 21
-4.88216770E+01
  0
LINE
  8
0
 62
4
 10
-7.33509766E+00
 20
-4.88216770E+01
 11
-7.47509766E+00
 21
-4.88216770E+01
  0
LINE
  8
0
 62
4
 10
6.70490234E+00
 20
-4.88216770E+01
 11
4.58490234E+00
 21
-4.88216770E+01
  0
LINE
  8
0
 62
4
 10
3.92490234E+00
 20
-4.93216770E+01
 11
2.11490234E+00
 21
-4.93216770E+01
  0
LINE
  8
0
 62
4
 10
7.28490234E+00
 20
-4.93216770E+01
 11
7.87490234E+00
 21
-4.88216770E+01
  0
LINE
  8
0
 62
4
 10
3.92490234E+00
 20
-4.93216770E+01
 11
4.58490234E+00
 21
-4.88216770E+01
  0
LINE
  8
0
 62
4
 10
2.11490234E+00
 20
-4.93216770E+01
 11
1.77490234E+00
 21
-4.88216770E+01
  0
LINE
  8
0
 62
4
 10
-1.22509766E+00
 20
-4.88216770E+01
 11
-1.56509766E+00
 21
-4.93216770E+01
  0
LINE
  8
0
 62
4
 10
-3.38509766E+00
 20
-4.93216770E+01
 11
-4.04509766E+00
 21
-4.88216770E+01
  0
LINE
  8
0
 62
4
 10
-6.73509766E+00
 20
-4.93216770E+01
 11
-7.33509766E+00
 21
-4.88216770E+01
  0
LINE
  8
0
 62
4
 10
-6.74509766E+00
 20
-3.96016770E+01
 11
-7.33509766E+00
 21
-3.93216770E+01
  0
LINE
  8
0
 62
4
 10
-3.38509766E+00
 20
-3.96016770E+01
 11
-4.04509766E+00
 21
-3.93216770E+01
  0
LINE
  8
0
 62
4
 10
-1.56509766E+00
 20
-3.96016770E+01
 11
-1.22509766E+00
 21
-3.93216770E+01
  0
LINE
  8
0
 62
4
 10
2.11490234E+00
 20
-3.96016770E+01
 11
1.77490234E+00
 21
-3.93216770E+01
  0
LINE
  8
0
 62
4
 10
3.92490234E+00
 20
-3.96016770E+01
 11
4.58490234E+00
 21
-3.93216770E+01
  0
LINE
  8
0
 62
4
 10
7.28490234E+00
 20
-3.96016770E+01
 11
7.87490234E+00
 21
-3.93216770E+01
  0
LINE
  8
0
 62
4
 10
6.70490234E+00
 20
-4.88216770E+01
 11
6.53490234E+00
 21
-4.93216770E+01
  0
LINE
  8
0
 62
4
 10
-6.16509766E+00
 20
-4.88216770E+01
 11
-5.98509766E+00
 21
-4.93216770E+01
  0
LINE
  8
0
 62
4
 10
-1.56509766E+00
 20
-4.93216770E+01
 11
-3.38509766E+00
 21
-4.93216770E+01
  0
LINE
  8
0
 62
4
 10
7.28490234E+00
 20
-4.93216770E+01
 11
6.53490234E+00
 21
-4.93216770E+01
  0
LINE
  8
0
 62
4
 10
-5.98509766E+00
 20
-4.93216770E+01
 11
-6.73509766E+00
 21
-4.93216770E+01
  0
LINE
  8
0
 62
4
 10
8.02490234E+00
 20
-3.68216770E+01
 11
-7.47509766E+00
 21
-3.68216770E+01
  0
LINE
  8
0
 62
7
 10
1.86849023E+01
 20
-3.35216770E+01
 11
-1.81450977E+01
 21
-3.35216770E+01
  0
LINE
  8
0
 62
7
 10
2.02249023E+01
 20
-1.60216770E+01
 11
2.71349023E+01
 21
-1.60216770E+01
  0
LINE
  8
0
 62
7
 10
2.02249023E+01
 20
1.99683230E+01
 11
2.71349023E+01
 21
1.99683230E+01
  0
LINE
  8
0
 62
7
 10
2.02249023E+01
 20
2.59683230E+01
 11
2.71349023E+01
 21
2.59683230E+01
  0
LINE
  8
0
 62
7
 10
2.71349023E+01
 20
5.99683230E+01
 11
2.27849023E+01
 21
5.99683230E+01
  0
LINE
  8
0
 62
7
 10
-3.31450977E+01
 20
-1.86516770E+01
 11
-3.38750977E+01
 21
6.56683230E+01
  0
LINE
  8
0
 62
7
 10
3.36849023E+01
 20
-1.86516770E+01
 11
3.44249023E+01
 21
6.56683230E+01
  0
LINE
  8
0
 62
7
 10
2.53049023E+01
 20
5.94683230E+01
 11
2.27649023E+01
 21
5.94683230E+01
  0
LINE
  8
0
 62
7
 10
2.02249023E+01
 20
1.94683230E+01
 11
2.53049023E+01
 21
1.94683230E+01
  0
LINE
  8
0
 62
7
 10
2.02249023E+01
 20
2.64683230E+01
 11
2.53049023E+01
 21
2.64683230E+01
  0
LINE
  8
0
 62
7
 10
2.02249023E+01
 20
-1.55216770E+01
 11
2.53049023E+01
 21
-1.55216770E+01
  0
LINE
  8
0
 62
7
 10
2.81349023E+01
 20
1.89683230E+01
 11
2.81349023E+01
 21
-1.50216770E+01
  0
LINE
  8
0
 62
7
 10
2.63049023E+01
 20
1.84683230E+01
 11
2.63049023E+01
 21
-1.45216770E+01
  0
LINE
  8
0
 62
7
 10
1.92249023E+01
 20
1.89683230E+01
 11
1.92249023E+01
 21
-1.50216770E+01
  0
LINE
  8
0
 62
7
 10
1.98449023E+01
 20
-1.65216770E+01
 11
2.73949023E+01
 21
-1.65216770E+01
  0
LINE
  8
0
 62
7
 10
1.98449023E+01
 20
-1.70216770E+01
 11
2.79849023E+01
 21
-1.70216770E+01
  0
LINE
  8
0
 62
7
 10
2.73949023E+01
 20
6.04683230E+01
 11
2.27949023E+01
 21
6.04683230E+01
  0
LINE
  8
0
 62
7
 10
2.79849023E+01
 20
6.09683230E+01
 11
2.28149023E+01
 21
6.09683230E+01
  0
LINE
  8
0
 62
7
 10
1.88449023E+01
 20
5.01983230E+01
 11
1.88449023E+01
 21
-1.60216770E+01
  0
LINE
  8
0
 62
7
 10
1.92249023E+01
 20
5.04383230E+01
 11
1.92249023E+01
 21
2.69683230E+01
  0
LINE
  8
0
 62
7
 10
2.63049023E+01
 20
5.84683230E+01
 11
2.63049023E+01
 21
2.74683230E+01
  0
LINE
  8
0
 62
7
 10
2.81349023E+01
 20
5.89683230E+01
 11
2.81349023E+01
 21
2.69683230E+01
  0
LINE
  8
0
 62
7
 10
2.83949023E+01
 20
5.94683230E+01
 11
2.83949023E+01
 21
-1.55216770E+01
  0
LINE
  8
0
 62
7
 10
2.89849023E+01
 20
5.99683230E+01
 11
2.89849023E+01
 21
-1.60216770E+01
  0
LINE
  8
0
 62
7
 10
-1.96850977E+01
 20
-1.60216770E+01
 11
-2.65950977E+01
 21
-1.60216770E+01
  0
LINE
  8
0
 62
7
 10
-1.96850977E+01
 20
1.99683230E+01
 11
-2.65950977E+01
 21
1.99683230E+01
  0
LINE
  8
0
 62
7
 10
-1.96850977E+01
 20
2.59683230E+01
 11
-2.65950977E+01
 21
2.59683230E+01
  0
LINE
  8
0
 62
7
 10
-2.65950977E+01
 20
5.99683230E+01
 11
-2.22350977E+01
 21
5.99683230E+01
  0
LINE
  8
0
 62
7
 10
-2.47550977E+01
 20
5.94683230E+01
 11
-2.22150977E+01
 21
5.94683230E+01
  0
LINE
  8
0
 62
7
 10
-1.96850977E+01
 20
1.94683230E+01
 11
-2.47550977E+01
 21
1.94683230E+01
  0
LINE
  8
0
 62
7
 10
-1.96850977E+01
 20
2.64683230E+01
 11
-2.47550977E+01
 21
2.64683230E+01
  0
LINE
  8
0
 62
7
 10
-1.96850977E+01
 20
-1.55216770E+01
 11
-2.47550977E+01
 21
-1.55216770E+01
  0
LINE
  8
0
 62
7
 10
-2.75950977E+01
 20
1.89683230E+01
 11
-2.75950977E+01
 21
-1.50216770E+01
  0
LINE
  8
0
 62
7
 10
-2.57550977E+01
 20
1.84683230E+01
 11
-2.57550977E+01
 21
-1.45216770E+01
  0
LINE
  8
0
 62
7
 10
-1.86850977E+01
 20
1.89683230E+01
 11
-1.86850977E+01
 21
-1.50216770E+01
  0
LINE
  8
0
 62
7
 10
-1.93050977E+01
 20
-1.65216770E+01
 11
-2.68450977E+01
 21
-1.65216770E+01
  0
LINE
  8
0
 62
7
 10
-1.93050977E+01
 20
-1.70216770E+01
 11
-2.74450977E+01
 21
-1.70216770E+01
  0
LINE
  8
0
 62
7
 10
-2.68450977E+01
 20
6.04683230E+01
 11
-2.22550977E+01
 21
6.04683230E+01
  0
LINE
  8
0
 62
7
 10
-2.74450977E+01
 20
6.09683230E+01
 11
-2.22750977E+01
 21
6.09683230E+01
  0
LINE
  8
0
 62
7
 10
-1.83050977E+01
 20
5.01983230E+01
 11
-1.83050977E+01
 21
-1.60216770E+01
  0
LINE
  8
0
 62
7
 10
-1.86850977E+01
 20
5.04383230E+01
 11
-1.86850977E+01
 21
2.69683230E+01
  0
LINE
  8
0
 62
7
 10
-2.57550977E+01
 20
5.84683230E+01
 11
-2.57550977E+01
 21
2.74683230E+01
  0
LINE
  8
0
 62
7
 10
-2.75950977E+01
 20
5.89683230E+01
 11
-2.75950977E+01
 21
2.69683230E+01
  0
LINE
  8
0
 62
7
 10
-2.78450977E+01
 20
5.94683230E+01
 11
-2.78450977E+01
 21
-1.55216770E+01
  0
LINE
  8
0
 62
7
 10
-2.84450977E+01
 20
5.99683230E+01
 11
-2.84450977E+01
 21
-1.60216770E+01
  0
LINE
  8
0
 62
4
 10
-7.80509766E+00
 20
-3.45216770E+01
 11
8.34490234E+00
 21
-3.45216770E+01
  0
ARC
  8
0
 62
7
 10
1.86922881E+01
 20
-1.85285590E+01
 40
1.49931198E+01
 50
2.69971776E+02
 51
3.59529503E+02
  0
ARC
  8
0
 62
7
 10
-1.81461190E+01
 20
-1.85221390E+01
 40
1.49995380E+01
 50
1.80494820E+02
 51
2.70003901E+02
  0
ARC
  8
0
 62
7
 10
2.53060190E+01
 20
1.84694397E+01
 40
9.98883996E-01
 50
3.59935950E+02
 51
9.00640494E+01
  0
ARC
  8
0
 62
7
 10
2.02276733E+01
 20
1.84655521E+01
 40
1.00277478E+00
 50
9.01583250E+01
 51
1.79841675E+02
  0
ARC
  8
0
 62
7
 10
2.02276733E+01
 20
1.89655521E+01
 40
1.00277478E+00
 50
9.01583250E+01
 51
1.79841675E+02
  0
ARC
  8
0
 62
7
 10
2.02255662E+01
 20
-1.45210131E+01
 40
1.00066408E+00
 50
1.80038012E+02
 51
2.70000000E+02
  0
ARC
  8
0
 62
7
 10
2.02255662E+01
 20
-1.50210131E+01
 40
1.00066408E+00
 50
1.80038012E+02
 51
2.70000000E+02
  0
ARC
  8
0
 62
7
 10
1.98437816E+01
 20
-1.55227977E+01
 40
9.98879869E-01
 50
1.79935713E+02
 51
2.70064287E+02
  0
ARC
  8
0
 62
7
 10
1.98437816E+01
 20
-1.60227977E+01
 40
9.98879869E-01
 50
1.79935713E+02
 51
2.70064287E+02
  0
ARC
  8
0
 62
7
 10
2.53081343E+01
 20
-1.45249089E+01
 40
9.96773303E-01
 50
2.69814224E+02
 51
1.85776076E-01
  0
ARC
  8
0
 62
7
 10
2.71382567E+01
 20
1.89716774E+01
 40
9.96651269E-01
 50
3.59807162E+02
 51
9.01928377E+01
  0
ARC
  8
0
 62
7
 10
2.71403768E+01
 20
-1.50271514E+01
 40
9.94540639E-01
 50
2.69684615E+02
 51
3.15384992E-01
  0
ARC
  8
0
 62
7
 10
2.73989134E+01
 20
-1.55256880E+01
 40
9.95997067E-01
 50
2.69769262E+02
 51
2.30738191E-01
  0
ARC
  8
0
 62
7
 10
2.79925020E+01
 20
-1.60292766E+01
 40
9.92429424E-01
 50
2.69561245E+02
 51
4.38755150E-01
  0
ARC
  8
0
 62
7
 10
2.53060190E+01
 20
5.84694397E+01
 40
9.98883996E-01
 50
3.59935950E+02
 51
9.00640494E+01
  0
ARC
  8
0
 62
7
 10
2.71382567E+01
 20
5.89716774E+01
 40
9.96651269E-01
 50
3.59807162E+02
 51
9.01928377E+01
  0
ARC
  8
0
 62
7
 10
2.73967964E+01
 20
5.94702171E+01
 40
9.98107743E-01
 50
3.59891273E+02
 51
9.01087269E+01
  0
ARC
  8
0
 62
7
 10
2.79903775E+01
 20
5.99737981E+01
 40
9.94539954E-01
 50
3.59684575E+02
 51
9.03154249E+01
  0
ARC
  8
0
 62
7
 10
2.02305324E+01
 20
2.74739530E+01
 40
1.00564578E+00
 50
1.80320767E+02
 51
2.69679233E+02
  0
ARC
  8
0
 62
7
 10
2.02305324E+01
 20
2.69739530E+01
 40
1.00564578E+00
 50
1.80320767E+02
 51
2.69679233E+02
  0
ARC
  8
0
 62
7
 10
2.53031488E+01
 20
2.74700766E+01
 40
1.00175509E+00
 50
2.70100295E+02
 51
3.59899704E+02
  0
ARC
  8
0
 62
7
 10
2.71353801E+01
 20
2.69678453E+01
 40
9.99522342E-01
 50
2.70000000E+02
 51
2.73874077E-02
  0
ARC
  8
0
 62
7
 10
-2.47549298E+01
 20
1.84681552E+01
 40
1.00016789E+00
 50
9.00000002E+01
 51
1.79990383E+02
  0
ARC
  8
0
 62
7
 10
-1.96815258E+01
 20
1.84718949E+01
 40
9.96434565E-01
 50
3.59794616E+02
 51
9.02053838E+01
  0
ARC
  8
0
 62
7
 10
-1.96815258E+01
 20
1.89718949E+01
 40
9.96434565E-01
 50
3.59794616E+02
 51
9.02053838E+01
  0
ARC
  8
0
 62
7
 10
-1.96794053E+01
 20
-1.45273693E+01
 40
9.94323943E-01
 50
2.69671989E+02
 51
3.28011270E-01
  0
ARC
  8
0
 62
7
 10
-1.96794053E+01
 20
-1.50273693E+01
 40
9.94323943E-01
 50
2.69671989E+02
 51
3.28011270E-01
  0
ARC
  8
0
 62
7
 10
-1.92976548E+01
 20
-1.55291198E+01
 40
9.92585028E-01
 50
2.69570365E+02
 51
4.29635222E-01
  0
ARC
  8
0
 62
7
 10
-1.92976548E+01
 20
-1.60291198E+01
 40
9.92585028E-01
 50
2.69570365E+02
 51
4.29635222E-01
  0
ARC
  8
0
 62
7
 10
-2.47570424E+01
 20
-1.45236217E+01
 40
9.98057177E-01
 50
1.79888359E+02
 51
2.70111641E+02
  0
ARC
  8
0
 62
7
 10
-2.65920465E+01
 20
1.89652718E+01
 40
1.00305583E+00
 50
9.01742876E+01
 51
1.79825712E+02
  0
ARC
  8
0
 62
7
 10
-2.65941530E+01
 20
-1.50207323E+01
 40
1.00094513E+00
 50
1.80054076E+02
 51
2.70000000E+02
  0
ARC
  8
0
 62
7
 10
-2.68477305E+01
 20
-1.55243098E+01
 40
9.97370647E-01
 50
1.79848752E+02
 51
2.70151248E+02
  0
ARC
  8
0
 62
7
 10
-2.74463839E+01
 20
-1.60229632E+01
 40
9.98714609E-01
 50
1.79926210E+02
 51
2.70073790E+02
  0
ARC
  8
0
 62
7
 10
-2.47549298E+01
 20
5.84681552E+01
 40
1.00016789E+00
 50
9.00000002E+01
 51
1.79990383E+02
  0
ARC
  8
0
 62
7
 10
-2.65920465E+01
 20
5.89652718E+01
 40
1.00305583E+00
 50
9.01742876E+01
 51
1.79825712E+02
  0
ARC
  8
0
 62
7
 10
-2.68456164E+01
 20
5.94688418E+01
 40
9.99481349E-01
 50
9.00000002E+01
 51
1.80029740E+02
  0
ARC
  8
0
 62
7
 10
-2.74442727E+01
 20
5.99674980E+01
 40
1.00082532E+00
 50
9.00000002E+01
 51
1.79952771E+02
  0
ARC
  8
0
 62
7
 10
-1.96844030E+01
 20
2.74676284E+01
 40
9.99305633E-01
 50
2.70000000E+02
 51
3.98258124E-02
  0
ARC
  8
0
 62
7
 10
-1.96844030E+01
 20
2.69676284E+01
 40
9.99305633E-01
 50
2.70000000E+02
 51
3.98258124E-02
  0
ARC
  8
0
 62
7
 10
-2.47520633E+01
 20
2.74713574E+01
 40
1.00303897E+00
 50
1.80173330E+02
 51
2.69826669E+02
  0
ARC
  8
0
 62
7
 10
-2.65891882E+01
 20
2.69742325E+01
 40
1.00592681E+00
 50
1.80336594E+02
 51
2.69663407E+02
  0
LINE
  8
0
 62
7
 10
-2.34736880E+01
 20
1.28671156E+02
 11
-2.34736865E+01
 21
1.33371156E+02
  0
LINE
  8
0
 62
7
 10
-2.34736880E+01
 20
1.28671156E+02
 11
-2.39936881E+01
 21
1.28371156E+02
  0
LINE
  8
0
 62
7
 10
-3.19736880E+01
 20
1.28671159E+02
 11
-2.34736880E+01
 21
1.28671156E+02
  0
LINE
  8
0
 62
7
 10
-3.14536881E+01
 20
1.28371159E+02
 11
-2.39936881E+01
 21
1.28371156E+02
  0
LINE
  8
0
 62
7
 10
-3.19736880E+01
 20
1.28671159E+02
 11
-3.14536881E+01
 21
1.28371159E+02
  0
LINE
  8
0
 62
7
 10
-3.19736880E+01
 20
1.28671159E+02
 11
-3.19736865E+01
 21
1.33371159E+02
  0
LINE
  8
0
 62
7
 10
-3.19736880E+01
 20
2.04371129E+02
 11
-3.19736865E+01
 21
1.99671129E+02
  0
LINE
  8
0
 62
7
 10
-3.19736880E+01
 20
2.04371129E+02
 11
-3.14536881E+01
 21
2.04671129E+02
  0
LINE
  8
0
 62
7
 10
-2.34736880E+01
 20
2.04371131E+02
 11
-3.19736880E+01
 21
2.04371129E+02
  0
LINE
  8
0
 62
7
 10
-2.39936881E+01
 20
2.04671131E+02
 11
-3.14536881E+01
 21
2.04671129E+02
  0
LINE
  8
0
 62
7
 10
-2.34736880E+01
 20
2.04371131E+02
 11
-2.39936881E+01
 21
2.04671131E+02
  0
LINE
  8
0
 62
7
 10
-2.34736880E+01
 20
2.04371131E+02
 11
-2.34736865E+01
 21
1.99671131E+02
  0
LINE
  8
0
 62
7
 10
3.25261899E+01
 20
1.28671156E+02
 11
3.25261914E+01
 21
1.33371156E+02
  0
LINE
  8
0
 62
7
 10
3.25261899E+01
 20
1.28671156E+02
 11
3.20061898E+01
 21
1.28371156E+02
  0
LINE
  8
0
 62
7
 10
2.40261899E+01
 20
1.28671159E+02
 11
3.25261899E+01
 21
1.28671156E+02
  0
LINE
  8
0
 62
7
 10
2.45461898E+01
 20
1.28371159E+02
 11
3.20061898E+01
 21
1.28371156E+02
  0
LINE
  8
0
 62
7
 10
2.40261899E+01
 20
1.28671159E+02
 11
2.45461898E+01
 21
1.28371159E+02
  0
LINE
  8
0
 62
7
 10
2.40261899E+01
 20
1.28671159E+02
 11
2.40261914E+01
 21
1.33371159E+02
  0
LINE
  8
0
 62
7
 10
2.40261899E+01
 20
2.04371129E+02
 11
2.40261914E+01
 21
1.99671129E+02
  0
LINE
  8
0
 62
7
 10
2.40261899E+01
 20
2.04371129E+02
 11
2.45461898E+01
 21
2.04671129E+02
  0
LINE
  8
0
 62
7
 10
3.25261899E+01
 20
2.04371131E+02
 11
2.40261899E+01
 21
2.04371129E+02
  0
LINE
  8
0
 62
7
 10
3.20061898E+01
 20
2.04671131E+02
 11
2.45461898E+01
 21
2.04671129E+02
  0
LINE
  8
0
 62
7
 10
3.25261899E+01
 20
2.04371131E+02
 11
3.20061898E+01
 21
2.04671131E+02
  0
LINE
  8
0
 62
7
 10
3.25261899E+01
 20
2.04371131E+02
 11
3.25261914E+01
 21
1.99671131E+02
  0
LINE
  8
0
  6
CENTER
 62
2
 10
4.12749023E+01
 20
1.95178323E+02
 11
6.74149023E+01
 21
1.95178323E+02
  0
LINE
  8
0
 62
4
 10
1.91385494E+02
 20
-3.50216770E+01
 11
2.06535494E+02
 21
-3.50216770E+01
  0
LINE
  8
0
 62
4
 10
1.90885494E+02
 20
-3.45216770E+01
 11
1.90885494E+02
 21
-3.35216770E+01
  0
LINE
  8
0
 62
4
 10
2.07035494E+02
 20
-3.45216770E+01
 11
2.07035494E+02
 21
-3.35216770E+01
  0
LINE
  8
0
 62
4
 10
2.06535494E+02
 20
-3.50216770E+01
 11
2.07035494E+02
 21
-3.45216770E+01
  0
LINE
  8
0
 62
4
 10
1.91385494E+02
 20
-3.50216770E+01
 11
1.90885494E+02
 21
-3.45216770E+01
  0
LINE
  8
0
 62
4
 10
2.05715494E+02
 20
-4.98116770E+01
 11
1.92215494E+02
 21
-4.98116770E+01
  0
LINE
  8
0
 62
4
 10
2.06715494E+02
 20
-3.68116770E+01
 11
2.06715494E+02
 21
-4.88116770E+01
  0
LINE
  8
0
 62
4
 10
1.91215494E+02
 20
-3.68116770E+01
 11
1.91215494E+02
 21
-4.88116770E+01
  0
LINE
  8
0
 62
4
 10
2.06715494E+02
 20
-4.88116770E+01
 11
2.05715494E+02
 21
-4.98116770E+01
  0
LINE
  8
0
 62
4
 10
1.92215494E+02
 20
-4.98116770E+01
 11
1.91215494E+02
 21
-4.88116770E+01
  0
LINE
  8
0
 62
4
 10
2.06215494E+02
 20
-3.63116770E+01
 11
1.91715494E+02
 21
-3.63116770E+01
  0
LINE
  8
0
 62
4
 10
2.06215494E+02
 20
-3.63116770E+01
 11
2.06715494E+02
 21
-3.68116770E+01
  0
LINE
  8
0
 62
4
 10
1.91715494E+02
 20
-3.63116770E+01
 11
1.91215494E+02
 21
-3.68116770E+01
  0
LINE
  8
0
 62
4
 10
2.04965494E+02
 20
-3.50216770E+01
 11
2.04965494E+02
 21
-3.63116770E+01
  0
LINE
  8
0
 62
4
 10
1.92965494E+02
 20
-3.50216770E+01
 11
1.92965494E+02
 21
-3.63116770E+01
  0
LINE
  8
0
 62
6
 10
1.93715494E+02
 20
-3.50216770E+01
 11
1.93715494E+02
 21
-3.63116770E+01
  0
LINE
  8
0
 62
6
 10
2.04215494E+02
 20
-3.50216770E+01
 11
2.04215494E+02
 21
-3.63116770E+01
  0
LINE
  8
0
 62
4
 10
1.97465494E+02
 20
-3.93116770E+01
 11
1.97465494E+02
 21
-4.88116770E+01
  0
LINE
  8
0
 62
4
 10
2.00465494E+02
 20
-3.93116770E+01
 11
2.00465494E+02
 21
-4.88116770E+01
  0
LINE
  8
0
 62
4
 10
2.00805494E+02
 20
-3.96016770E+01
 11
2.00805494E+02
 21
-4.93116770E+01
  0
LINE
  8
0
 62
4
 10
1.97125494E+02
 20
-3.96016770E+01
 11
1.97125494E+02
 21
-4.93116770E+01
  0
LINE
  8
0
 62
4
 10
1.95305494E+02
 20
-3.96016770E+01
 11
1.95305494E+02
 21
-4.93116770E+01
  0
LINE
  8
0
 62
4
 10
1.94645494E+02
 20
-3.93116770E+01
 11
1.94645494E+02
 21
-4.88116770E+01
  0
LINE
  8
0
 62
4
 10
1.92525494E+02
 20
-3.93116770E+01
 11
1.92525494E+02
 21
-4.88116770E+01
  0
LINE
  8
0
 62
4
 10
1.91955494E+02
 20
-3.96016770E+01
 11
1.91955494E+02
 21
-4.93116770E+01
  0
LINE
  8
0
 62
4
 10
1.91355494E+02
 20
-3.93116770E+01
 11
1.91355494E+02
 21
-4.88116770E+01
  0
LINE
  8
0
 62
4
 10
2.02615494E+02
 20
-3.96016770E+01
 11
2.02615494E+02
 21
-4.93116770E+01
  0
LINE
  8
0
 62
4
 10
2.03275494E+02
 20
-3.93116770E+01
 11
2.03275494E+02
 21
-4.88116770E+01
  0
LINE
  8
0
 62
4
 10
2.05405494E+02
 20
-3.93116770E+01
 11
2.05405494E+02
 21
-4.88116770E+01
  0
LINE
  8
0
 62
4
 10
2.05975494E+02
 20
-3.96016770E+01
 11
2.05975494E+02
 21
-4.93116770E+01
  0
LINE
  8
0
 62
4
 10
2.06565494E+02
 20
-3.93116770E+01
 11
2.06565494E+02
 21
-4.88116770E+01
  0
LINE
  8
0
 62
4
 10
2.06565494E+02
 20
-3.93116770E+01
 11
2.05405494E+02
 21
-3.93116770E+01
  0
LINE
  8
0
 62
4
 10
2.05975494E+02
 20
-3.96016770E+01
 11
2.05405494E+02
 21
-3.96016770E+01
  0
LINE
  8
0
 62
4
 10
2.06715494E+02
 20
-4.88116770E+01
 11
2.06565494E+02
 21
-4.88116770E+01
  0
LINE
  8
0
 62
4
 10
1.97465494E+02
 20
-3.93116770E+01
 11
1.94645494E+02
 21
-3.93116770E+01
  0
LINE
  8
0
 62
4
 10
1.97125494E+02
 20
-3.96016770E+01
 11
1.95305494E+02
 21
-3.96016770E+01
  0
LINE
  8
0
 62
4
 10
2.03275494E+02
 20
-3.93116770E+01
 11
2.00465494E+02
 21
-3.93116770E+01
  0
LINE
  8
0
 62
4
 10
2.02615494E+02
 20
-3.96016770E+01
 11
2.00805494E+02
 21
-3.96016770E+01
  0
LINE
  8
0
 62
4
 10
1.92525494E+02
 20
-3.93116770E+01
 11
1.91355494E+02
 21
-3.93116770E+01
  0
LINE
  8
0
 62
4
 10
1.92525494E+02
 20
-3.96016770E+01
 11
1.91955494E+02
 21
-3.96016770E+01
  0
LINE
  8
0
 62
4
 10
2.00465494E+02
 20
-4.88116770E+01
 11
1.97465494E+02
 21
-4.88116770E+01
  0
LINE
  8
0
 62
4
 10
1.94645494E+02
 20
-4.88116770E+01
 11
1.92525494E+02
 21
-4.88116770E+01
  0
LINE
  8
0
 62
4
 10
1.91355494E+02
 20
-4.88116770E+01
 11
1.91215494E+02
 21
-4.88116770E+01
  0
LINE
  8
0
 62
4
 10
2.05405494E+02
 20
-4.88116770E+01
 11
2.03275494E+02
 21
-4.88116770E+01
  0
LINE
  8
0
 62
4
 10
2.02615494E+02
 20
-4.93116770E+01
 11
2.00805494E+02
 21
-4.93116770E+01
  0
LINE
  8
0
 62
4
 10
2.05975494E+02
 20
-4.93116770E+01
 11
2.06565494E+02
 21
-4.88116770E+01
  0
LINE
  8
0
 62
4
 10
2.02615494E+02
 20
-4.93116770E+01
 11
2.03275494E+02
 21
-4.88116770E+01
  0
LINE
  8
0
 62
4
 10
2.00805494E+02
 20
-4.93116770E+01
 11
2.00465494E+02
 21
-4.88116770E+01
  0
LINE
  8
0
 62
4
 10
1.97465494E+02
 20
-4.88116770E+01
 11
1.97125494E+02
 21
-4.93116770E+01
  0
LINE
  8
0
 62
4
 10
1.95305494E+02
 20
-4.93116770E+01
 11
1.94645494E+02
 21
-4.88116770E+01
  0
LINE
  8
0
 62
4
 10
1.91955494E+02
 20
-4.93116770E+01
 11
1.91355494E+02
 21
-4.88116770E+01
  0
LINE
  8
0
 62
4
 10
1.91955494E+02
 20
-3.96016770E+01
 11
1.91355494E+02
 21
-3.93116770E+01
  0
LINE
  8
0
 62
4
 10
1.95305494E+02
 20
-3.96016770E+01
 11
1.94645494E+02
 21
-3.93116770E+01
  0
LINE
  8
0
 62
4
 10
1.97125494E+02
 20
-3.96016770E+01
 11
1.97465494E+02
 21
-3.93116770E+01
  0
LINE
  8
0
 62
4
 10
2.00805494E+02
 20
-3.96016770E+01
 11
2.00465494E+02
 21
-3.93116770E+01
  0
LINE
  8
0
 62
4
 10
2.02615494E+02
 20
-3.96016770E+01
 11
2.03275494E+02
 21
-3.93116770E+01
  0
LINE
  8
0
 62
4
 10
2.05975494E+02
 20
-3.96016770E+01
 11
2.06565494E+02
 21
-3.93116770E+01
  0
LINE
  8
0
 62
4
 10
2.05405494E+02
 20
-4.88116770E+01
 11
2.05225494E+02
 21
-4.93116770E+01
  0
LINE
  8
0
 62
4
 10
1.92525494E+02
 20
-4.88116770E+01
 11
1.92705494E+02
 21
-4.93116770E+01
  0
LINE
  8
0
 62
4
 10
1.97125494E+02
 20
-4.93116770E+01
 11
1.95305494E+02
 21
-4.93116770E+01
  0
LINE
  8
0
 62
4
 10
2.05975494E+02
 20
-4.93116770E+01
 11
2.05225494E+02
 21
-4.93116770E+01
  0
LINE
  8
0
 62
4
 10
1.92705494E+02
 20
-4.93116770E+01
 11
1.91955494E+02
 21
-4.93116770E+01
  0
LINE
  8
0
 62
4
 10
2.06715494E+02
 20
-3.68116770E+01
 11
1.91215494E+02
 21
-3.68116770E+01
  0
LINE
  8
0
 62
4
 10
2.04965494E+02
 20
-5.13116770E+01
 11
1.92965494E+02
 21
-5.13116770E+01
  0
LINE
  8
0
 62
4
 10
2.05465494E+02
 20
-5.08116770E+01
 11
2.05465494E+02
 21
-4.98116770E+01
  0
LINE
  8
0
 62
4
 10
1.92465494E+02
 20
-5.08116770E+01
 11
1.92465494E+02
 21
-4.98116770E+01
  0
LINE
  8
0
 62
4
 10
1.92465494E+02
 20
-5.08116770E+01
 11
1.92965494E+02
 21
-5.13116770E+01
  0
LINE
  8
0
 62
4
 10
2.04965494E+02
 20
-5.13116770E+01
 11
2.05465494E+02
 21
-5.08116770E+01
  0
LINE
  8
0
 62
4
 10
2.01795494E+02
 20
-5.83116770E+01
 11
1.96135494E+02
 21
-5.83116770E+01
  0
LINE
  8
0
 62
4
 10
1.95715494E+02
 20
-5.59116770E+01
 11
1.95715494E+02
 21
-5.57116770E+01
  0
LINE
  8
0
 62
4
 10
2.02215494E+02
 20
-5.59116770E+01
 11
2.02215494E+02
 21
-5.57116770E+01
  0
LINE
  8
0
 62
4
 10
2.02215494E+02
 20
-5.57116770E+01
 11
1.95715494E+02
 21
-5.57116770E+01
  0
LINE
  8
0
 62
4
 10
2.02215494E+02
 20
-5.31116770E+01
 11
1.95715494E+02
 21
-5.31116770E+01
  0
LINE
  8
0
 62
4
 10
2.02215494E+02
 20
-5.33116770E+01
 11
1.95715494E+02
 21
-5.33116770E+01
  0
LINE
  8
0
 62
4
 10
2.02215494E+02
 20
-5.59116770E+01
 11
1.95715494E+02
 21
-5.59116770E+01
  0
LINE
  8
0
 62
4
 10
1.95715494E+02
 20
-5.33116770E+01
 11
1.95715494E+02
 21
-5.31116770E+01
  0
LINE
  8
0
 62
4
 10
2.02215494E+02
 20
-5.33116770E+01
 11
2.02215494E+02
 21
-5.31116770E+01
  0
LINE
  8
0
 62
4
 10
1.95715494E+02
 20
-5.33116770E+01
 11
1.96135494E+02
 21
-5.57116770E+01
  0
LINE
  8
0
 62
4
 10
1.95715494E+02
 20
-5.59116770E+01
 11
1.96135494E+02
 21
-5.83116770E+01
  0
LINE
  8
0
 62
4
 10
2.02215494E+02
 20
-5.59116770E+01
 11
2.01795494E+02
 21
-5.83116770E+01
  0
LINE
  8
0
 62
4
 10
2.02215494E+02
 20
-5.33116770E+01
 11
2.01795494E+02
 21
-5.57116770E+01
  0
LINE
  8
0
 62
4
 10
2.01815494E+02
 20
-5.31116770E+01
 11
2.01815494E+02
 21
-5.13116770E+01
  0
LINE
  8
0
 62
4
 10
1.96115494E+02
 20
-5.31116770E+01
 11
1.96115494E+02
 21
-5.13116770E+01
  0
LINE
  8
0
 62
4
 10
1.92465494E+02
 20
-5.08116770E+01
 11
2.05465494E+02
 21
-5.08116770E+01
  0
LINE
  8
0
 62
4
 10
1.90885494E+02
 20
-3.45216770E+01
 11
2.07035494E+02
 21
-3.45216770E+01
  0
LINE
  8
0
 62
4
 10
-3.39026743E+02
 20
-1.77686026E+02
 11
-3.29076742E+02
 21
-1.73676026E+02
  0
LINE
  8
0
 62
4
 10
-3.39026743E+02
 20
-1.77686026E+02
 11
-3.28616742E+02
 21
-1.75096026E+02
  0
CIRCLE
  8
0
 62
4
 10
-3.27626742E+02
 20
-1.73986052E+02
 40
1.75000003E+01
  0
CIRCLE
  8
0
 62
4
 10
-3.27616742E+02
 20
-1.73986026E+02
 40
1.75000003E+01
  0
CIRCLE
  8
0
 62
4
 10
-3.27616742E+02
 20
-1.73986026E+02
 40
2.07500004E+01
  0
CIRCLE
  8
0
 62
4
 10
-3.27616742E+02
 20
-1.73986026E+02
 40
2.12500004E+01
  0
LINE
  8
0
  6
CENTER
 62
2
 10
-3.27616742E+02
 20
-1.29986025E+02
 11
-3.27616742E+02
 21
-2.22743170E+02
  0
LINE
  8
0
  6
CENTER
 62
2
 10
-2.87556027E+02
 20
-1.73986026E+02
 11
-3.67690585E+02
 21
-1.73986026E+02
  0
LINE
  8
0
 62
4
 10
-3.26776742E+02
 20
-1.72746026E+02
 11
-3.23366742E+02
 21
-1.71366026E+02
  0
LINE
  8
0
 62
4
 10
-3.26206742E+02
 20
-1.74496026E+02
 11
-3.22636742E+02
 21
-1.73606026E+02
  0
ARC
  8
0
 62
4
 10
-3.27613846E+02
 20
-1.73984857E+02
 40
1.49513991E+00
 50
5.59523004E+01
 51
1.68079377E+02
  0
ARC
  8
0
 62
4
 10
-3.27613597E+02
 20
-1.73985241E+02
 40
1.49671067E+00
 50
2.27914952E+02
 51
3.40045629E+02
  0
LINE
  8
0
 62
4
 10
-3.21916742E+02
 20
-1.72136026E+02
 11
-3.22636742E+02
 21
-1.73606026E+02
  0
LINE
  8
0
 62
4
 10
-3.23366742E+02
 20
-1.71366026E+02
 11
-3.21916742E+02
 21
-1.72136026E+02
  0
LINE
  8
0
  6
CENTER
 62
2
 10
-1.88331025E+02
 20
-1.73986026E+02
 11
-2.67641395E+02
 21
-1.73986026E+02
  0
LINE
  8
0
 62
6
 10
-2.34839396E+02
 20
-1.66986026E+02
 11
-2.27339396E+02
 21
-1.80986026E+02
  0
LINE
  8
0
 62
6
 10
-2.34839396E+02
 20
-1.80986026E+02
 11
-2.27339396E+02
 21
-1.66986026E+02
  0
LINE
  8
0
 62
4
 10
-2.34839396E+02
 20
-1.66986026E+02
 11
-2.27339396E+02
 21
-1.66986026E+02
  0
LINE
  8
0
 62
4
 10
-2.34839396E+02
 20
-1.80986026E+02
 11
-2.27339396E+02
 21
-1.80986026E+02
  0
LINE
  8
0
 62
4
 10
-2.34839396E+02
 20
-1.54986026E+02
 11
-2.34839396E+02
 21
-1.92986026E+02
  0
ARC
  8
0
 62
4
 10
-2.36839395E+02
 20
-1.92986028E+02
 40
1.99999847E+00
 50
2.70000000E+02
 51
4.37132276E-05
  0
ARC
  8
0
 62
4
 10
-2.36839395E+02
 20
-1.54986024E+02
 40
1.99999847E+00
 50
3.59999956E+02
 51
9.00000002E+01
  0
LINE
  8
0
 62
4
 10
-2.61339396E+02
 20
-1.53736026E+02
 11
-2.61339396E+02
 21
-1.94236026E+02
  0
LINE
  8
0
 62
4
 10
-2.58339396E+02
 20
-1.52736026E+02
 11
-2.58339396E+02
 21
-1.95236026E+02
  0
LINE
  8
0
 62
4
 10
-2.60339396E+02
 20
-1.52736026E+02
 11
-2.60339396E+02
 21
-1.95236026E+02
  0
LINE
  8
0
 62
4
 10
-2.61339396E+02
 20
-1.53736026E+02
 11
-2.60339396E+02
 21
-1.52736026E+02
  0
LINE
  8
0
 62
4
 10
-2.60339396E+02
 20
-1.52736026E+02
 11
-2.58339396E+02
 21
-1.52736026E+02
  0
LINE
  8
0
 62
4
 10
-2.61339396E+02
 20
-1.94236026E+02
 11
-2.60339396E+02
 21
-1.95236026E+02
  0
LINE
  8
0
 62
4
 10
-2.60339396E+02
 20
-1.95236026E+02
 11
-2.58339396E+02
 21
-1.95236026E+02
  0
LINE
  8
0
 62
4
 10
-2.58339396E+02
 20
-1.94986026E+02
 11
-2.36839396E+02
 21
-1.94986026E+02
  0
LINE
  8
0
 62
4
 10
-2.58339396E+02
 20
-1.52986026E+02
 11
-2.36839396E+02
 21
-1.52986026E+02
  0
LINE
  8
0
 62
4
 10
-2.27339396E+02
 20
-1.80746026E+02
 11
-2.21337574E+02
 21
-1.80560515E+02
  0
LINE
  8
0
 62
4
 10
-2.27339396E+02
 20
-1.67226026E+02
 11
-2.21337574E+02
 21
-1.67411537E+02
  0
LINE
  8
0
 62
6
 10
-2.25339396E+02
 20
-1.68146026E+02
 11
-2.21337574E+02
 21
-1.68268281E+02
  0
LINE
  8
0
 62
6
 10
-2.25339396E+02
 20
-1.79826026E+02
 11
-2.21337574E+02
 21
-1.79703771E+02
  0
LINE
  8
0
 62
4
 10
-2.27339396E+02
 20
-1.66986026E+02
 11
-2.27339396E+02
 21
-1.80986026E+02
  0
LINE
  8
0
 62
4
 10
-2.25339396E+02
 20
-1.67286026E+02
 11
-2.25339396E+02
 21
-1.80686026E+02
  0
LINE
  8
0
 62
4
 10
-2.21331026E+02
 20
-1.60986026E+02
 11
-2.21331026E+02
 21
-1.86986026E+02
  0
LINE
  8
0
 62
4
 10
-2.08831026E+02
 20
-1.60986026E+02
 11
-2.08831026E+02
 21
-1.86986026E+02
  0
ARC
  8
0
 62
4
 10
-2.10841364E+02
 20
-1.60996364E+02
 40
2.01036479E+00
 50
2.94641222E-01
 51
8.97053589E+01
  0
ARC
  8
0
 62
4
 10
-2.19329010E+02
 20
-1.60988042E+02
 40
2.00201712E+00
 50
9.00576982E+01
 51
1.79942302E+02
  0
LINE
  8
0
 62
4
 10
-2.19331026E+02
 20
-1.58986026E+02
 11
-2.10831026E+02
 21
-1.58986026E+02
  0
LINE
  8
0
 62
4
 10
-2.19331026E+02
 20
-1.88986026E+02
 11
-2.10831026E+02
 21
-1.88986026E+02
  0
ARC
  8
0
 62
4
 10
-2.10829057E+02
 20
-1.86987995E+02
 40
1.99803186E+00
 50
2.69943533E+02
 51
5.64674633E-02
  0
ARC
  8
0
 62
4
 10
-2.19341369E+02
 20
-1.86996369E+02
 40
1.98968419E+00
 50
1.79702165E+02
 51
2.70297835E+02
  0
LINE
  8
0
  6
CENTER
 62
2
 10
-1.88331025E+02
 20
-1.27986025E+02
 11
-1.88331025E+02
 21
-2.34357456E+02
  0
ARC
  8
0
 62
4
 10
-4.20913987E+01
 20
-1.52746400E+02
 40
5.00323290E+00
 50
3.70094546E-02
 51
8.99629905E+01
  0
ARC
  8
0
 62
4
 10
-4.20861765E+01
 20
-1.95245160E+02
 40
4.99801004E+00
 50
2.69977182E+02
 51
2.28179108E-02
  0
ARC
  8
0
 62
4
 10
-8.45985336E+01
 20
-1.95239249E+02
 40
5.00392145E+00
 50
1.80044882E+02
 51
2.69955117E+02
  0
ARC
  8
0
 62
4
 10
-8.45933175E+01
 20
-1.52752304E+02
 40
5.00914429E+00
 50
9.01044985E+01
 51
1.79895501E+02
  0
LINE
  8
0
  6
CENTER
 62
6
 10
-8.68453106E+01
 20
-1.53986026E+02
 11
-7.98453105E+01
 21
-1.53986026E+02
  0
LINE
  8
0
  6
CENTER
 62
6
 10
-4.68453099E+01
 20
-1.53986026E+02
 11
-3.98453098E+01
 21
-1.53986026E+02
  0
LINE
  8
0
  6
CENTER
 62
6
 10
-8.68453106E+01
 20
-1.93986026E+02
 11
-7.98453105E+01
 21
-1.93986026E+02
  0
LINE
  8
0
  6
CENTER
 62
2
 10
-6.33453102E+01
 20
-1.29986025E+02
 11
-6.33453102E+01
 21
-2.22743170E+02
  0
LINE
  8
0
  6
CENTER
 62
2
 10
-2.32844846E+01
 20
-1.73986026E+02
 11
-1.03419152E+02
 21
-1.73986026E+02
  0
LINE
  8
0
 62
4
 10
-4.20881670E+01
 20
-2.00243169E+02
 11
-8.46024534E+01
 21
-2.00243169E+02
  0
LINE
  8
0
  6
CENTER
 62
6
 10
-8.33453105E+01
 20
-1.90486026E+02
 11
-8.33453105E+01
 21
-1.97486026E+02
  0
LINE
  8
0
  6
CENTER
 62
6
 10
-4.33453098E+01
 20
-1.50486026E+02
 11
-4.33453098E+01
 21
-1.57486026E+02
  0
LINE
  8
0
  6
CENTER
 62
6
 10
-8.33453105E+01
 20
-1.50486026E+02
 11
-8.33453105E+01
 21
-1.57486026E+02
  0
CIRCLE
  8
0
 62
4
 10
-8.33393640E+01
 20
-1.93998392E+02
 40
2.24999977E+00
  0
CIRCLE
  8
0
 62
6
 10
-8.33393640E+01
 20
-1.93998392E+02
 40
1.99999949E+00
  0
CIRCLE
  8
0
 62
4
 10
-8.33393640E+01
 20
-1.93998392E+02
 40
1.62099977E+00
  0
CIRCLE
  8
0
 62
4
 10
-4.33394069E+01
 20
-1.53998370E+02
 40
2.24999977E+00
  0
CIRCLE
  8
0
 62
6
 10
-4.33394069E+01
 20
-1.53998370E+02
 40
1.99999949E+00
  0
CIRCLE
  8
0
 62
4
 10
-4.33394069E+01
 20
-1.53998370E+02
 40
1.62099977E+00
  0
CIRCLE
  8
0
 62
4
 10
-8.33393640E+01
 20
-1.53998370E+02
 40
2.24999977E+00
  0
CIRCLE
  8
0
 62
4
 10
-6.33453102E+01
 20
-1.73994621E+02
 40
2.25000004E+01
  0
ARC
  8
0
 62
4
 10
-6.33431288E+01
 20
-1.73967763E+02
 40
3.49676562E+00
 50
2.21827547E+02
 51
6.17427376E+00
  0
ARC
  8
0
 62
4
 10
-6.33392728E+01
 20
-1.73983300E+02
 40
2.49427609E+00
 50
2.29009213E+02
 51
3.59018699E+02
  0
LINE
  8
0
 62
4
 10
-6.18453625E+01
 20
-1.71996017E+02
 11
-5.69453626E+01
 21
-1.69386017E+02
  0
LINE
  8
0
 62
4
 10
-5.69453626E+01
 20
-1.69386017E+02
 11
-5.57053626E+01
 21
-1.70266017E+02
  0
LINE
  8
0
 62
4
 10
-5.57053626E+01
 20
-1.70266017E+02
 11
-5.57753626E+01
 21
-1.71776017E+02
  0
LINE
  8
0
 62
4
 10
-6.08453625E+01
 20
-1.74026017E+02
 11
-5.57753626E+01
 21
-1.71776017E+02
  0
ARC
  8
0
 62
4
 10
-6.33457934E+01
 20
-1.73986245E+02
 40
2.49244851E+00
 50
5.29873950E+01
 51
1.82754352E+02
  0
LINE
  8
0
 62
4
 10
-7.78182242E+01
 20
-1.72698859E+02
 11
-6.67722948E+01
 21
-1.74652008E+02
  0
LINE
  8
0
 62
4
 10
-7.89353622E+01
 20
-1.82086017E+02
 11
-6.49753625E+01
 21
-1.75866017E+02
  0
LINE
  8
0
 62
4
 10
-7.93253622E+01
 20
-1.81286017E+02
 11
-6.58353624E+01
 21
-1.74106017E+02
  0
LINE
  8
0
 62
4
 10
-7.76978712E+01
 20
-1.71719790E+02
 11
-6.65135237E+01
 21
-1.72492648E+02
  0
ARC
  8
0
 62
4
 10
-7.91226276E+01
 20
-1.81682247E+02
 40
4.45083175E-01
 50
1.17096987E+02
 51
2.94881480E+02
  0
ARC
  8
0
 62
4
 10
-7.77364131E+01
 20
-1.72211984E+02
 40
4.93700752E-01
 50
8.55225138E+01
 51
2.60461526E+02
  0
CIRCLE
  8
0
 62
4
 10
-6.33431288E+01
 20
-1.73967763E+02
 40
1.98174728E+00
  0
ARC
  8
0
 62
4
 10
-6.33431288E+01
 20
-1.73967763E+02
 40
3.49676562E+00
 50
4.52784072E+01
 51
1.55048472E+02
  0
LINE
  8
0
 62
4
 10
-4.20881670E+01
 20
-1.47743168E+02
 11
-8.46024534E+01
 21
-1.47743168E+02
  0
LINE
  8
0
 62
4
 10
-8.96024535E+01
 20
-1.52743169E+02
 11
-8.96024535E+01
 21
-1.95243169E+02
  0
LINE
  8
0
 62
4
 10
-3.70881669E+01
 20
-1.52743169E+02
 11
-3.70881669E+01
 21
-1.95243169E+02
  0
LINE
  8
0
 62
4
 10
4.19404062E+01
 20
-1.73986026E+02
 11
3.34404060E+01
 21
-1.73986026E+02
  0
LINE
  8
0
 62
4
 10
4.19404062E+01
 20
-1.80986026E+02
 11
3.34404060E+01
 21
-1.80986026E+02
  0
LINE
  8
0
 62
4
 10
4.19404062E+01
 20
-1.66986026E+02
 11
3.34404060E+01
 21
-1.66986026E+02
  0
LINE
  8
0
  6
CENTER
 62
2
 10
8.09404068E+01
 20
-1.73986026E+02
 11
-6.04292603E+00
 21
-1.73986026E+02
  0
LINE
  8
0
 62
4
 10
1.44040547E+00
 20
-1.47743168E+02
 11
3.14404060E+01
 21
-1.47743168E+02
  0
LINE
  8
0
 62
4
 10
1.44040547E+00
 20
-2.00243169E+02
 11
3.14404060E+01
 21
-2.00243169E+02
  0
LINE
  8
0
 62
4
 10
3.34404060E+01
 20
-1.49743168E+02
 11
3.34404060E+01
 21
-1.98243169E+02
  0
LINE
  8
0
 62
4
 10
-1.55959458E+00
 20
-1.50743168E+02
 11
-1.55959458E+00
 21
-1.97243169E+02
  0
LINE
  8
0
  6
PHANTOM
 62
6
 10
1.40404057E+01
 20
-2.08243169E+02
 11
1.40404057E+01
 21
-2.30743170E+02
  0
LINE
  8
0
  6
PHANTOM
 62
6
 10
2.88404059E+01
 20
-2.08243169E+02
 11
2.88404059E+01
 21
-2.30743170E+02
  0
LINE
  8
0
  6
PHANTOM
 62
6
 10
2.83404059E+01
 20
-2.31243170E+02
 11
1.45404057E+01
 21
-2.31243170E+02
  0
LINE
  8
0
  6
PHANTOM
 62
6
 10
1.86404058E+01
 20
-2.32414598E+02
 11
1.86404058E+01
 21
-2.31743170E+02
  0
LINE
  8
0
  6
PHANTOM
 62
6
 10
2.42404059E+01
 20
-2.32414598E+02
 11
2.42404059E+01
 21
-2.31743170E+02
  0
LINE
  8
0
  6
PHANTOM
 62
6
 10
1.81975486E+01
 20
-2.31743170E+02
 11
2.46975487E+01
 21
-2.31743170E+02
  0
LINE
  8
0
  6
PHANTOM
 62
6
 10
1.81975486E+01
 20
-2.31743170E+02
 11
1.81975486E+01
 21
-2.31243170E+02
  0
LINE
  8
0
  6
PHANTOM
 62
6
 10
2.46975487E+01
 20
-2.31743170E+02
 11
2.46975487E+01
 21
-2.31243170E+02
  0
LINE
  8
0
  6
PHANTOM
 62
6
 10
1.40404057E+01
 20
-2.08743169E+02
 11
2.88404059E+01
 21
-2.08743169E+02
  0
LINE
  8
0
 62
4
 10
3.04404060E+01
 20
-1.47743168E+02
 11
3.04404060E+01
 21
-2.00243169E+02
  0
LINE
  8
0
  6
PHANTOM
 62
6
 10
1.34404057E+01
 20
-2.00243169E+02
 11
1.34404057E+01
 21
-2.08243169E+02
  0
LINE
  8
0
  6
PHANTOM
 62
6
 10
1.34404057E+01
 20
-2.08243169E+02
 11
2.94404059E+01
 21
-2.08243169E+02
  0
LINE
  8
0
  6
PHANTOM
 62
6
 10
2.94404059E+01
 20
-2.00243169E+02
 11
2.94404059E+01
 21
-2.08243169E+02
  0
LINE
  8
0
  6
PHANTOM
 62
6
 10
1.34404057E+01
 20
-2.01243169E+02
 11
2.94404059E+01
 21
-2.01243169E+02
  0
LINE
  8
0
  6
PHANTOM
 62
6
 10
2.24404058E+01
 20
-2.01243169E+02
 11
2.24404058E+01
 21
-2.12971741E+02
  0
LINE
  8
0
  6
PHANTOM
 62
6
 10
2.04404058E+01
 20
-2.01243169E+02
 11
2.04404058E+01
 21
-2.13514598E+02
  0
LINE
  8
0
 62
6
 10
1.79404057E+01
 20
-2.14186027E+02
 11
2.49404059E+01
 21
-2.12300312E+02
  0
LINE
  8
0
 62
6
 10
1.79404057E+01
 20
-2.15214598E+02
 11
2.49404059E+01
 21
-2.13343170E+02
  0
LINE
  8
0
  6
PHANTOM
 62
6
 10
2.04404058E+01
 20
-2.21243170E+02
 11
2.24404058E+01
 21
-2.21243170E+02
  0
LINE
  8
0
  6
PHANTOM
 62
6
 10
2.24404058E+01
 20
-2.14014598E+02
 11
2.24404058E+01
 21
-2.21243170E+02
  0
LINE
  8
0
  6
PHANTOM
 62
6
 10
2.04404058E+01
 20
-2.14543170E+02
 11
2.04404058E+01
 21
-2.21243170E+02
  0
LINE
  8
0
  6
PHANTOM
 62
6
 10
2.09404058E+01
 20
-2.26243170E+02
 11
2.19404058E+01
 21
-2.26243170E+02
  0
LINE
  8
0
  6
PHANTOM
 62
6
 10
2.19404058E+01
 20
-2.21243170E+02
 11
2.19404058E+01
 21
-2.26243170E+02
  0
LINE
  8
0
  6
PHANTOM
 62
6
 10
2.09404058E+01
 20
-2.21243170E+02
 11
2.09404058E+01
 21
-2.26243170E+02
  0
LINE
  8
0
  6
PHANTOM
 62
6
 10
1.89404058E+01
 20
-2.01243169E+02
 11
1.89404058E+01
 21
-2.13914598E+02
  0
LINE
  8
0
  6
PHANTOM
 62
6
 10
2.39404058E+01
 20
-2.01243169E+02
 11
2.39404058E+01
 21
-2.12571741E+02
  0
LINE
  8
0
  6
PHANTOM
 62
6
 10
1.79975486E+01
 20
-2.19828884E+02
 11
1.94118343E+01
 21
-2.21243170E+02
  0
LINE
  8
0
  6
PHANTOM
 62
6
 10
1.48118343E+01
 20
-2.23714598E+02
 11
1.55118343E+01
 21
-2.24414598E+02
  0
LINE
  8
0
  6
PHANTOM
 62
6
 10
1.55118343E+01
 20
-2.24414598E+02
 11
1.90546915E+01
 21
-2.20886027E+02
  0
LINE
  8
0
  6
PHANTOM
 62
6
 10
1.48118343E+01
 20
-2.23714598E+02
 11
1.83404058E+01
 21
-2.20171741E+02
  0
LINE
  8
0
  6
PHANTOM
 62
6
 10
2.48832630E+01
 20
-2.19828884E+02
 11
2.34689773E+01
 21
-2.21243170E+02
  0
LINE
  8
0
  6
PHANTOM
 62
6
 10
2.80689773E+01
 20
-2.23714598E+02
 11
2.45404059E+01
 21
-2.20171741E+02
  0
LINE
  8
0
  6
PHANTOM
 62
6
 10
2.80689773E+01
 20
-2.23714598E+02
 11
2.73689773E+01
 21
-2.24414598E+02
  0
LINE
  8
0
  6
PHANTOM
 62
6
 10
2.73689773E+01
 20
-2.24414598E+02
 11
2.38261201E+01
 21
-2.20886027E+02
  0
LINE
  8
0
  6
PHANTOM
 62
6
 10
1.89404058E+01
 20
-2.14943170E+02
 11
1.89404058E+01
 21
-2.17243170E+02
  0
LINE
  8
0
  6
PHANTOM
 62
6
 10
2.39404058E+01
 20
-2.13614598E+02
 11
2.39404058E+01
 21
-2.17243170E+02
  0
ARC
  8
0
 62
4
 10
3.14407579E+01
 20
-1.49742817E+02
 40
1.99964816E+00
 50
3.59989917E+02
 51
9.00000002E+01
  0
ARC
  8
0
 62
4
 10
3.14459667E+01
 20
-1.98248730E+02
 40
1.99444708E+00
 50
2.69840254E+02
 51
1.59746172E-01
  0
ARC
  8
0
 62
4
 10
1.44598802E+00
 20
-1.50748751E+02
 40
3.00558779E+00
 50
9.01064208E+01
 51
1.79893579E+02
  0
ARC
  8
0
 62
4
 10
1.44077032E+00
 20
-1.97242804E+02
 40
3.00036492E+00
 50
1.80006968E+02
 51
2.70000000E+02
  0
ARC
  8
0
  6
PHANTOM
 62
6
 10
2.83459788E+01
 20
-2.30748743E+02
 40
4.94458585E-01
 50
2.69354230E+02
 51
6.45769679E-01
  0
ARC
  8
0
  6
PHANTOM
 62
6
 10
1.45407975E+01
 20
-2.30742778E+02
 40
5.00391979E-01
 50
1.80044864E+02
 51
2.70000000E+02
  0
ARC
  8
0
  6
PHANTOM
 62
6
 10
2.14404058E+01
 20
-2.28648353E+02
 40
4.99770997E+00
 50
2.40550664E+02
 51
2.99449337E+02
  0
ARC
  8
0
  6
PHANTOM
 62
6
 10
1.93103423E+01
 20
-2.32415646E+02
 40
6.69937344E-01
 50
1.79910404E+02
 51
2.40776094E+02
  0
ARC
  8
0
  6
PHANTOM
 62
6
 10
2.35793229E+01
 20
-2.32420829E+02
 40
6.61112338E-01
 50
2.98773551E+02
 51
5.39950887E-01
  0
ARC
  8
0
  6
PHANTOM
 62
6
 10
1.49453343E+01
 20
-2.17251163E+02
 40
3.99507945E+00
 50
3.19817522E+02
 51
1.14631132E-01
  0
ARC
  8
0
  6
PHANTOM
 62
6
 10
1.49492971E+01
 20
-2.17243783E+02
 40
5.99243935E+00
 50
3.18132875E+02
 51
3.36396673E+02
  0
ARC
  8
0
  6
PHANTOM
 62
6
 10
2.79459507E+01
 20
-2.17247343E+02
 40
4.00554706E+00
 50
1.79940296E+02
 51
2.20127550E+02
  0
ARC
  8
0
  6
PHANTOM
 62
6
 10
2.79399191E+01
 20
-2.17238381E+02
 40
6.00230429E+00
 50
2.03618464E+02
 51
2.21851988E+02
  0
LINE
  8
0
 62
4
 10
4.39404062E+01
 20
-1.67300312E+02
 11
4.39404062E+01
 21
-1.80671740E+02
  0
LINE
  8
0
 62
4
 10
4.19404062E+01
 20
-1.66986026E+02
 11
4.19404062E+01
 21
-1.80986026E+02
  0
LINE
  8
0
 62
4
 10
4.79404063E+01
 20
-1.60743169E+02
 11
4.79404063E+01
 21
-1.86743169E+02
  0
LINE
  8
0
 62
4
 10
4.79404063E+01
 20
-1.67414597E+02
 11
4.19404062E+01
 21
-1.67257454E+02
  0
LINE
  8
0
 62
6
 10
4.79404063E+01
 20
-1.68271740E+02
 11
4.39404062E+01
 21
-1.68157454E+02
  0
LINE
  8
0
 62
6
 10
4.39404062E+01
 20
-1.68157454E+02
 11
4.23832633E+01
 21
-1.67271740E+02
  0
ARC
  8
0
 62
4
 10
4.99495519E+01
 20
-1.60995171E+02
 40
2.00916650E+00
 50
9.02608089E+01
 51
1.79739191E+02
  0
ARC
  8
0
 62
4
 10
5.84371803E+01
 20
-1.60989252E+02
 40
2.00322879E+00
 50
9.22736526E-02
 51
8.99077265E+01
  0
LINE
  8
0
 62
4
 10
6.04404065E+01
 20
-1.60986026E+02
 11
6.04404065E+01
 21
-1.86986026E+02
  0
LINE
  8
0
 62
4
 10
4.99404063E+01
 20
-1.58986026E+02
 11
5.84404064E+01
 21
-1.58986026E+02
  0
LINE
  8
0
 62
4
 10
4.99404063E+01
 20
-1.88986026E+02
 11
5.84404064E+01
 21
-1.88986026E+02
  0
ARC
  8
0
 62
4
 10
5.84495535E+01
 20
-1.86995173E+02
 40
1.99087401E+00
 50
2.69736755E+02
 51
2.63245541E-01
  0
ARC
  8
0
 62
4
 10
4.99372154E+01
 20
-1.86989217E+02
 40
1.99681172E+00
 50
1.79908442E+02
 51
2.70091557E+02
  0
LINE
  8
0
  6
CENTER
 62
2
 10
8.09404068E+01
 20
-1.27986025E+02
 11
8.09404068E+01
 21
-2.34357456E+02
  0
LINE
  8
0
 62
4
 10
4.79404063E+01
 20
-1.80571740E+02
 11
4.19404062E+01
 21
-1.80728883E+02
  0
LINE
  8
0
 62
6
 10
4.79404063E+01
 20
-1.79714598E+02
 11
4.39404062E+01
 21
-1.79828883E+02
  0
LINE
  8
0
 62
6
 10
4.39404062E+01
 20
-1.79828883E+02
 11
4.23832633E+01
 21
-1.80714598E+02
  0
LINE
  8
0
 62
4
 10
2.04447551E+02
 20
-2.08040669E+02
 11
2.04447551E+02
 21
-1.93986026E+02
  0
LINE
  8
0
 62
4
 10
2.08147551E+02
 20
-2.09388527E+02
 11
2.08147551E+02
 21
-1.93986026E+02
  0
LINE
  8
0
  6
CENTER
 62
2
 10
2.06297551E+02
 20
-1.28700311E+02
 11
2.06297551E+02
 21
-2.22743170E+02
  0
ARC
  8
0
 62
4
 10
2.20797551E+02
 20
-1.59486026E+02
 40
5.00000000E-01
 50
0.00000000E+00
 51
9.00000002E+01
  0
LINE
  8
0
 62
4
 10
1.93047551E+02
 20
-1.59486026E+02
 11
2.19547551E+02
 21
-1.59486026E+02
  0
ARC
  8
0
 62
4
 10
2.20797551E+02
 20
-1.88486026E+02
 40
5.00000000E-01
 50
2.70000000E+02
 51
0.00000000E+00
  0
LINE
  8
0
 62
4
 10
1.93047551E+02
 20
-1.88486026E+02
 11
2.19547551E+02
 21
-1.88486026E+02
  0
LINE
  8
0
 62
4
 10
1.92047551E+02
 20
-1.63836026E+02
 11
2.20547551E+02
 21
-1.63836026E+02
  0
LINE
  8
0
 62
4
 10
1.92047551E+02
 20
-1.64336026E+02
 11
2.20547551E+02
 21
-1.64336026E+02
  0
LINE
  8
0
 62
4
 10
1.93397551E+02
 20
-1.75336026E+02
 11
2.19197551E+02
 21
-1.75336026E+02
  0
LINE
  8
0
  6
CENTER
 62
2
 10
2.46358375E+02
 20
-1.73986026E+02
 11
1.66229694E+02
 21
-1.73986026E+02
  0
LINE
  8
0
 62
4
 10
1.91797551E+02
 20
-1.58986026E+02
 11
2.20797551E+02
 21
-1.58986026E+02
  0
LINE
  8
0
 62
4
 10
1.91797551E+02
 20
-1.88986026E+02
 11
2.20797551E+02
 21
-1.88986026E+02
  0
ARC
  8
0
 62
4
 10
2.19547551E+02
 20
-1.60486026E+02
 40
1.00000000E+00
 50
0.00000000E+00
 51
9.00000002E+01
  0
LINE
  8
0
 62
4
 10
2.01897551E+02
 20
-1.93486026E+02
 11
2.01897551E+02
 21
-1.88986026E+02
  0
LINE
  8
0
 62
4
 10
2.10697551E+02
 20
-1.93486026E+02
 11
2.10697551E+02
 21
-1.88986026E+02
  0
LINE
  8
0
 62
4
 10
2.02397551E+02
 20
-1.89486026E+02
 11
2.02397551E+02
 21
-1.88986026E+02
  0
LINE
  8
0
 62
4
 10
2.10197551E+02
 20
-1.89486026E+02
 11
2.10197551E+02
 21
-1.88986026E+02
  0
LINE
  8
0
 62
4
 10
2.01897551E+02
 20
-1.89486026E+02
 11
2.10697551E+02
 21
-1.89486026E+02
  0
LINE
  8
0
 62
4
 10
2.19197551E+02
 20
-1.75336026E+02
 11
2.19197551E+02
 21
-1.64336026E+02
  0
ARC
  8
0
 62
4
 10
2.19547551E+02
 20
-1.87486026E+02
 40
1.00000000E+00
 50
2.70000000E+02
 51
0.00000000E+00
  0
LINE
  8
0
 62
4
 10
2.20547551E+02
 20
-1.87486026E+02
 11
2.20547551E+02
 21
-1.60486026E+02
  0
LINE
  8
0
 62
4
 10
1.95422551E+02
 20
-1.84736026E+02
 11
1.99172551E+02
 21
-1.84736026E+02
  0
ARC
  8
0
 62
4
 10
2.13297551E+02
 20
-1.83736026E+02
 40
1.00000000E+00
 50
1.80000000E+02
 51
2.70000000E+02
  0
ARC
  8
0
 62
4
 10
2.13297551E+02
 20
-1.81986026E+02
 40
1.00000000E+00
 50
9.00000002E+01
 51
1.80000000E+02
  0
ARC
  8
0
 62
4
 10
2.17297551E+02
 20
-1.83736026E+02
 40
1.00000000E+00
 50
2.70000000E+02
 51
0.00000000E+00
  0
ARC
  8
0
 62
4
 10
2.17297551E+02
 20
-1.81986026E+02
 40
1.00000000E+00
 50
0.00000000E+00
 51
9.00000002E+01
  0
LINE
  8
0
 62
4
 10
2.18297551E+02
 20
-1.83736026E+02
 11
2.18297551E+02
 21
-1.81986026E+02
  0
LINE
  8
0
 62
4
 10
2.12297551E+02
 20
-1.83736026E+02
 11
2.12297551E+02
 21
-1.81986026E+02
  0
LINE
  8
0
 62
4
 10
2.13297551E+02
 20
-1.80986026E+02
 11
2.17297551E+02
 21
-1.80986026E+02
  0
LINE
  8
0
 62
4
 10
2.08172551E+02
 20
-1.81236026E+02
 11
2.06297551E+02
 21
-1.84736026E+02
  0
LINE
  8
0
 62
4
 10
2.04422551E+02
 20
-1.81236026E+02
 11
2.06297551E+02
 21
-1.84736026E+02
  0
LINE
  8
0
 62
4
 10
1.99172551E+02
 20
-1.84736026E+02
 11
1.97297551E+02
 21
-1.81236026E+02
  0
LINE
  8
0
 62
4
 10
1.97297551E+02
 20
-1.81236026E+02
 11
1.95422551E+02
 21
-1.84736026E+02
  0
LINE
  8
0
 62
4
 10
2.04422551E+02
 20
-1.81236026E+02
 11
2.08172551E+02
 21
-1.81236026E+02
  0
LINE
  8
0
 62
4
 10
2.13297551E+02
 20
-1.84736026E+02
 11
2.17297551E+02
 21
-1.84736026E+02
  0
ARC
  8
0
 62
4
 10
2.10197551E+02
 20
-1.93486026E+02
 40
5.00000000E-01
 50
2.70000000E+02
 51
0.00000000E+00
  0
ARC
  8
0
 62
4
 10
2.02397551E+02
 20
-1.93486026E+02
 40
5.00000000E-01
 50
1.80000000E+02
 51
2.70000000E+02
  0
LINE
  8
0
 62
4
 10
2.10197551E+02
 20
-1.93986026E+02
 11
2.10197551E+02
 21
-1.92986026E+02
  0
LINE
  8
0
 62
4
 10
2.02397551E+02
 20
-1.93986026E+02
 11
2.02397551E+02
 21
-1.92986026E+02
  0
LINE
  8
0
 62
4
 10
2.01897551E+02
 20
-1.92986026E+02
 11
2.10697551E+02
 21
-1.92986026E+02
  0
LINE
  8
0
 62
4
 10
2.02397551E+02
 20
-1.93986026E+02
 11
2.10197551E+02
 21
-1.93986026E+02
  0
ARC
  8
0
 62
4
 10
1.91797551E+02
 20
-1.59486026E+02
 40
5.00000000E-01
 50
9.00000002E+01
 51
1.80000000E+02
  0
LINE
  8
0
 62
4
 10
1.92047551E+02
 20
-1.87486026E+02
 11
1.92047551E+02
 21
-1.60486026E+02
  0
LINE
  8
0
 62
4
 10
1.93397551E+02
 20
-1.75336026E+02
 11
1.93397551E+02
 21
-1.64336026E+02
  0
LINE
  8
0
 62
4
 10
1.91297551E+02
 20
-1.88486026E+02
 11
1.91297551E+02
 21
-1.59486026E+02
  0
ARC
  8
0
 62
4
 10
1.93047551E+02
 20
-1.60486026E+02
 40
1.00000000E+00
 50
9.00000002E+01
 51
1.80000000E+02
  0
ARC
  8
0
 62
4
 10
1.91797551E+02
 20
-1.88486026E+02
 40
5.00000000E-01
 50
1.80000000E+02
 51
2.70000000E+02
  0
ARC
  8
0
 62
4
 10
1.93047551E+02
 20
-1.87486026E+02
 40
1.00000000E+00
 50
1.80000000E+02
 51
2.70000000E+02
  0
LINE
  8
0
 62
4
 10
2.21297551E+02
 20
-1.88486026E+02
 11
2.21297551E+02
 21
-1.59486026E+02
  0
LINE
  8
0
 62
4
 10
2.04554694E+02
 20
-2.10214598E+02
 11
2.04554694E+02
 21
-2.22386027E+02
  0
LINE
  8
0
 62
4
 10
2.08054694E+02
 20
-2.11500312E+02
 11
2.08054694E+02
 21
-2.23128884E+02
  0
LINE
  8
0
  6
CENTER
 62
2
 10
3.40583267E+02
 20
-1.73986026E+02
 11
2.82825848E+02
 21
-1.73986026E+02
  0
LINE
  8
0
 62
4
 10
2.89083266E+02
 20
-1.58986026E+02
 11
3.18095797E+02
 21
-1.58986026E+02
  0
LINE
  8
0
 62
4
 10
2.89083266E+02
 20
-1.88986026E+02
 11
3.18095780E+02
 21
-1.88986026E+02
  0
ARC
  8
0
 62
4
 10
3.18092414E+02
 20
-1.86995173E+02
 40
1.99087401E+00
 50
2.69736755E+02
 51
2.63245541E-01
  0
ARC
  8
0
 62
4
 10
3.18080041E+02
 20
-1.60989252E+02
 40
2.00322879E+00
 50
9.22736526E-02
 51
8.99077265E+01
  0
LINE
  8
0
 62
4
 10
3.20083267E+02
 20
-1.60986026E+02
 11
3.20083267E+02
 21
-1.86986026E+02
  0
LINE
  8
0
 62
4
 10
2.88583266E+02
 20
-1.88486026E+02
 11
2.88583266E+02
 21
-1.59486026E+02
  0
ARC
  8
0
 62
4
 10
2.89083266E+02
 20
-1.59486026E+02
 40
5.00000000E-01
 50
9.00000002E+01
 51
1.80000000E+02
  0
ARC
  8
0
 62
4
 10
2.89083266E+02
 20
-1.88486026E+02
 40
5.00000000E-01
 50
1.80000000E+02
 51
2.70000000E+02
  0
LINE
  8
0
  6
CENTER
 62
2
 10
3.04083266E+02
 20
-2.12972890E+02
 11
3.04083266E+02
 21
-1.81142875E+02
  0
ARC
  8
0
 62
4
 10
3.03092377E+02
 20
-1.60995137E+02
 40
2.00913152E+00
 50
9.02598205E+01
 51
1.79740179E+02
  0
LINE
  8
0
 62
4
 10
3.01083267E+02
 20
-1.60986026E+02
 11
3.01083267E+02
 21
-1.86986026E+02
  0
POLYLINE
  8
0
 62
4
 66
1
  0
VERTEX
  8
0
 62
4
 10
3.03089128E+02
 20
-1.68498369E+02
  0
VERTEX
  8
0
 62
4
 10
3.02958394E+02
 20
-1.68519298E+02
  0
VERTEX
  8
0
 62
4
 10
3.02828656E+02
 20
-1.68581927E+02
  0
VERTEX
  8
0
 62
4
 10
3.02700899E+02
 20
-1.68685777E+02
  0
VERTEX
  8
0
 62
4
 10
3.02576098E+02
 20
-1.68830060E+02
  0
VERTEX
  8
0
 62
4
 10
3.02455201E+02
 20
-1.69013676E+02
  0
VERTEX
  8
0
 62
4
 10
3.02339128E+02
 20
-1.69235229E+02
  0
VERTEX
  8
0
 62
4
 10
3.02228763E+02
 20
-1.69493033E+02
  0
VERTEX
  8
0
 62
4
 10
3.02124947E+02
 20
-1.69785125E+02
  0
VERTEX
  8
0
 62
4
 10
3.02028468E+02
 20
-1.70109282E+02
  0
VERTEX
  8
0
 62
4
 10
3.01940061E+02
 20
-1.70463037E+02
  0
VERTEX
  8
0
 62
4
 10
3.01860400E+02
 20
-1.70843699E+02
  0
VERTEX
  8
0
 62
4
 10
3.01790090E+02
 20
-1.71248369E+02
  0
VERTEX
  8
0
 62
4
 10
3.01729666E+02
 20
-1.71673969E+02
  0
VERTEX
  8
0
 62
4
 10
3.01679589E+02
 20
-1.72117259E+02
  0
VERTEX
  8
0
 62
4
 10
3.01640239E+02
 20
-1.72574865E+02
  0
VERTEX
  8
0
 62
4
 10
3.01611916E+02
 20
-1.73043304E+02
  0
VERTEX
  8
0
 62
4
 10
3.01594835E+02
 20
-1.73519013E+02
  0
VERTEX
  8
0
 62
4
 10
3.01589127E+02
 20
-1.73998370E+02
  0
VERTEX
  8
0
 62
4
 10
3.01594835E+02
 20
-1.74477726E+02
  0
VERTEX
  8
0
 62
4
 10
3.01611915E+02
 20
-1.74953435E+02
  0
VERTEX
  8
0
 62
4
 10
3.01640238E+02
 20
-1.75421874E+02
  0
VERTEX
  8
0
 62
4
 10
3.01679587E+02
 20
-1.75879481E+02
  0
VERTEX
  8
0
 62
4
 10
3.01729665E+02
 20
-1.76322770E+02
  0
VERTEX
  8
0
 62
4
 10
3.01790088E+02
 20
-1.76748370E+02
  0
VERTEX
  8
0
 62
4
 10
3.01860398E+02
 20
-1.77153040E+02
  0
VERTEX
  8
0
 62
4
 10
3.01940059E+02
 20
-1.77533702E+02
  0
VERTEX
  8
0
 62
4
 10
3.02028465E+02
 20
-1.77887457E+02
  0
VERTEX
  8
0
 62
4
 10
3.02124944E+02
 20
-1.78211615E+02
  0
VERTEX
  8
0
 62
4
 10
3.02228761E+02
 20
-1.78503706E+02
  0
VERTEX
  8
0
 62
4
 10
3.02339125E+02
 20
-1.78761510E+02
  0
VERTEX
  8
0
 62
4
 10
3.02455197E+02
 20
-1.78983063E+02
  0
VERTEX
  8
0
 62
4
 10
3.02576095E+02
 20
-1.79166680E+02
  0
VERTEX
  8
0
 62
4
 10
3.02700896E+02
 20
-1.79310963E+02
  0
VERTEX
  8
0
 62
4
 10
3.02828652E+02
 20
-1.79414813E+02
  0
VERTEX
  8
0
 62
4
 10
3.02958391E+02
 20
-1.79477441E+02
  0
VERTEX
  8
0
 62
4
 10
3.03089124E+02
 20
-1.79498371E+02
  0
VERTEX
  8
0
 62
4
 10
3.03219858E+02
 20
-1.79477442E+02
  0
VERTEX
  8
0
 62
4
 10
3.03349596E+02
 20
-1.79414813E+02
  0
VERTEX
  8
0
 62
4
 10
3.03477353E+02
 20
-1.79310963E+02
  0
VERTEX
  8
0
 62
4
 10
3.03602154E+02
 20
-1.79166680E+02
  0
VERTEX
  8
0
 62
4
 10
3.03723051E+02
 20
-1.78983064E+02
  0
VERTEX
  8
0
 62
4
 10
3.03839124E+02
 20
-1.78761511E+02
  0
VERTEX
  8
0
 62
4
 10
3.03949489E+02
 20
-1.78503707E+02
  0
VERTEX
  8
0
 62
4
 10
3.04053305E+02
 20
-1.78211615E+02
  0
VERTEX
  8
0
 62
4
 10
3.04149784E+02
 20
-1.77887458E+02
  0
VERTEX
  8
0
 62
4
 10
3.04238191E+02
 20
-1.77533703E+02
  0
VERTEX
  8
0
 62
4
 10
3.04317852E+02
 20
-1.77153041E+02
  0
VERTEX
  8
0
 62
4
 10
3.04388162E+02
 20
-1.76748371E+02
  0
VERTEX
  8
0
 62
4
 10
3.04448586E+02
 20
-1.76322771E+02
  0
VERTEX
  8
0
 62
4
 10
3.04498663E+02
 20
-1.75879481E+02
  0
VERTEX
  8
0
 62
4
 10
3.04538013E+02
 20
-1.75421875E+02
  0
VERTEX
  8
0
 62
4
 10
3.04566336E+02
 20
-1.74953436E+02
  0
VERTEX
  8
0
 62
4
 10
3.04583417E+02
 20
-1.74477727E+02
  0
VERTEX
  8
0
 62
4
 10
3.04589125E+02
 20
-1.73998370E+02
  0
VERTEX
  8
0
 62
4
 10
3.04583417E+02
 20
-1.73519014E+02
  0
VERTEX
  8
0
 62
4
 10
3.04566337E+02
 20
-1.73043305E+02
  0
VERTEX
  8
0
 62
4
 10
3.04538014E+02
 20
-1.72574866E+02
  0
VERTEX
  8
0
 62
4
 10
3.04498665E+02
 20
-1.72117259E+02
  0
VERTEX
  8
0
 62
4
 10
3.04448587E+02
 20
-1.71673970E+02
  0
VERTEX
  8
0
 62
4
 10
3.04388164E+02
 20
-1.71248370E+02
  0
VERTEX
  8
0
 62
4
 10
3.04317854E+02
 20
-1.70843700E+02
  0
VERTEX
  8
0
 62
4
 10
3.04238193E+02
 20
-1.70463038E+02
  0
VERTEX
  8
0
 62
4
 10
3.04149787E+02
 20
-1.70109283E+02
  0
VERTEX
  8
0
 62
4
 10
3.04053308E+02
 20
-1.69785125E+02
  0
VERTEX
  8
0
 62
4
 10
3.03949491E+02
 20
-1.69493034E+02
  0
VERTEX
  8
0
 62
4
 10
3.03839127E+02
 20
-1.69235230E+02
  0
VERTEX
  8
0
 62
4
 10
3.03723055E+02
 20
-1.69013677E+02
  0
VERTEX
  8
0
 62
4
 10
3.03602157E+02
 20
-1.68830060E+02
  0
VERTEX
  8
0
 62
4
 10
3.03477356E+02
 20
-1.68685777E+02
  0
VERTEX
  8
0
 62
4
 10
3.03349600E+02
 20
-1.68581927E+02
  0
VERTEX
  8
0
 62
4
 10
3.03219861E+02
 20
-1.68519299E+02
  0
VERTEX
  8
0
 62
4
 10
3.03089128E+02
 20
-1.68498369E+02
  0
SEQEND
  8
0
  0
POLYLINE
  8
0
 62
4
 66
1
  0
VERTEX
  8
0
 62
4
 10
3.03089193E+02
 20
-1.68498369E+02
  0
VERTEX
  8
0
 62
4
 10
3.02958459E+02
 20
-1.68519298E+02
  0
VERTEX
  8
0
 62
4
 10
3.02828721E+02
 20
-1.68581927E+02
  0
VERTEX
  8
0
 62
4
 10
3.02700964E+02
 20
-1.68685777E+02
  0
VERTEX
  8
0
 62
4
 10
3.02576163E+02
 20
-1.68830060E+02
  0
VERTEX
  8
0
 62
4
 10
3.02455266E+02
 20
-1.69013676E+02
  0
VERTEX
  8
0
 62
4
 10
3.02339193E+02
 20
-1.69235229E+02
  0
VERTEX
  8
0
 62
4
 10
3.02228828E+02
 20
-1.69493033E+02
  0
VERTEX
  8
0
 62
4
 10
3.02125012E+02
 20
-1.69785125E+02
  0
VERTEX
  8
0
 62
4
 10
3.02028533E+02
 20
-1.70109282E+02
  0
VERTEX
  8
0
 62
4
 10
3.01940126E+02
 20
-1.70463037E+02
  0
VERTEX
  8
0
 62
4
 10
3.01860465E+02
 20
-1.70843699E+02
  0
VERTEX
  8
0
 62
4
 10
3.01790155E+02
 20
-1.71248369E+02
  0
VERTEX
  8
0
 62
4
 10
3.01729731E+02
 20
-1.71673969E+02
  0
VERTEX
  8
0
 62
4
 10
3.01679654E+02
 20
-1.72117259E+02
  0
VERTEX
  8
0
 62
4
 10
3.01640304E+02
 20
-1.72574865E+02
  0
VERTEX
  8
0
 62
4
 10
3.01611981E+02
 20
-1.73043304E+02
  0
VERTEX
  8
0
 62
4
 10
3.01594900E+02
 20
-1.73519013E+02
  0
VERTEX
  8
0
 62
4
 10
3.01589192E+02
 20
-1.73998370E+02
  0
VERTEX
  8
0
 62
4
 10
3.01594900E+02
 20
-1.74477726E+02
  0
VERTEX
  8
0
 62
4
 10
3.01611980E+02
 20
-1.74953435E+02
  0
VERTEX
  8
0
 62
4
 10
3.01640303E+02
 20
-1.75421874E+02
  0
VERTEX
  8
0
 62
4
 10
3.01679652E+02
 20
-1.75879481E+02
  0
VERTEX
  8
0
 62
4
 10
3.01729730E+02
 20
-1.76322770E+02
  0
VERTEX
  8
0
 62
4
 10
3.01790153E+02
 20
-1.76748370E+02
  0
VERTEX
  8
0
 62
4
 10
3.01860463E+02
 20
-1.77153040E+02
  0
VERTEX
  8
0
 62
4
 10
3.01940124E+02
 20
-1.77533702E+02
  0
VERTEX
  8
0
 62
4
 10
3.02028530E+02
 20
-1.77887457E+02
  0
VERTEX
  8
0
 62
4
 10
3.02125009E+02
 20
-1.78211615E+02
  0
VERTEX
  8
0
 62
4
 10
3.02228826E+02
 20
-1.78503706E+02
  0
VERTEX
  8
0
 62
4
 10
3.02339190E+02
 20
-1.78761510E+02
  0
VERTEX
  8
0
 62
4
 10
3.02455262E+02
 20
-1.78983063E+02
  0
VERTEX
  8
0
 62
4
 10
3.02576160E+02
 20
-1.79166680E+02
  0
VERTEX
  8
0
 62
4
 10
3.02700961E+02
 20
-1.79310963E+02
  0
VERTEX
  8
0
 62
4
 10
3.02828717E+02
 20
-1.79414813E+02
  0
VERTEX
  8
0
 62
4
 10
3.02958456E+02
 20
-1.79477441E+02
  0
VERTEX
  8
0
 62
4
 10
3.03089189E+02
 20
-1.79498371E+02
  0
VERTEX
  8
0
 62
4
 10
3.03219923E+02
 20
-1.79477442E+02
  0
VERTEX
  8
0
 62
4
 10
3.03349661E+02
 20
-1.79414813E+02
  0
VERTEX
  8
0
 62
4
 10
3.03477418E+02
 20
-1.79310963E+02
  0
VERTEX
  8
0
 62
4
 10
3.03602219E+02
 20
-1.79166680E+02
  0
VERTEX
  8
0
 62
4
 10
3.03723116E+02
 20
-1.78983064E+02
  0
VERTEX
  8
0
 62
4
 10
3.03839189E+02
 20
-1.78761511E+02
  0
VERTEX
  8
0
 62
4
 10
3.03949554E+02
 20
-1.78503707E+02
  0
VERTEX
  8
0
 62
4
 10
3.04053370E+02
 20
-1.78211615E+02
  0
VERTEX
  8
0
 62
4
 10
3.04149849E+02
 20
-1.77887458E+02
  0
VERTEX
  8
0
 62
4
 10
3.04238256E+02
 20
-1.77533703E+02
  0
VERTEX
  8
0
 62
4
 10
3.04317917E+02
 20
-1.77153041E+02
  0
VERTEX
  8
0
 62
4
 10
3.04388227E+02
 20
-1.76748371E+02
  0
VERTEX
  8
0
 62
4
 10
3.04448651E+02
 20
-1.76322771E+02
  0
VERTEX
  8
0
 62
4
 10
3.04498728E+02
 20
-1.75879481E+02
  0
VERTEX
  8
0
 62
4
 10
3.04538078E+02
 20
-1.75421875E+02
  0
VERTEX
  8
0
 62
4
 10
3.04566401E+02
 20
-1.74953436E+02
  0
VERTEX
  8
0
 62
4
 10
3.04583482E+02
 20
-1.74477727E+02
  0
VERTEX
  8
0
 62
4
 10
3.04589190E+02
 20
-1.73998370E+02
  0
VERTEX
  8
0
 62
4
 10
3.04583482E+02
 20
-1.73519014E+02
  0
VERTEX
  8
0
 62
4
 10
3.04566402E+02
 20
-1.73043305E+02
  0
VERTEX
  8
0
 62
4
 10
3.04538079E+02
 20
-1.72574866E+02
  0
VERTEX
  8
0
 62
4
 10
3.04498730E+02
 20
-1.72117259E+02
  0
VERTEX
  8
0
 62
4
 10
3.04448652E+02
 20
-1.71673970E+02
  0
VERTEX
  8
0
 62
4
 10
3.04388229E+02
 20
-1.71248370E+02
  0
VERTEX
  8
0
 62
4
 10
3.04317919E+02
 20
-1.70843700E+02
  0
VERTEX
  8
0
 62
4
 10
3.04238258E+02
 20
-1.70463038E+02
  0
VERTEX
  8
0
 62
4
 10
3.04149852E+02
 20
-1.70109283E+02
  0
VERTEX
  8
0
 62
4
 10
3.04053373E+02
 20
-1.69785125E+02
  0
VERTEX
  8
0
 62
4
 10
3.03949556E+02
 20
-1.69493034E+02
  0
VERTEX
  8
0
 62
4
 10
3.03839192E+02
 20
-1.69235230E+02
  0
VERTEX
  8
0
 62
4
 10
3.03723120E+02
 20
-1.69013677E+02
  0
VERTEX
  8
0
 62
4
 10
3.03602222E+02
 20
-1.68830060E+02
  0
VERTEX
  8
0
 62
4
 10
3.03477421E+02
 20
-1.68685777E+02
  0
VERTEX
  8
0
 62
4
 10
3.03349665E+02
 20
-1.68581927E+02
  0
VERTEX
  8
0
 62
4
 10
3.03219926E+02
 20
-1.68519299E+02
  0
VERTEX
  8
0
 62
4
 10
3.03089193E+02
 20
-1.68498369E+02
  0
SEQEND
  8
0
  0
LINE
  8
0
  6
CENTER
 62
2
 10
3.40583267E+02
 20
-1.25843168E+02
 11
3.40583267E+02
 21
-2.34357456E+02
  0
LINE
  8
0
 62
4
 10
3.02233266E+02
 20
-2.08419241E+02
 11
3.02233266E+02
 21
-1.93986026E+02
  0
LINE
  8
0
 62
4
 10
3.05933266E+02
 20
-2.09767098E+02
 11
3.05933266E+02
 21
-1.93986026E+02
  0
LINE
  8
0
 62
4
 10
3.00383266E+02
 20
-1.92986026E+02
 11
3.06583266E+02
 21
-1.92986026E+02
  0
LINE
  8
0
 62
4
 10
3.00383266E+02
 20
-1.89486026E+02
 11
3.06583266E+02
 21
-1.89486026E+02
  0
LINE
  8
0
 62
4
 10
3.00783266E+02
 20
-1.93986026E+02
 11
3.07083266E+02
 21
-1.93986026E+02
  0
ARC
  8
0
 62
4
 10
3.03080041E+02
 20
-1.86989252E+02
 40
1.99677674E+00
 50
1.79907436E+02
 51
2.70092565E+02
  0
ARC
  8
0
 62
4
 10
3.03089513E+02
 20
-1.86979780E+02
 40
2.00625590E+00
 50
1.80178381E+02
 51
2.69821619E+02
  0
LINE
  8
0
 62
4
 10
3.05083266E+02
 20
-1.91986026E+02
 11
3.05083266E+02
 21
-1.90486026E+02
  0
LINE
  8
0
 62
4
 10
3.04583266E+02
 20
-1.91986026E+02
 11
3.04583266E+02
 21
-1.90486026E+02
  0
LINE
  8
0
 62
4
 10
3.04583266E+02
 20
-1.91986026E+02
 11
3.06083266E+02
 21
-1.91986026E+02
  0
LINE
  8
0
 62
4
 10
3.04583266E+02
 20
-1.90486026E+02
 11
3.06083266E+02
 21
-1.90486026E+02
  0
LINE
  8
0
 62
4
 10
3.06083266E+02
 20
-1.91986026E+02
 11
3.06083266E+02
 21
-1.90486026E+02
  0
LINE
  8
0
 62
4
 10
3.00583266E+02
 20
-1.89486026E+02
 11
3.00583266E+02
 21
-1.88986026E+02
  0
LINE
  8
0
 62
4
 10
3.00383266E+02
 20
-1.92986026E+02
 11
3.00383266E+02
 21
-1.89486026E+02
  0
ARC
  8
0
 62
4
 10
3.00783266E+02
 20
-1.93786026E+02
 40
2.00000000E-01
 50
1.80000000E+02
 51
2.70000000E+02
  0
LINE
  8
0
 62
4
 10
3.00583266E+02
 20
-1.93786026E+02
 11
3.00583266E+02
 21
-1.92986026E+02
  0
ARC
  8
0
 62
4
 10
3.06583266E+02
 20
-1.92486026E+02
 40
5.00000000E-01
 50
2.70000000E+02
 51
0.00000000E+00
  0
ARC
  8
0
 62
4
 10
3.06583266E+02
 20
-1.89986026E+02
 40
5.00000000E-01
 50
0.00000000E+00
 51
9.00000002E+01
  0
ARC
  8
0
 62
4
 10
3.07083266E+02
 20
-1.93486026E+02
 40
5.00000000E-01
 50
2.70000000E+02
 51
0.00000000E+00
  0
LINE
  8
0
 62
6
 10
3.00437608E+02
 20
-2.07765108E+02
 11
3.07083267E+02
 21
-2.10186027E+02
  0
LINE
  8
0
 62
6
 10
3.00464257E+02
 20
-2.09903387E+02
 11
3.07083267E+02
 21
-2.12314598E+02
  0
LINE
  8
0
 62
4
 10
3.07083267E+02
 20
-1.89986026E+02
 11
3.07083267E+02
 21
-1.92486026E+02
  0
LINE
  8
0
 62
7
 10
1.91797551E+02
 20
-1.88986026E+02
 11
1.67909796E+02
 21
-1.88986026E+02
  0
LINE
  8
0
 62
7
 10
1.91797551E+02
 20
-1.58986026E+02
 11
1.63926121E+02
 21
-1.58986026E+02
  0
LINE
  8
0
 62
2
 10
1.65342380E+02
 20
5.48760921E+00
 11
2.32431338E+02
 21
-1.24888230E+01
  0
TEXT
  8
0
 62
7
 10
1.58509720E+02
 20
-7.28626825E+01
 40
6.30000019E+00
  1
-E,-A,-NE,-NA
 41
1.00000000E+00
  7
MONOTXT
  0
TEXT
  8
0
 62
7
 10
-3.88350281E+02
 20
-1.05566667E+02
 40
6.30000019E+00
  1
PRESSURE GAUGE
 41
1.04477612E+00
  7
MONOTXT
  0
TEXT
  8
0
 62
7
 10
-3.95800283E+02
 20
2.68100000E+02
 40
6.30000019E+00
  1
F.R.L.LARGE FLOW SERIES
 41
1.05504587E+00
  7
MONOTXT
  0
LINE
  8
0
 62
7
 10
-3.99250000E+02
 20
2.56250000E+02
 11
-2.49250000E+02
 21
2.56250000E+02
  0
TEXT
  8
0
 62
7
 10
-3.61150282E+02
 20
2.58100000E+02
 40
6.30000019E+00
  1
CONBINATIONS
 41
1.00000000E+00
  7
MONOTXT
  0
LINE
  8
0
 62
7
 10
-2.49250000E+02
 20
2.76250000E+02
 11
-2.49250000E+02
 21
2.56250000E+02
  0
LINE
  8
0
 62
7
 10
-3.99250000E+02
 20
-9.24166667E+01
 11
3.99799805E+02
 21
-9.24166667E+01
  0
LINE
  8
0
 62
7
 10
1.65545494E+02
 20
-1.86516770E+01
 11
1.65342380E+02
 21
5.48760921E+00
  0
POLYLINE
  8
0
 62
2
 66
1
  0
VERTEX
  8
0
 62
2
 10
2.46740335E+02
 20
-1.48997550E+02
  0
VERTEX
  8
0
 62
2
 10
2.46227122E+02
 20
-1.50331834E+02
  0
VERTEX
  8
0
 62
2
 10
2.45749804E+02
 20
-1.51681837E+02
  0
VERTEX
  8
0
 62
2
 10
2.45314237E+02
 20
-1.53045140E+02
  0
VERTEX
  8
0
 62
2
 10
2.44926277E+02
 20
-1.54419324E+02
  0
VERTEX
  8
0
 62
2
 10
2.44591777E+02
 20
-1.55801971E+02
  0
VERTEX
  8
0
 62
2
 10
2.44316594E+02
 20
-1.57190660E+02
  0
VERTEX
  8
0
 62
2
 10
2.44106582E+02
 20
-1.58582972E+02
  0
VERTEX
  8
0
 62
2
 10
2.43967596E+02
 20
-1.59976488E+02
  0
VERTEX
  8
0
 62
2
 10
2.43905491E+02
 20
-1.61368788E+02
  0
VERTEX
  8
0
 62
2
 10
2.43926123E+02
 20
-1.62757454E+02
  0
VERTEX
  8
0
 62
2
 10
2.44113261E+02
 20
-1.64816435E+02
  0
VERTEX
  8
0
 62
2
 10
2.44458526E+02
 20
-1.66864545E+02
  0
VERTEX
  8
0
 62
2
 10
2.44923572E+02
 20
-1.68904518E+02
  0
VERTEX
  8
0
 62
2
 10
2.45470056E+02
 20
-1.70939086E+02
  0
VERTEX
  8
0
 62
2
 10
2.46059632E+02
 20
-1.72970983E+02
  0
VERTEX
  8
0
 62
2
 10
2.46653956E+02
 20
-1.75002939E+02
  0
VERTEX
  8
0
 62
2
 10
2.47214683E+02
 20
-1.77037689E+02
  0
VERTEX
  8
0
 62
2
 10
2.47703469E+02
 20
-1.79077965E+02
  0
VERTEX
  8
0
 62
2
 10
2.48081968E+02
 20
-1.81126500E+02
  0
VERTEX
  8
0
 62
2
 10
2.48311837E+02
 20
-1.83186026E+02
  0
VERTEX
  8
0
 62
2
 10
2.48367679E+02
 20
-1.84781722E+02
  0
VERTEX
  8
0
 62
2
 10
2.48320083E+02
 20
-1.86382546E+02
  0
VERTEX
  8
0
 62
2
 10
2.48176441E+02
 20
-1.87985364E+02
  0
VERTEX
  8
0
 62
2
 10
2.47944148E+02
 20
-1.89587044E+02
  0
VERTEX
  8
0
 62
2
 10
2.47630596E+02
 20
-1.91184450E+02
  0
VERTEX
  8
0
 62
2
 10
2.47243179E+02
 20
-1.92774450E+02
  0
VERTEX
  8
0
 62
2
 10
2.46789290E+02
 20
-1.94353911E+02
  0
VERTEX
  8
0
 62
2
 10
2.46276322E+02
 20
-1.95919697E+02
  0
VERTEX
  8
0
 62
2
 10
2.45711669E+02
 20
-1.97468676E+02
  0
VERTEX
  8
0
 62
2
 10
2.45102724E+02
 20
-1.98997714E+02
  0
SEQEND
  8
0
  0
POLYLINE
  8
0
 62
2
 66
1
  0
VERTEX
  8
0
 62
2
 10
2.46740335E+02
 20
-1.48997550E+02
  0
VERTEX
  8
0
 62
2
 10
2.46227122E+02
 20
-1.50331833E+02
  0
VERTEX
  8
0
 62
2
 10
2.45749804E+02
 20
-1.51681836E+02
  0
VERTEX
  8
0
 62
2
 10
2.45314237E+02
 20
-1.53045139E+02
  0
VERTEX
  8
0
 62
2
 10
2.44926277E+02
 20
-1.54419324E+02
  0
VERTEX
  8
0
 62
2
 10
2.44591777E+02
 20
-1.55801970E+02
  0
VERTEX
  8
0
 62
2
 10
2.44316594E+02
 20
-1.57190659E+02
  0
VERTEX
  8
0
 62
2
 10
2.44106582E+02
 20
-1.58582971E+02
  0
VERTEX
  8
0
 62
2
 10
2.43967596E+02
 20
-1.59976487E+02
  0
VERTEX
  8
0
 62
2
 10
2.43905491E+02
 20
-1.61368788E+02
  0
VERTEX
  8
0
 62
2
 10
2.43926123E+02
 20
-1.62757454E+02
  0
VERTEX
  8
0
 62
2
 10
2.44113261E+02
 20
-1.64816435E+02
  0
VERTEX
  8
0
 62
2
 10
2.44458526E+02
 20
-1.66864546E+02
  0
VERTEX
  8
0
 62
2
 10
2.44923572E+02
 20
-1.68904519E+02
  0
VERTEX
  8
0
 62
2
 10
2.45470056E+02
 20
-1.70939087E+02
  0
VERTEX
  8
0
 62
2
 10
2.46059632E+02
 20
-1.72970983E+02
  0
VERTEX
  8
0
 62
2
 10
2.46653956E+02
 20
-1.75002939E+02
  0
VERTEX
  8
0
 62
2
 10
2.47214683E+02
 20
-1.77037689E+02
  0
VERTEX
  8
0
 62
2
 10
2.47703469E+02
 20
-1.79077965E+02
  0
VERTEX
  8
0
 62
2
 10
2.48081968E+02
 20
-1.81126500E+02
  0
VERTEX
  8
0
 62
2
 10
2.48311837E+02
 20
-1.83186026E+02
  0
VERTEX
  8
0
 62
2
 10
2.48367679E+02
 20
-1.84781722E+02
  0
VERTEX
  8
0
 62
2
 10
2.48320083E+02
 20
-1.86382546E+02
  0
VERTEX
  8
0
 62
2
 10
2.48176441E+02
 20
-1.87985365E+02
  0
VERTEX
  8
0
 62
2
 10
2.47944148E+02
 20
-1.89587045E+02
  0
VERTEX
  8
0
 62
2
 10
2.47630596E+02
 20
-1.91184452E+02
  0
VERTEX
  8
0
 62
2
 10
2.47243179E+02
 20
-1.92774452E+02
  0
VERTEX
  8
0
 62
2
 10
2.46789290E+02
 20
-1.94353912E+02
  0
VERTEX
  8
0
 62
2
 10
2.46276322E+02
 20
-1.95919698E+02
  0
VERTEX
  8
0
 62
2
 10
2.45711669E+02
 20
-1.97468677E+02
  0
VERTEX
  8
0
 62
2
 10
2.45102723E+02
 20
-1.98997715E+02
  0
SEQEND
  8
0
  0
POLYLINE
  8
0
 62
2
 66
1
  0
VERTEX
  8
0
 62
2
 10
3.00524000E+02
 20
-2.33722650E+02
  0
VERTEX
  8
0
 62
2
 10
3.01596308E+02
 20
-2.33435246E+02
  0
VERTEX
  8
0
 62
2
 10
3.02673674E+02
 20
-2.33178425E+02
  0
VERTEX
  8
0
 62
2
 10
3.03754979E+02
 20
-2.32954960E+02
  0
VERTEX
  8
0
 62
2
 10
3.04839103E+02
 20
-2.32767621E+02
  0
VERTEX
  8
0
 62
2
 10
3.05924928E+02
 20
-2.32619180E+02
  0
VERTEX
  8
0
 62
2
 10
3.07011336E+02
 20
-2.32512409E+02
  0
VERTEX
  8
0
 62
2
 10
3.08097207E+02
 20
-2.32450079E+02
  0
VERTEX
  8
0
 62
2
 10
3.09181422E+02
 20
-2.32434963E+02
  0
VERTEX
  8
0
 62
2
 10
3.10262862E+02
 20
-2.32469831E+02
  0
VERTEX
  8
0
 62
2
 10
3.11340410E+02
 20
-2.32557456E+02
  0
VERTEX
  8
0
 62
2
 10
3.13193233E+02
 20
-2.32833256E+02
  0
VERTEX
  8
0
 62
2
 10
3.15033762E+02
 20
-2.33238984E+02
  0
VERTEX
  8
0
 62
2
 10
3.16864825E+02
 20
-2.33738531E+02
  0
VERTEX
  8
0
 62
2
 10
3.18689248E+02
 20
-2.34295783E+02
  0
VERTEX
  8
0
 62
2
 10
3.20509859E+02
 20
-2.34874630E+02
  0
VERTEX
  8
0
 62
2
 10
3.22329485E+02
 20
-2.35438960E+02
  0
VERTEX
  8
0
 62
2
 10
3.24150955E+02
 20
-2.35952662E+02
  0
VERTEX
  8
0
 62
2
 10
3.25977095E+02
 20
-2.36379624E+02
  0
VERTEX
  8
0
 62
2
 10
3.27810733E+02
 20
-2.36683735E+02
  0
VERTEX
  8
0
 62
2
 10
3.29654696E+02
 20
-2.36828884E+02
  0
VERTEX
  8
0
 62
2
 10
3.30757154E+02
 20
-2.36826832E+02
  0
VERTEX
  8
0
 62
2
 10
3.31862249E+02
 20
-2.36759542E+02
  0
VERTEX
  8
0
 62
2
 10
3.32968155E+02
 20
-2.36631020E+02
  0
VERTEX
  8
0
 62
2
 10
3.34073046E+02
 20
-2.36445273E+02
  0
VERTEX
  8
0
 62
2
 10
3.35175097E+02
 20
-2.36206309E+02
  0
VERTEX
  8
0
 62
2
 10
3.36272482E+02
 20
-2.35918134E+02
  0
VERTEX
  8
0
 62
2
 10
3.37363374E+02
 20
-2.35584756E+02
  0
VERTEX
  8
0
 62
2
 10
3.38445949E+02
 20
-2.35210180E+02
  0
VERTEX
  8
0
 62
2
 10
3.39518380E+02
 20
-2.34798414E+02
  0
VERTEX
  8
0
 62
2
 10
3.40578843E+02
 20
-2.34353464E+02
  0
SEQEND
  8
0
  0
LINE
  8
0
 62
7
 10
3.02233266E+02
 20
-2.04986027E+02
 11
2.97483267E+02
 21
-2.04986027E+02
  0
LINE
  8
0
 62
7
 10
3.07583267E+02
 20
-2.04986027E+02
 11
3.05933266E+02
 21
-2.04986027E+02
  0
LINE
  8
0
 62
7
 10
2.98583267E+02
 20
-1.99586026E+02
 11
2.98583267E+02
 21
-2.04986027E+02
  0
LINE
  8
0
 62
7
 10
2.38297551E+02
 20
-1.98986026E+02
 11
2.38297551E+02
 21
-1.99286026E+02
  0
LINE
  8
0
 62
7
 10
2.39297551E+02
 20
-1.88986026E+02
 11
2.39297551E+02
 21
-1.98986026E+02
  0
LINE
  8
0
  6
CENTER
 62
2
 10
2.31297551E+02
 20
-1.66486026E+02
 11
2.31297551E+02
 21
-1.81486026E+02
  0
ARC
  8
0
 62
7
 10
3.08088804E+02
 20
-1.89748706E+02
 40
5.05567193E-01
 50
9.06275036E+01
 51
1.79372496E+02
  0
ARC
  8
0
 62
7
 10
3.08083622E+02
 20
-1.58242813E+02
 40
5.00355562E-01
 50
1.80040700E+02
 51
2.70000000E+02
  0
LINE
  8
0
 62
7
 10
2.39297551E+02
 20
-1.99286026E+02
 11
2.39297551E+02
 21
-2.11286027E+02
  0
LINE
  8
0
 62
7
 10
2.39297551E+02
 20
-1.34986025E+02
 11
2.39297551E+02
 21
-1.58986026E+02
  0
LINE
  8
0
 62
7
 10
3.07583267E+02
 20
-1.99286026E+02
 11
3.40583267E+02
 21
-1.99286026E+02
  0
LINE
  8
0
 62
7
 10
3.07583267E+02
 20
-1.89743169E+02
 11
3.07583267E+02
 21
-2.11292401E+02
  0
LINE
  8
0
 62
7
 10
3.07583267E+02
 20
-1.34986025E+02
 11
3.07583267E+02
 21
-1.58243169E+02
  0
ARC
  8
0
 62
7
 10
2.37294325E+02
 20
-1.41989252E+02
 40
2.00322887E+00
 50
9.22759329E-02
 51
8.99077242E+01
  0
ARC
  8
0
 62
7
 10
2.37306718E+02
 20
-2.04295194E+02
 40
1.99085405E+00
 50
2.69736175E+02
 51
2.63825221E-01
  0
ARC
  8
0
 62
7
 10
2.37306714E+02
 20
-2.11295189E+02
 40
1.99085838E+00
 50
2.69736301E+02
 51
2.63699378E-01
  0
ARC
  8
0
 62
7
 10
2.37294321E+02
 20
-1.34989256E+02
 40
2.00323326E+00
 50
9.24009964E-02
 51
8.99075993E+01
  0
ARC
  8
0
 62
7
 10
3.19592415E+02
 20
-1.34995173E+02
 40
2.00916869E+00
 50
9.02608713E+01
 51
1.79739129E+02
  0
ARC
  8
0
 62
7
 10
3.09592410E+02
 20
-1.41995169E+02
 40
2.00916431E+00
 50
9.02607470E+01
 51
1.79739253E+02
  0
ARC
  8
0
 62
7
 10
3.19580080E+02
 20
-2.11289214E+02
 40
1.99681561E+00
 50
1.79908555E+02
 51
2.70091445E+02
  0
ARC
  8
0
 62
7
 10
3.09580075E+02
 20
-2.04289218E+02
 40
1.99681128E+00
 50
1.79908430E+02
 51
2.70091570E+02
  0
ARC
  8
0
 62
7
 10
3.40583267E+02
 20
-1.78386026E+02
 40
1.80000978E+00
 50
9.00000002E+01
 51
2.70000000E+02
  0
ARC
  8
0
 62
7
 10
3.40589192E+02
 20
-1.78386026E+02
 40
1.10001598E+00
 50
9.03086205E+01
 51
2.69691380E+02
  0
ARC
  8
0
 62
7
 10
3.40583267E+02
 20
-1.73986026E+02
 40
7.00000263E+00
 50
9.00000002E+01
 51
2.70000000E+02
  0
ARC
  8
0
 62
7
 10
3.27333637E+02
 20
-1.51992799E+02
 40
1.99323830E+00
 50
1.79805302E+02
 51
2.70194698E+02
  0
ARC
  8
0
 62
7
 10
3.24833609E+02
 20
-1.49492827E+02
 40
5.06846905E-01
 50
7.68861983E-01
 51
8.92311378E+01
  0
ARC
  8
0
 62
7
 10
3.27345995E+02
 20
-1.95991612E+02
 40
2.00559313E+00
 50
9.01595615E+01
 51
1.79840438E+02
  0
ARC
  8
0
 62
7
 10
3.24845949E+02
 20
-1.98491565E+02
 40
4.94492170E-01
 50
2.69358210E+02
 51
6.41789639E-01
  0
ARC
  8
0
 62
7
 10
3.20580077E+02
 20
-1.93989217E+02
 40
4.99681079E+00
 50
1.79963418E+02
 51
2.70036582E+02
  0
ARC
  8
0
 62
7
 10
3.20592424E+02
 20
-1.53995183E+02
 40
5.00916563E+00
 50
9.01047415E+01
 51
1.79895259E+02
  0
ARC
  8
0
 62
7
 10
3.09580080E+02
 20
-2.11289214E+02
 40
1.99681561E+00
 50
1.79908555E+02
 51
2.70091445E+02
  0
ARC
  8
0
 62
7
 10
3.09592415E+02
 20
-1.34995173E+02
 40
2.00916869E+00
 50
9.02608713E+01
 51
1.79739129E+02
  0
ARC
  8
0
 62
7
 10
2.96592391E+02
 20
-2.07495151E+02
 40
1.00916547E+00
 50
9.05180377E+01
 51
1.79481963E+02
  0
ARC
  8
0
 62
7
 10
2.96634412E+02
 20
-1.97993726E+02
 40
9.92334993E-01
 50
2.69521458E+02
 51
3.57969639E+02
  0
ARC
  8
0
 62
7
 10
2.96592391E+02
 20
-1.99995151E+02
 40
1.00916547E+00
 50
9.05180377E+01
 51
1.79481963E+02
  0
ARC
  8
0
 62
2
 10
3.40583267E+02
 20
-1.73993169E+02
 40
1.32214301E+01
 50
9.00000002E+01
 51
2.70000000E+02
  0
ARC
  8
0
 62
7
 10
2.96580116E+02
 20
-2.27989178E+02
 40
9.96854377E-01
 50
1.79818913E+02
 51
2.70181087E+02
  0
ARC
  8
0
 62
7
 10
3.40583267E+02
 20
-1.73993169E+02
 40
1.20642874E+01
 50
9.00000002E+01
 51
2.70000000E+02
  0
ARC
  8
0
 62
7
 10
2.99425141E+02
 20
-2.29987128E+02
 40
1.00110121E+00
 50
8.80642193E-01
 51
9.00000002E+01
  0
LINE
  8
0
 62
7
 10
3.05933266E+02
 20
-2.06486027E+02
 11
3.07583267E+02
 21
-2.06486027E+02
  0
LINE
  8
0
 62
7
 10
3.05933266E+02
 20
-1.99586026E+02
 11
3.07583267E+02
 21
-1.99586026E+02
  0
LINE
  8
0
 62
7
 10
3.05933266E+02
 20
-1.98986026E+02
 11
3.40583267E+02
 21
-1.98986026E+02
  0
LINE
  8
0
 62
7
 10
2.97997552E+02
 20
-1.88986026E+02
 11
2.97626124E+02
 21
-1.98028884E+02
  0
LINE
  8
0
  6
CENTER
 62
2
 10
2.34297551E+02
 20
-1.40986025E+02
 11
2.34297551E+02
 21
-1.31986025E+02
  0
LINE
  8
0
  6
CENTER
 62
2
 10
2.34297551E+02
 20
-2.05286027E+02
 11
2.34297551E+02
 21
-2.14286027E+02
  0
LINE
  8
0
 62
7
 10
3.40583267E+02
 20
-2.15286027E+02
 11
3.14583267E+02
 21
-2.15286027E+02
  0
LINE
  8
0
 62
7
 10
3.33583267E+02
 20
-2.29286027E+02
 11
3.33583267E+02
 21
-2.36543170E+02
  0
LINE
  8
0
 62
7
 10
3.26583267E+02
 20
-2.29286027E+02
 11
3.26740410E+02
 21
-2.36528884E+02
  0
LINE
  8
0
 62
7
 10
3.16583267E+02
 20
-2.29286027E+02
 11
3.40583267E+02
 21
-2.29286027E+02
  0
LINE
  8
0
 62
7
 10
3.14583267E+02
 20
-2.27286027E+02
 11
3.40583267E+02
 21
-2.27286027E+02
  0
LINE
  8
0
 62
7
 10
3.14583267E+02
 20
-2.27286027E+02
 11
3.16583267E+02
 21
-2.29286027E+02
  0
LINE
  8
0
 62
7
 10
3.14583267E+02
 20
-2.15286027E+02
 11
3.14583267E+02
 21
-2.27286027E+02
  0
LINE
  8
0
 62
2
 10
3.15668981E+02
 20
-2.15286027E+02
 11
3.15668981E+02
 21
-2.28371741E+02
  0
LINE
  8
0
 62
7
 10
3.15668981E+02
 20
-2.13286027E+02
 11
3.15668981E+02
 21
-2.15286027E+02
  0
LINE
  8
0
 62
7
 10
3.18197553E+02
 20
-2.29286027E+02
 11
3.18426124E+02
 21
-2.34214598E+02
  0
LINE
  8
0
 62
7
 10
3.17583267E+02
 20
-1.39986025E+02
 11
3.17583267E+02
 21
-1.34986025E+02
  0
LINE
  8
0
  6
CENTER
 62
2
 10
3.12583267E+02
 20
-1.40986025E+02
 11
3.12583267E+02
 21
-1.31986025E+02
  0
LINE
  8
0
 62
7
 10
3.08340410E+02
 20
-1.39986025E+02
 11
3.17583267E+02
 21
-1.39986025E+02
  0
LINE
  8
0
 62
7
 10
3.17583267E+02
 20
-2.06286027E+02
 11
3.17583267E+02
 21
-2.11286027E+02
  0
LINE
  8
0
 62
7
 10
3.08340410E+02
 20
-2.06286027E+02
 11
3.17583267E+02
 21
-2.06286027E+02
  0
LINE
  8
0
  6
CENTER
 62
2
 10
3.12583267E+02
 20
-2.05286027E+02
 11
3.12583267E+02
 21
-2.14286027E+02
  0
LINE
  8
0
 62
7
 10
3.01083267E+02
 20
-1.48986026E+02
 11
3.40583267E+02
 21
-1.48986026E+02
  0
LINE
  8
0
 62
7
 10
3.25340410E+02
 20
-1.51986026E+02
 11
3.25340410E+02
 21
-1.49486026E+02
  0
LINE
  8
0
 62
7
 10
3.27340410E+02
 20
-1.53986026E+02
 11
3.40583267E+02
 21
-1.53986026E+02
  0
LINE
  8
0
 62
7
 10
3.09583267E+02
 20
-2.13286027E+02
 11
3.40583267E+02
 21
-2.13286027E+02
  0
LINE
  8
0
 62
7
 10
3.40583267E+02
 20
-1.32986025E+02
 11
3.09583267E+02
 21
-1.32986025E+02
  0
LINE
  8
0
 62
7
 10
3.25340410E+02
 20
-1.98486026E+02
 11
3.25340410E+02
 21
-1.95986026E+02
  0
LINE
  8
0
 62
7
 10
3.15583267E+02
 20
-1.88986026E+02
 11
3.15583267E+02
 21
-1.93986026E+02
  0
LINE
  8
0
 62
7
 10
3.38783267E+02
 20
-1.78386026E+02
 11
3.38783267E+02
 21
-1.80757455E+02
  0
LINE
  8
0
 62
7
 10
3.08083267E+02
 20
-1.89243169E+02
 11
3.15583267E+02
 21
-1.89243169E+02
  0
LINE
  8
0
 62
7
 10
3.08083267E+02
 20
-1.58743169E+02
 11
3.15583267E+02
 21
-1.58743169E+02
  0
LINE
  8
0
 62
7
 10
3.27340410E+02
 20
-1.93986026E+02
 11
3.40583267E+02
 21
-1.93986026E+02
  0
LINE
  8
0
 62
7
 10
3.15583267E+02
 20
-1.53986026E+02
 11
3.15583267E+02
 21
-1.58986026E+02
  0
LINE
  8
0
 62
7
 10
3.00526124E+02
 20
-2.33714598E+02
 11
3.00426124E+02
 21
-2.29971741E+02
  0
LINE
  8
0
 62
7
 10
2.98583267E+02
 20
-1.99586026E+02
 11
2.99183267E+02
 21
-1.98986026E+02
  0
LINE
  8
0
 62
7
 10
2.98583267E+02
 20
-1.99586026E+02
 11
3.02233266E+02
 21
-1.99586026E+02
  0
LINE
  8
0
 62
7
 10
2.97483267E+02
 20
-2.04986027E+02
 11
2.97483267E+02
 21
-2.06486027E+02
  0
LINE
  8
0
 62
7
 10
2.96583267E+02
 20
-2.28986027E+02
 11
3.16283267E+02
 21
-2.28986027E+02
  0
LINE
  8
0
 62
7
 10
2.99583267E+02
 20
-1.50486026E+02
 11
3.01083267E+02
 21
-1.48986026E+02
  0
LINE
  8
0
 62
7
 10
3.06975507E+02
 20
-1.93979429E+02
 11
3.06668981E+02
 21
-1.98986026E+02
  0
LINE
  8
0
 62
7
 10
2.99583267E+02
 20
-1.50486026E+02
 11
2.99226124E+02
 21
-1.58986026E+02
  0
LINE
  8
0
 62
7
 10
2.99583267E+02
 20
-1.50486026E+02
 11
3.07583267E+02
 21
-1.50486026E+02
  0
LINE
  8
0
 62
7
 10
2.96583267E+02
 20
-2.06486027E+02
 11
3.02233266E+02
 21
-2.06486027E+02
  0
LINE
  8
0
 62
7
 10
2.95583267E+02
 20
-1.99986026E+02
 11
2.95583267E+02
 21
-2.27986027E+02
  0
LINE
  8
0
 62
7
 10
2.96583267E+02
 20
-1.98986026E+02
 11
3.02233266E+02
 21
-1.98986026E+02
  0
LINE
  8
0
 62
7
 10
2.95583267E+02
 20
-2.13986027E+02
 11
3.15668981E+02
 21
-2.13986027E+02
  0
LINE
  8
0
 62
7
 10
2.38553200E+02
 20
-2.10998394E+02
 11
2.38553201E+02
 21
-2.06298394E+02
  0
LINE
  8
0
 62
7
 10
2.38553505E+02
 20
-2.10998394E+02
 11
2.38033505E+02
 21
-2.11298394E+02
  0
LINE
  8
0
 62
7
 10
2.38553505E+02
 20
-2.10998394E+02
 11
2.38553506E+02
 21
-2.06298394E+02
  0
LINE
  8
0
 62
7
 10
2.31303411E+02
 20
-1.71108370E+02
 11
2.33813411E+02
 21
-1.72558370E+02
  0
LINE
  8
0
 62
7
 10
2.31303411E+02
 20
-1.76888370E+02
 11
2.33813411E+02
 21
-1.75438370E+02
  0
LINE
  8
0
 62
7
 10
2.33813411E+02
 20
-1.72558370E+02
 11
2.33813411E+02
 21
-1.75438370E+02
  0
LINE
  8
0
 62
7
 10
3.16839203E+02
 20
-1.35298385E+02
 11
3.16839205E+02
 21
-1.39998385E+02
  0
LINE
  8
0
 62
7
 10
3.16839203E+02
 20
-1.35298385E+02
 11
3.16319203E+02
 21
-1.34998386E+02
  0
LINE
  8
0
 62
7
 10
3.16319203E+02
 20
-1.34998386E+02
 11
3.08859203E+02
 21
-1.34998388E+02
  0
LINE
  8
0
 62
7
 10
3.16839203E+02
 20
-1.35298385E+02
 11
3.08339203E+02
 21
-1.35298388E+02
  0
LINE
  8
0
 62
7
 10
3.08339203E+02
 20
-1.35298388E+02
 11
3.08859203E+02
 21
-1.34998388E+02
  0
LINE
  8
0
 62
7
 10
3.08339203E+02
 20
-1.35298388E+02
 11
3.08339205E+02
 21
-1.39998388E+02
  0
LINE
  8
0
 62
7
 10
3.08339203E+02
 20
-2.10998370E+02
 11
3.08339205E+02
 21
-2.06298370E+02
  0
LINE
  8
0
 62
7
 10
3.08339203E+02
 20
-2.10998370E+02
 11
3.08859203E+02
 21
-2.11298370E+02
  0
LINE
  8
0
 62
7
 10
3.08859203E+02
 20
-2.11298370E+02
 11
3.16319203E+02
 21
-2.11298373E+02
  0
LINE
  8
0
 62
7
 10
3.08339203E+02
 20
-2.10998370E+02
 11
3.16839203E+02
 21
-2.10998373E+02
  0
LINE
  8
0
 62
7
 10
3.16839203E+02
 20
-2.10998373E+02
 11
3.16319203E+02
 21
-2.11298373E+02
  0
LINE
  8
0
 62
7
 10
3.16839203E+02
 20
-2.10998373E+02
 11
3.16839205E+02
 21
-2.06298373E+02
  0
LINE
  8
0
 62
7
 10
2.38553505E+02
 20
-1.35298407E+02
 11
2.38553506E+02
 21
-1.39998407E+02
  0
LINE
  8
0
 62
7
 10
2.38553505E+02
 20
-1.35298407E+02
 11
2.38033505E+02
 21
-1.34998407E+02
  0
TEXT
  8
0
 62
7
 10
-3.13615379E+02
 20
1.69663998E+02
 40
6.30000019E+00
  1
IN
 41
1.00000000E+00
  7
MONOTXT
  0
TEXT
  8
0
 62
7
 10
-9.02053791E+01
 20
1.69663998E+02
 40
6.30000019E+00
  1
OUT
 41
1.00000000E+00
  7
MONOTXT
  0
TEXT
  8
0
 62
7
 10
-2.77218158E+02
 20
-2.67750000E+02
 40
6.00000000E+00
  1
-G1A
 41
1.00000000E+00
  7
MONOTXT
  0
TEXT
  8
0
 62
7
 10
2.55481712E+02
 20
-2.67750000E+02
 40
6.00000000E+00
  1
-GS2
 41
1.00000000E+00
  7
MONOTXT
  0
TEXT
  8
0
 62
7
 10
-6.78682228E+01
 20
-2.67750000E+02
 40
6.00000000E+00
  1
-GS1A,-GS1B,-GS1C,-GS1D
 41
1.00000000E+00
  7
MONOTXT
  0
LINE
  8
0
  6
CENTER
 62
2
 10
1.98965494E+02
 20
-5.16769720E-02
 11
1.98965494E+02
 21
-6.26913899E+01
  0
LINE
  8
0
 62
7
 10
2.17375494E+02
 20
-3.35216770E+01
 11
1.80545494E+02
 21
-3.35216770E+01
  0
LINE
  8
0
 62
7
 10
2.18925494E+02
 20
-1.60216770E+01
 11
2.25825494E+02
 21
-1.60216770E+01
  0
LINE
  8
0
 62
7
 10
2.32375494E+02
 20
-1.86516770E+01
 11
2.32431338E+02
 21
-1.24888230E+01
  0
LINE
  8
0
 62
7
 10
2.18925494E+02
 20
-1.55216770E+01
 11
2.23995494E+02
 21
-1.55216770E+01
  0
LINE
  8
0
 62
7
 10
2.26825494E+02
 20
-1.09867415E+01
 11
2.26825494E+02
 21
-1.50216770E+01
  0
LINE
  8
0
 62
7
 10
2.24995494E+02
 20
-1.04963944E+01
 11
2.24995494E+02
 21
-1.45216770E+01
  0
LINE
  8
0
 62
7
 10
2.17925494E+02
 20
-8.60199365E+00
 11
2.17925494E+02
 21
-1.50216770E+01
  0
LINE
  8
0
 62
7
 10
2.18535494E+02
 20
-1.65216770E+01
 11
2.26085494E+02
 21
-1.65216770E+01
  0
LINE
  8
0
 62
7
 10
2.18535494E+02
 20
-1.70216770E+01
 11
2.26685494E+02
 21
-1.70216770E+01
  0
LINE
  8
0
 62
7
 10
2.17535494E+02
 20
-8.49749347E+00
 11
2.17535494E+02
 21
-1.60216770E+01
  0
LINE
  8
0
 62
7
 10
2.27085494E+02
 20
-1.10564083E+01
 11
2.27085494E+02
 21
-1.55216770E+01
  0
LINE
  8
0
 62
7
 10
2.27685494E+02
 20
-1.12171778E+01
 11
2.27685494E+02
 21
-1.60216770E+01
  0
LINE
  8
0
 62
7
 10
1.79005494E+02
 20
-1.60216770E+01
 11
1.72105494E+02
 21
-1.60216770E+01
  0
LINE
  8
0
 62
7
 10
1.79005494E+02
 20
-1.55216770E+01
 11
1.73935494E+02
 21
-1.55216770E+01
  0
LINE
  8
0
 62
7
 10
1.71105494E+02
 20
3.94338754E+00
 11
1.71105494E+02
 21
-1.50216770E+01
  0
LINE
  8
0
 62
7
 10
1.72935494E+02
 20
3.45304051E+00
 11
1.72935494E+02
 21
-1.45216770E+01
  0
LINE
  8
0
 62
7
 10
1.80005494E+02
 20
1.55863972E+00
 11
1.80005494E+02
 21
-1.50216770E+01
  0
LINE
  8
0
 62
7
 10
1.79385494E+02
 20
-1.65216770E+01
 11
1.71845494E+02
 21
-1.65216770E+01
  0
LINE
  8
0
 62
7
 10
1.79385494E+02
 20
-1.70216770E+01
 11
1.71245494E+02
 21
-1.70216770E+01
  0
LINE
  8
0
 62
7
 10
1.80385494E+02
 20
1.45681903E+00
 11
1.80385494E+02
 21
-1.60216770E+01
  0
LINE
  8
0
 62
7
 10
1.70845494E+02
 20
4.01305433E+00
 11
1.70845494E+02
 21
-1.55216770E+01
  0
LINE
  8
0
 62
7
 10
1.70245494E+02
 20
4.17382384E+00
 11
1.70245494E+02
 21
-1.60216770E+01
  0
ARC
  8
0
 62
7
 10
2.17377232E+02
 20
-1.85228625E+01
 40
1.49988146E+01
 50
2.69993359E+02
 51
3.59507920E+02
  0
ARC
  8
0
 62
7
 10
2.18919693E+02
 20
-1.45274774E+01
 40
9.94216466E-01
 50
1.79665723E+02
 51
2.70334277E+02
  0
ARC
  8
0
 62
7
 10
2.18919693E+02
 20
-1.50274774E+01
 40
9.94216466E-01
 50
1.79665723E+02
 51
2.70334277E+02
  0
ARC
  8
0
 62
7
 10
2.18532917E+02
 20
-1.55242541E+01
 40
9.97426164E-01
 50
1.79851958E+02
 51
2.70148042E+02
  0
ARC
  8
0
 62
7
 10
2.18532917E+02
 20
-1.60242541E+01
 40
9.97426164E-01
 50
1.79851958E+02
 51
2.70148042E+02
  0
ARC
  8
0
 62
7
 10
2.23993072E+02
 20
-1.45192549E+01
 40
1.00242502E+00
 50
2.70138440E+02
 51
3.59861560E+02
  0
ARC
  8
0
 62
7
 10
2.25825317E+02
 20
-1.50215005E+01
 40
1.00017647E+00
 50
2.70000000E+02
 51
3.59989892E+02
  0
ARC
  8
0
 62
7
 10
2.26083852E+02
 20
-1.55200350E+01
 40
1.00164327E+00
 50
2.70093921E+02
 51
3.59906079E+02
  0
ARC
  8
0
 62
7
 10
2.26682428E+02
 20
-1.60186116E+01
 40
1.00307001E+00
 50
2.70175093E+02
 51
3.59824907E+02
  0
ARC
  8
0
 62
7
 10
1.79005497E+02
 20
-1.45216805E+01
 40
9.99996479E-01
 50
2.70000000E+02
 51
2.01734585E-04
  0
ARC
  8
0
 62
7
 10
1.79005497E+02
 20
-1.50216805E+01
 40
9.99996479E-01
 50
2.70000000E+02
 51
2.01734585E-04
  0
ARC
  8
0
 62
7
 10
1.79387250E+02
 20
-1.55234336E+01
 40
9.98244967E-01
 50
2.69899178E+02
 51
1.00821524E-01
  0
ARC
  8
0
 62
7
 10
1.79387250E+02
 20
-1.60234336E+01
 40
9.98244967E-01
 50
2.69899178E+02
 51
1.00821524E-01
  0
ARC
  8
0
 62
7
 10
1.73932090E+02
 20
-1.45250811E+01
 40
9.96601718E-01
 50
1.79804294E+02
 51
2.70195706E+02
  0
ARC
  8
0
 62
7
 10
1.72099964E+02
 20
-1.50272072E+01
 40
9.94485161E-01
 50
1.79681383E+02
 51
2.70318617E+02
  0
ARC
  8
0
 62
7
 10
1.71841405E+02
 20
-1.55257653E+01
 40
9.95920079E-01
 50
1.79764797E+02
 51
2.70235203E+02
  0
ARC
  8
0
 62
7
 10
1.71242744E+02
 20
-1.60244263E+01
 40
9.97254469E-01
 50
1.79842042E+02
 51
2.70157958E+02
  0
LINE
  8
0
  6
CENTER
 62
2
 10
-3.07204857E+02
 20
-2.01891677E+02
 11
-3.07204857E+02
 21
-2.11341677E+02
  0
POLYLINE
  8
0
 62
2
 66
1
  0
VERTEX
  8
0
 62
2
 10
-8.73501864E+01
 20
-2.24939245E+02
  0
VERTEX
  8
0
 62
2
 10
-8.61229270E+01
 20
-2.24405249E+02
  0
VERTEX
  8
0
 62
2
 10
-8.48813386E+01
 20
-2.23903567E+02
  0
VERTEX
  8
0
 62
2
 10
-8.36270733E+01
 20
-2.23438044E+02
  0
VERTEX
  8
0
 62
2
 10
-8.23617829E+01
 20
-2.23012521E+02
  0
VERTEX
  8
0
 62
2
 10
-8.10871194E+01
 20
-2.22630842E+02
  0
VERTEX
  8
0
 62
2
 10
-7.98047348E+01
 20
-2.22296850E+02
  0
VERTEX
  8
0
 62
2
 10
-7.85162811E+01
 20
-2.22014386E+02
  0
VERTEX
  8
0
 62
2
 10
-7.72234102E+01
 20
-2.21787295E+02
  0
VERTEX
  8
0
 62
2
 10
-7.59277740E+01
 20
-2.21619418E+02
  0
VERTEX
  8
0
 62
2
 10
-7.46310247E+01
 20
-2.21514598E+02
  0
VERTEX
  8
0
 62
2
 10
-7.23306718E+01
 20
-2.21486211E+02
  0
VERTEX
  8
0
 62
2
 10
-7.00311863E+01
 20
-2.21633733E+02
  0
VERTEX
  8
0
 62
2
 10
-6.77316769E+01
 20
-2.21922851E+02
  0
VERTEX
  8
0
 62
2
 10
-6.54312526E+01
 20
-2.22319248E+02
  0
VERTEX
  8
0
 62
2
 10
-6.31290224E+01
 20
-2.22788611E+02
  0
VERTEX
  8
0
 62
2
 10
-6.08240953E+01
 20
-2.23296625E+02
  0
VERTEX
  8
0
 62
2
 10
-5.85155801E+01
 20
-2.23808974E+02
  0
VERTEX
  8
0
 62
2
 10
-5.62025858E+01
 20
-2.24291343E+02
  0
VERTEX
  8
0
 62
2
 10
-5.38842213E+01
 20
-2.24709418E+02
  0
VERTEX
  8
0
 62
2
 10
-5.15595957E+01
 20
-2.25028884E+02
  0
VERTEX
  8
0
 62
2
 10
-5.03415104E+01
 20
-2.25146169E+02
  0
VERTEX
  8
0
 62
2
 10
-4.91219321E+01
 20
-2.25228523E+02
  0
VERTEX
  8
0
 62
2
 10
-4.79011815E+01
 20
-2.25277520E+02
  0
VERTEX
  8
0
 62
2
 10
-4.66795791E+01
 20
-2.25294732E+02
  0
VERTEX
  8
0
 62
2
 10
-4.54574457E+01
 20
-2.25281733E+02
  0
VERTEX
  8
0
 62
2
 10
-4.42351019E+01
 20
-2.25240094E+02
  0
VERTEX
  8
0
 62
2
 10
-4.30128682E+01
 20
-2.25171390E+02
  0
VERTEX
  8
0
 62
2
 10
-4.17910655E+01
 20
-2.25077193E+02
  0
VERTEX
  8
0
 62
2
 10
-4.05700142E+01
 20
-2.24959076E+02
  0
VERTEX
  8
0
 62
2
 10
-3.93500351E+01
 20
-2.24818611E+02
  0
SEQEND
  8
0
  0
POLYLINE
  8
0
 62
2
 66
1
  0
VERTEX
  8
0
 62
2
 10
4.08811407E+01
 20
-2.33722650E+02
  0
VERTEX
  8
0
 62
2
 10
4.19534493E+01
 20
-2.33435246E+02
  0
VERTEX
  8
0
 62
2
 10
4.30308155E+01
 20
-2.33178426E+02
  0
VERTEX
  8
0
 62
2
 10
4.41121203E+01
 20
-2.32954960E+02
  0
VERTEX
  8
0
 62
2
 10
4.51962448E+01
 20
-2.32767621E+02
  0
VERTEX
  8
0
 62
2
 10
4.62820702E+01
 20
-2.32619180E+02
  0
VERTEX
  8
0
 62
2
 10
4.73684775E+01
 20
-2.32512409E+02
  0
VERTEX
  8
0
 62
2
 10
4.84543480E+01
 20
-2.32450079E+02
  0
VERTEX
  8
0
 62
2
 10
4.95385627E+01
 20
-2.32434963E+02
  0
VERTEX
  8
0
 62
2
 10
5.06200027E+01
 20
-2.32469831E+02
  0
VERTEX
  8
0
 62
2
 10
5.16975492E+01
 20
-2.32557456E+02
  0
VERTEX
  8
0
 62
2
 10
5.35503715E+01
 20
-2.32833255E+02
  0
VERTEX
  8
0
 62
2
 10
5.53909003E+01
 20
-2.33238984E+02
  0
VERTEX
  8
0
 62
2
 10
5.72219629E+01
 20
-2.33738530E+02
  0
VERTEX
  8
0
 62
2
 10
5.90463865E+01
 20
-2.34295783E+02
  0
VERTEX
  8
0
 62
2
 10
6.08669983E+01
 20
-2.34874630E+02
  0
VERTEX
  8
0
 62
2
 10
6.26866257E+01
 20
-2.35438960E+02
  0
VERTEX
  8
0
 62
2
 10
6.45080958E+01
 20
-2.35952662E+02
  0
VERTEX
  8
0
 62
2
 10
6.63342360E+01
 20
-2.36379624E+02
  0
VERTEX
  8
0
 62
2
 10
6.81678733E+01
 20
-2.36683736E+02
  0
VERTEX
  8
0
 62
2
 10
7.00118352E+01
 20
-2.36828884E+02
  0
VERTEX
  8
0
 62
2
 10
7.11142926E+01
 20
-2.36826832E+02
  0
VERTEX
  8
0
 62
2
 10
7.22193869E+01
 20
-2.36759541E+02
  0
VERTEX
  8
0
 62
2
 10
7.33252925E+01
 20
-2.36631020E+02
  0
VERTEX
  8
0
 62
2
 10
7.44301835E+01
 20
-2.36445273E+02
  0
VERTEX
  8
0
 62
2
 10
7.55322341E+01
 20
-2.36206309E+02
  0
VERTEX
  8
0
 62
2
 10
7.66296187E+01
 20
-2.35918134E+02
  0
VERTEX
  8
0
 62
2
 10
7.77205114E+01
 20
-2.35584755E+02
  0
VERTEX
  8
0
 62
2
 10
7.88030864E+01
 20
-2.35210180E+02
  0
VERTEX
  8
0
 62
2
 10
7.98755180E+01
 20
-2.34798414E+02
  0
VERTEX
  8
0
 62
2
 10
8.09359804E+01
 20
-2.34353464E+02
  0
SEQEND
  8
0
  0
POLYLINE
  8
0
 62
2
 66
1
  0
VERTEX
  8
0
 62
2
 10
-1.03032519E+02
 20
-1.48997523E+02
  0
VERTEX
  8
0
 62
2
 10
-1.03546971E+02
 20
-1.50331784E+02
  0
VERTEX
  8
0
 62
2
 10
-1.04025777E+02
 20
-1.51681764E+02
  0
VERTEX
  8
0
 62
2
 10
-1.04462992E+02
 20
-1.53045045E+02
  0
VERTEX
  8
0
 62
2
 10
-1.04852671E+02
 20
-1.54419210E+02
  0
VERTEX
  8
0
 62
2
 10
-1.05188869E+02
 20
-1.55801843E+02
  0
VERTEX
  8
0
 62
2
 10
-1.05465643E+02
 20
-1.57190529E+02
  0
VERTEX
  8
0
 62
2
 10
-1.05677047E+02
 20
-1.58582849E+02
  0
VERTEX
  8
0
 62
2
 10
-1.05817137E+02
 20
-1.59976387E+02
  0
VERTEX
  8
0
 62
2
 10
-1.05879968E+02
 20
-1.61368728E+02
  0
VERTEX
  8
0
 62
2
 10
-1.05859597E+02
 20
-1.62757454E+02
  0
VERTEX
  8
0
 62
2
 10
-1.05672058E+02
 20
-1.64816438E+02
  0
VERTEX
  8
0
 62
2
 10
-1.05325707E+02
 20
-1.66864560E+02
  0
VERTEX
  8
0
 62
2
 10
-1.04859059E+02
 20
-1.68904551E+02
  0
VERTEX
  8
0
 62
2
 10
-1.04310631E+02
 20
-1.70939138E+02
  0
VERTEX
  8
0
 62
2
 10
-1.03718940E+02
 20
-1.72971052E+02
  0
VERTEX
  8
0
 62
2
 10
-1.03122501E+02
 20
-1.75003021E+02
  0
VERTEX
  8
0
 62
2
 10
-1.02559831E+02
 20
-1.77037774E+02
  0
VERTEX
  8
0
 62
2
 10
-1.02069446E+02
 20
-1.79078040E+02
  0
VERTEX
  8
0
 62
2
 10
-1.01689862E+02
 20
-1.81126548E+02
  0
VERTEX
  8
0
 62
2
 10
-1.01459597E+02
 20
-1.83186026E+02
  0
VERTEX
  8
0
 62
2
 10
-1.01404015E+02
 20
-1.84781722E+02
  0
VERTEX
  8
0
 62
2
 10
-1.01452335E+02
 20
-1.86382546E+02
  0
VERTEX
  8
0
 62
2
 10
-1.01597074E+02
 20
-1.87985364E+02
  0
VERTEX
  8
0
 62
2
 10
-1.01830751E+02
 20
-1.89587044E+02
  0
VERTEX
  8
0
 62
2
 10
-1.02145884E+02
 20
-1.91184450E+02
  0
VERTEX
  8
0
 62
2
 10
-1.02534992E+02
 20
-1.92774451E+02
  0
VERTEX
  8
0
 62
2
 10
-1.02990592E+02
 20
-1.94353911E+02
  0
VERTEX
  8
0
 62
2
 10
-1.03505204E+02
 20
-1.95919697E+02
  0
VERTEX
  8
0
 62
2
 10
-1.04071345E+02
 20
-1.97468676E+02
  0
VERTEX
  8
0
 62
2
 10
-1.04681535E+02
 20
-1.98997714E+02
  0
SEQEND
  8
0
  0
POLYLINE
  8
0
 62
2
 66
1
  0
VERTEX
  8
0
 62
2
 10
-2.29025261E+01
 20
-1.48997551E+02
  0
VERTEX
  8
0
 62
2
 10
-2.34157395E+01
 20
-1.50331836E+02
  0
VERTEX
  8
0
 62
2
 10
-2.38930570E+01
 20
-1.51681840E+02
  0
VERTEX
  8
0
 62
2
 10
-2.43286235E+01
 20
-1.53045144E+02
  0
VERTEX
  8
0
 62
2
 10
-2.47165841E+01
 20
-1.54419329E+02
  0
VERTEX
  8
0
 62
2
 10
-2.50510836E+01
 20
-1.55801976E+02
  0
VERTEX
  8
0
 62
2
 10
-2.53262669E+01
 20
-1.57190665E+02
  0
VERTEX
  8
0
 62
2
 10
-2.55362791E+01
 20
-1.58582977E+02
  0
VERTEX
  8
0
 62
2
 10
-2.56752651E+01
 20
-1.59976492E+02
  0
VERTEX
  8
0
 62
2
 10
-2.57373698E+01
 20
-1.61368791E+02
  0
VERTEX
  8
0
 62
2
 10
-2.57167381E+01
 20
-1.62757454E+02
  0
VERTEX
  8
0
 62
2
 10
-2.55295999E+01
 20
-1.64816431E+02
  0
VERTEX
  8
0
 62
2
 10
-2.51843353E+01
 20
-1.66864540E+02
  0
VERTEX
  8
0
 62
2
 10
-2.47192888E+01
 20
-1.68904512E+02
  0
VERTEX
  8
0
 62
2
 10
-2.41728052E+01
 20
-1.70939080E+02
  0
VERTEX
  8
0
 62
2
 10
-2.35832291E+01
 20
-1.72970977E+02
  0
VERTEX
  8
0
 62
2
 10
-2.29889052E+01
 20
-1.75002935E+02
  0
VERTEX
  8
0
 62
2
 10
-2.24281780E+01
 20
-1.77037687E+02
  0
VERTEX
  8
0
 62
2
 10
-2.19393923E+01
 20
-1.79077964E+02
  0
VERTEX
  8
0
 62
2
 10
-2.15608927E+01
 20
-1.81126500E+02
  0
VERTEX
  8
0
 62
2
 10
-2.13310237E+01
 20
-1.83186026E+02
  0
VERTEX
  8
0
 62
2
 10
-2.12751818E+01
 20
-1.84781722E+02
  0
VERTEX
  8
0
 62
2
 10
-2.13227781E+01
 20
-1.86382546E+02
  0
VERTEX
  8
0
 62
2
 10
-2.14664195E+01
 20
-1.87985364E+02
  0
VERTEX
  8
0
 62
2
 10
-2.16987127E+01
 20
-1.89587044E+02
  0
VERTEX
  8
0
 62
2
 10
-2.20122644E+01
 20
-1.91184450E+02
  0
VERTEX
  8
0
 62
2
 10
-2.23996814E+01
 20
-1.92774451E+02
  0
VERTEX
  8
0
 62
2
 10
-2.28535705E+01
 20
-1.94353911E+02
  0
VERTEX
  8
0
 62
2
 10
-2.33665383E+01
 20
-1.95919697E+02
  0
VERTEX
  8
0
 62
2
 10
-2.39311916E+01
 20
-1.97468676E+02
  0
VERTEX
  8
0
 62
2
 10
-2.45401372E+01
 20
-1.98997714E+02
  0
SEQEND
  8
0
  0
POLYLINE
  8
0
 62
2
 66
1
  0
VERTEX
  8
0
 62
2
 10
-2.87173958E+02
 20
-1.48997549E+02
  0
VERTEX
  8
0
 62
2
 10
-2.87687171E+02
 20
-1.50331832E+02
  0
VERTEX
  8
0
 62
2
 10
-2.88164489E+02
 20
-1.51681835E+02
  0
VERTEX
  8
0
 62
2
 10
-2.88600056E+02
 20
-1.53045138E+02
  0
VERTEX
  8
0
 62
2
 10
-2.88988016E+02
 20
-1.54419322E+02
  0
VERTEX
  8
0
 62
2
 10
-2.89322516E+02
 20
-1.55801968E+02
  0
VERTEX
  8
0
 62
2
 10
-2.89597699E+02
 20
-1.57190657E+02
  0
VERTEX
  8
0
 62
2
 10
-2.89807712E+02
 20
-1.58582969E+02
  0
VERTEX
  8
0
 62
2
 10
-2.89946697E+02
 20
-1.59976485E+02
  0
VERTEX
  8
0
 62
2
 10
-2.90008802E+02
 20
-1.61368787E+02
  0
VERTEX
  8
0
 62
2
 10
-2.89988170E+02
 20
-1.62757454E+02
  0
VERTEX
  8
0
 62
2
 10
-2.89801030E+02
 20
-1.64816469E+02
  0
VERTEX
  8
0
 62
2
 10
-2.89455759E+02
 20
-1.66864662E+02
  0
VERTEX
  8
0
 62
2
 10
-2.88990705E+02
 20
-1.68904746E+02
  0
VERTEX
  8
0
 62
2
 10
-2.88444213E+02
 20
-1.70939432E+02
  0
VERTEX
  8
0
 62
2
 10
-2.87854630E+02
 20
-1.72971431E+02
  0
VERTEX
  8
0
 62
2
 10
-2.87260301E+02
 20
-1.75003455E+02
  0
VERTEX
  8
0
 62
2
 10
-2.86699574E+02
 20
-1.77038215E+02
  0
VERTEX
  8
0
 62
2
 10
-2.86210793E+02
 20
-1.79078423E+02
  0
VERTEX
  8
0
 62
2
 10
-2.85832305E+02
 20
-1.81126789E+02
  0
VERTEX
  8
0
 62
2
 10
-2.85602456E+02
 20
-1.83186026E+02
  0
VERTEX
  8
0
 62
2
 10
-2.85546875E+02
 20
-1.84781721E+02
  0
VERTEX
  8
0
 62
2
 10
-2.85595195E+02
 20
-1.86382545E+02
  0
VERTEX
  8
0
 62
2
 10
-2.85739934E+02
 20
-1.87985363E+02
  0
VERTEX
  8
0
 62
2
 10
-2.85973611E+02
 20
-1.89587042E+02
  0
VERTEX
  8
0
 62
2
 10
-2.86288744E+02
 20
-1.91184449E+02
  0
VERTEX
  8
0
 62
2
 10
-2.86677851E+02
 20
-1.92774449E+02
  0
VERTEX
  8
0
 62
2
 10
-2.87133452E+02
 20
-1.94353910E+02
  0
VERTEX
  8
0
 62
2
 10
-2.87648063E+02
 20
-1.95919696E+02
  0
VERTEX
  8
0
 62
2
 10
-2.88214205E+02
 20
-1.97468676E+02
  0
VERTEX
  8
0
 62
2
 10
-2.88824394E+02
 20
-1.98997714E+02
  0
SEQEND
  8
0
  0
POLYLINE
  8
0
 62
2
 66
1
  0
VERTEX
  8
0
 62
2
 10
-3.67316813E+02
 20
-1.48997626E+02
  0
VERTEX
  8
0
 62
2
 10
-3.67830024E+02
 20
-1.50331969E+02
  0
VERTEX
  8
0
 62
2
 10
-3.68307338E+02
 20
-1.51682038E+02
  0
VERTEX
  8
0
 62
2
 10
-3.68742902E+02
 20
-1.53045406E+02
  0
VERTEX
  8
0
 62
2
 10
-3.69130860E+02
 20
-1.54419644E+02
  0
VERTEX
  8
0
 62
2
 10
-3.69465358E+02
 20
-1.55802326E+02
  0
VERTEX
  8
0
 62
2
 10
-3.69740541E+02
 20
-1.57191026E+02
  0
VERTEX
  8
0
 62
2
 10
-3.69950554E+02
 20
-1.58583316E+02
  0
VERTEX
  8
0
 62
2
 10
-3.70089543E+02
 20
-1.59976768E+02
  0
VERTEX
  8
0
 62
2
 10
-3.70151653E+02
 20
-1.61368957E+02
  0
VERTEX
  8
0
 62
2
 10
-3.70131029E+02
 20
-1.62757454E+02
  0
VERTEX
  8
0
 62
2
 10
-3.69943490E+02
 20
-1.64816440E+02
  0
VERTEX
  8
0
 62
2
 10
-3.69597139E+02
 20
-1.66864564E+02
  0
VERTEX
  8
0
 62
2
 10
-3.69130491E+02
 20
-1.68904556E+02
  0
VERTEX
  8
0
 62
2
 10
-3.68582063E+02
 20
-1.70939144E+02
  0
VERTEX
  8
0
 62
2
 10
-3.67990371E+02
 20
-1.72971057E+02
  0
VERTEX
  8
0
 62
2
 10
-3.67393932E+02
 20
-1.75003025E+02
  0
VERTEX
  8
0
 62
2
 10
-3.66831262E+02
 20
-1.77037777E+02
  0
VERTEX
  8
0
 62
2
 10
-3.66340878E+02
 20
-1.79078042E+02
  0
VERTEX
  8
0
 62
2
 10
-3.65961294E+02
 20
-1.81126549E+02
  0
VERTEX
  8
0
 62
2
 10
-3.65731029E+02
 20
-1.83186026E+02
  0
VERTEX
  8
0
 62
2
 10
-3.65675448E+02
 20
-1.84781721E+02
  0
VERTEX
  8
0
 62
2
 10
-3.65723767E+02
 20
-1.86382545E+02
  0
VERTEX
  8
0
 62
2
 10
-3.65868507E+02
 20
-1.87985363E+02
  0
VERTEX
  8
0
 62
2
 10
-3.66102184E+02
 20
-1.89587042E+02
  0
VERTEX
  8
0
 62
2
 10
-3.66417317E+02
 20
-1.91184449E+02
  0
VERTEX
  8
0
 62
2
 10
-3.66806424E+02
 20
-1.92774449E+02
  0
VERTEX
  8
0
 62
2
 10
-3.67262025E+02
 20
-1.94353910E+02
  0
VERTEX
  8
0
 62
2
 10
-3.67776636E+02
 20
-1.95919696E+02
  0
VERTEX
  8
0
 62
2
 10
-3.68342778E+02
 20
-1.97468676E+02
  0
VERTEX
  8
0
 62
2
 10
-3.68952967E+02
 20
-1.98997714E+02
  0
SEQEND
  8
0
  0
POLYLINE
  8
0
 62
2
 66
1
  0
VERTEX
  8
0
 62
2
 10
-2.28390291E+02
 20
-2.33722650E+02
  0
VERTEX
  8
0
 62
2
 10
-2.27317982E+02
 20
-2.33435246E+02
  0
VERTEX
  8
0
 62
2
 10
-2.26240616E+02
 20
-2.33178426E+02
  0
VERTEX
  8
0
 62
2
 10
-2.25159311E+02
 20
-2.32954960E+02
  0
VERTEX
  8
0
 62
2
 10
-2.24075187E+02
 20
-2.32767621E+02
  0
VERTEX
  8
0
 62
2
 10
-2.22989361E+02
 20
-2.32619180E+02
  0
VERTEX
  8
0
 62
2
 10
-2.21902954E+02
 20
-2.32512409E+02
  0
VERTEX
  8
0
 62
2
 10
-2.20817084E+02
 20
-2.32450079E+02
  0
VERTEX
  8
0
 62
2
 10
-2.19732869E+02
 20
-2.32434963E+02
  0
VERTEX
  8
0
 62
2
 10
-2.18651429E+02
 20
-2.32469831E+02
  0
VERTEX
  8
0
 62
2
 10
-2.17573883E+02
 20
-2.32557456E+02
  0
VERTEX
  8
0
 62
2
 10
-2.15721062E+02
 20
-2.32833255E+02
  0
VERTEX
  8
0
 62
2
 10
-2.13880535E+02
 20
-2.33238984E+02
  0
VERTEX
  8
0
 62
2
 10
-2.12049475E+02
 20
-2.33738530E+02
  0
VERTEX
  8
0
 62
2
 10
-2.10225054E+02
 20
-2.34295783E+02
  0
VERTEX
  8
0
 62
2
 10
-2.08404445E+02
 20
-2.34874630E+02
  0
VERTEX
  8
0
 62
2
 10
-2.06584819E+02
 20
-2.35438960E+02
  0
VERTEX
  8
0
 62
2
 10
-2.04763349E+02
 20
-2.35952662E+02
  0
VERTEX
  8
0
 62
2
 10
-2.02937207E+02
 20
-2.36379624E+02
  0
VERTEX
  8
0
 62
2
 10
-2.01103566E+02
 20
-2.36683735E+02
  0
VERTEX
  8
0
 62
2
 10
-1.99259597E+02
 20
-2.36828884E+02
  0
VERTEX
  8
0
 62
2
 10
-1.98157136E+02
 20
-2.36826832E+02
  0
VERTEX
  8
0
 62
2
 10
-1.97052038E+02
 20
-2.36759542E+02
  0
VERTEX
  8
0
 62
2
 10
-1.95946131E+02
 20
-2.36631020E+02
  0
VERTEX
  8
0
 62
2
 10
-1.94841239E+02
 20
-2.36445273E+02
  0
VERTEX
  8
0
 62
2
 10
-1.93739188E+02
 20
-2.36206309E+02
  0
VERTEX
  8
0
 62
2
 10
-1.92641803E+02
 20
-2.35918135E+02
  0
VERTEX
  8
0
 62
2
 10
-1.91550912E+02
 20
-2.35584756E+02
  0
VERTEX
  8
0
 62
2
 10
-1.90468338E+02
 20
-2.35210180E+02
  0
VERTEX
  8
0
 62
2
 10
-1.89395908E+02
 20
-2.34798414E+02
  0
VERTEX
  8
0
 62
2
 10
-1.88335447E+02
 20
-2.34353465E+02
  0
SEQEND
  8
0
  0
POLYLINE
  8
0
 62
2
 66
1
  0
VERTEX
  8
0
 62
2
 10
-3.51621621E+02
 20
-2.24939246E+02
  0
VERTEX
  8
0
 62
2
 10
-3.50394363E+02
 20
-2.24405249E+02
  0
VERTEX
  8
0
 62
2
 10
-3.49152776E+02
 20
-2.23903568E+02
  0
VERTEX
  8
0
 62
2
 10
-3.47898511E+02
 20
-2.23438045E+02
  0
VERTEX
  8
0
 62
2
 10
-3.46633222E+02
 20
-2.23012522E+02
  0
VERTEX
  8
0
 62
2
 10
-3.45358559E+02
 20
-2.22630843E+02
  0
VERTEX
  8
0
 62
2
 10
-3.44076174E+02
 20
-2.22296850E+02
  0
VERTEX
  8
0
 62
2
 10
-3.42787720E+02
 20
-2.22014387E+02
  0
VERTEX
  8
0
 62
2
 10
-3.41494848E+02
 20
-2.21787295E+02
  0
VERTEX
  8
0
 62
2
 10
-3.40199209E+02
 20
-2.21619418E+02
  0
VERTEX
  8
0
 62
2
 10
-3.38902457E+02
 20
-2.21514598E+02
  0
VERTEX
  8
0
 62
2
 10
-3.36602099E+02
 20
-2.21486210E+02
  0
VERTEX
  8
0
 62
2
 10
-3.34302610E+02
 20
-2.21633733E+02
  0
VERTEX
  8
0
 62
2
 10
-3.32003100E+02
 20
-2.21922850E+02
  0
VERTEX
  8
0
 62
2
 10
-3.29702676E+02
 20
-2.22319248E+02
  0
VERTEX
  8
0
 62
2
 10
-3.27400447E+02
 20
-2.22788611E+02
  0
VERTEX
  8
0
 62
2
 10
-3.25095522E+02
 20
-2.23296624E+02
  0
VERTEX
  8
0
 62
2
 10
-3.22787009E+02
 20
-2.23808973E+02
  0
VERTEX
  8
0
 62
2
 10
-3.20474016E+02
 20
-2.24291343E+02
  0
VERTEX
  8
0
 62
2
 10
-3.18155653E+02
 20
-2.24709418E+02
  0
VERTEX
  8
0
 62
2
 10
-3.15831028E+02
 20
-2.25028884E+02
  0
VERTEX
  8
0
 62
2
 10
-3.14612942E+02
 20
-2.25146169E+02
  0
VERTEX
  8
0
 62
2
 10
-3.13393364E+02
 20
-2.25228523E+02
  0
VERTEX
  8
0
 62
2
 10
-3.12172613E+02
 20
-2.25277520E+02
  0
VERTEX
  8
0
 62
2
 10
-3.10951011E+02
 20
-2.25294732E+02
  0
VERTEX
  8
0
 62
2
 10
-3.09728877E+02
 20
-2.25281733E+02
  0
VERTEX
  8
0
 62
2
 10
-3.08506534E+02
 20
-2.25240094E+02
  0
VERTEX
  8
0
 62
2
 10
-3.07284300E+02
 20
-2.25171390E+02
  0
VERTEX
  8
0
 62
2
 10
-3.06062497E+02
 20
-2.25077193E+02
  0
VERTEX
  8
0
 62
2
 10
-3.04841446E+02
 20
-2.24959076E+02
  0
VERTEX
  8
0
 62
2
 10
-3.03621467E+02
 20
-2.24818611E+02
  0
SEQEND
  8
0
  0
POLYLINE
  8
0
 62
2
 66
1
  0
VERTEX
  8
0
 62
2
 10
1.66611762E+02
 20
-1.48997549E+02
  0
VERTEX
  8
0
 62
2
 10
1.66098549E+02
 20
-1.50331832E+02
  0
VERTEX
  8
0
 62
2
 10
1.65621231E+02
 20
-1.51681835E+02
  0
VERTEX
  8
0
 62
2
 10
1.65185665E+02
 20
-1.53045138E+02
  0
VERTEX
  8
0
 62
2
 10
1.64797704E+02
 20
-1.54419323E+02
  0
VERTEX
  8
0
 62
2
 10
1.64463204E+02
 20
-1.55801969E+02
  0
VERTEX
  8
0
 62
2
 10
1.64188021E+02
 20
-1.57190658E+02
  0
VERTEX
  8
0
 62
2
 10
1.63978009E+02
 20
-1.58582970E+02
  0
VERTEX
  8
0
 62
2
 10
1.63839023E+02
 20
-1.59976486E+02
  0
VERTEX
  8
0
 62
2
 10
1.63776918E+02
 20
-1.61368788E+02
  0
VERTEX
  8
0
 62
2
 10
1.63797550E+02
 20
-1.62757454E+02
  0
VERTEX
  8
0
 62
2
 10
1.63984691E+02
 20
-1.64816468E+02
  0
VERTEX
  8
0
 62
2
 10
1.64329961E+02
 20
-1.66864660E+02
  0
VERTEX
  8
0
 62
2
 10
1.64795015E+02
 20
-1.68904744E+02
  0
VERTEX
  8
0
 62
2
 10
1.65341507E+02
 20
-1.70939429E+02
  0
VERTEX
  8
0
 62
2
 10
1.65931090E+02
 20
-1.72971428E+02
  0
VERTEX
  8
0
 62
2
 10
1.66525419E+02
 20
-1.75003451E+02
  0
VERTEX
  8
0
 62
2
 10
1.67086146E+02
 20
-1.77038212E+02
  0
VERTEX
  8
0
 62
2
 10
1.67574927E+02
 20
-1.79078420E+02
  0
VERTEX
  8
0
 62
2
 10
1.67953415E+02
 20
-1.81126788E+02
  0
VERTEX
  8
0
 62
2
 10
1.68183264E+02
 20
-1.83186026E+02
  0
VERTEX
  8
0
 62
2
 10
1.68238846E+02
 20
-1.84781723E+02
  0
VERTEX
  8
0
 62
2
 10
1.68190526E+02
 20
-1.86382547E+02
  0
VERTEX
  8
0
 62
2
 10
1.68045786E+02
 20
-1.87985366E+02
  0
VERTEX
  8
0
 62
2
 10
1.67812109E+02
 20
-1.89587045E+02
  0
VERTEX
  8
0
 62
2
 10
1.67496976E+02
 20
-1.91184452E+02
  0
VERTEX
  8
0
 62
2
 10
1.67107869E+02
 20
-1.92774452E+02
  0
VERTEX
  8
0
 62
2
 10
1.66652268E+02
 20
-1.94353912E+02
  0
VERTEX
  8
0
 62
2
 10
1.66137657E+02
 20
-1.95919699E+02
  0
VERTEX
  8
0
 62
2
 10
1.65571515E+02
 20
-1.97468677E+02
  0
VERTEX
  8
0
 62
2
 10
1.64961326E+02
 20
-1.98997715E+02
  0
SEQEND
  8
0
  0
POLYLINE
  8
0
 62
2
 66
1
  0
VERTEX
  8
0
 62
2
 10
1.82292676E+02
 20
-2.24939245E+02
  0
VERTEX
  8
0
 62
2
 10
1.83519936E+02
 20
-2.24405249E+02
  0
VERTEX
  8
0
 62
2
 10
1.84761525E+02
 20
-2.23903567E+02
  0
VERTEX
  8
0
 62
2
 10
1.86015791E+02
 20
-2.23438044E+02
  0
VERTEX
  8
0
 62
2
 10
1.87281082E+02
 20
-2.23012521E+02
  0
VERTEX
  8
0
 62
2
 10
1.88555746E+02
 20
-2.22630842E+02
  0
VERTEX
  8
0
 62
2
 10
1.89838131E+02
 20
-2.22296850E+02
  0
VERTEX
  8
0
 62
2
 10
1.91126584E+02
 20
-2.22014386E+02
  0
VERTEX
  8
0
 62
2
 10
1.92419454E+02
 20
-2.21787294E+02
  0
VERTEX
  8
0
 62
2
 10
1.93715089E+02
 20
-2.21619418E+02
  0
VERTEX
  8
0
 62
2
 10
1.95011836E+02
 20
-2.21514598E+02
  0
VERTEX
  8
0
 62
2
 10
1.97312186E+02
 20
-2.21486211E+02
  0
VERTEX
  8
0
 62
2
 10
1.99611670E+02
 20
-2.21633733E+02
  0
VERTEX
  8
0
 62
2
 10
2.01911179E+02
 20
-2.21922851E+02
  0
VERTEX
  8
0
 62
2
 10
2.04211604E+02
 20
-2.22319249E+02
  0
VERTEX
  8
0
 62
2
 10
2.06513836E+02
 20
-2.22788612E+02
  0
VERTEX
  8
0
 62
2
 10
2.08818765E+02
 20
-2.23296625E+02
  0
VERTEX
  8
0
 62
2
 10
2.11127281E+02
 20
-2.23808974E+02
  0
VERTEX
  8
0
 62
2
 10
2.13440277E+02
 20
-2.24291343E+02
  0
VERTEX
  8
0
 62
2
 10
2.15758641E+02
 20
-2.24709418E+02
  0
VERTEX
  8
0
 62
2
 10
2.18083265E+02
 20
-2.25028884E+02
  0
VERTEX
  8
0
 62
2
 10
2.19301349E+02
 20
-2.25146169E+02
  0
VERTEX
  8
0
 62
2
 10
2.20520927E+02
 20
-2.25228523E+02
  0
VERTEX
  8
0
 62
2
 10
2.21741677E+02
 20
-2.25277520E+02
  0
VERTEX
  8
0
 62
2
 10
2.22963278E+02
 20
-2.25294732E+02
  0
VERTEX
  8
0
 62
2
 10
2.24185411E+02
 20
-2.25281733E+02
  0
VERTEX
  8
0
 62
2
 10
2.25407755E+02
 20
-2.25240094E+02
  0
VERTEX
  8
0
 62
2
 10
2.26629988E+02
 20
-2.25171390E+02
  0
VERTEX
  8
0
 62
2
 10
2.27851791E+02
 20
-2.25077193E+02
  0
VERTEX
  8
0
 62
2
 10
2.29072842E+02
 20
-2.24959076E+02
  0
VERTEX
  8
0
 62
2
 10
2.30292821E+02
 20
-2.24818612E+02
  0
SEQEND
  8
0
  0
LINE
  8
0
 62
7
 10
-9.63453107E+01
 20
-1.99286026E+02
 11
-8.75310249E+01
 21
-1.99286026E+02
  0
LINE
  8
0
 62
7
 10
-3.23453096E+01
 20
-1.32986025E+02
 11
-9.43453107E+01
 21
-1.32986025E+02
  0
LINE
  8
0
 62
7
 10
-9.63453107E+01
 20
-1.34986025E+02
 11
-9.63453107E+01
 21
-1.58986026E+02
  0
LINE
  8
0
 62
7
 10
-3.03453096E+01
 20
-1.34986025E+02
 11
-3.03453096E+01
 21
-1.58986026E+02
  0
LINE
  8
0
 62
7
 10
-3.03453096E+01
 20
-1.99286026E+02
 11
-3.03453096E+01
 21
-2.11286027E+02
  0
LINE
  8
0
 62
7
 10
-9.63453107E+01
 20
-1.99286026E+02
 11
-9.63453107E+01
 21
-2.11286027E+02
  0
LINE
  8
0
 62
7
 10
-3.23453096E+01
 20
-2.13286027E+02
 11
-9.43453107E+01
 21
-2.13286027E+02
  0
LINE
  8
0
 62
7
 10
-9.56024536E+01
 20
-2.06286027E+02
 11
-8.63453106E+01
 21
-2.06286027E+02
  0
LINE
  8
0
 62
7
 10
-8.63453106E+01
 20
-2.06286027E+02
 11
-8.63453106E+01
 21
-2.11286027E+02
  0
LINE
  8
0
  6
CENTER
 62
2
 10
-9.13453107E+01
 20
-2.05286027E+02
 11
-9.13453107E+01
 21
-2.14286027E+02
  0
LINE
  8
0
 62
7
 10
-9.56024536E+01
 20
-1.39986025E+02
 11
-8.63453106E+01
 21
-1.39986025E+02
  0
LINE
  8
0
  6
CENTER
 62
2
 10
-9.13453107E+01
 20
-1.40986025E+02
 11
-9.13453107E+01
 21
-1.31986025E+02
  0
LINE
  8
0
 62
7
 10
-8.63453106E+01
 20
-1.39986025E+02
 11
-8.63453106E+01
 21
-1.34986025E+02
  0
LINE
  8
0
 62
7
 10
-4.03453098E+01
 20
-2.06286027E+02
 11
-4.03453098E+01
 21
-2.11286027E+02
  0
LINE
  8
0
 62
7
 10
-3.10881668E+01
 20
-2.06286027E+02
 11
-4.03453098E+01
 21
-2.06286027E+02
  0
LINE
  8
0
  6
CENTER
 62
2
 10
-3.53453097E+01
 20
-2.05286027E+02
 11
-3.53453097E+01
 21
-2.14286027E+02
  0
LINE
  8
0
 62
7
 10
-3.10881668E+01
 20
-1.39986025E+02
 11
-4.03453098E+01
 21
-1.39986025E+02
  0
LINE
  8
0
  6
CENTER
 62
2
 10
-3.53453097E+01
 20
-1.40986025E+02
 11
-3.53453097E+01
 21
-1.31986025E+02
  0
LINE
  8
0
 62
7
 10
-4.03453098E+01
 20
-1.39986025E+02
 11
-4.03453098E+01
 21
-1.34986025E+02
  0
LINE
  8
0
 62
7
 10
-9.63453107E+01
 20
-1.48986026E+02
 11
-8.79024535E+01
 21
-1.48986026E+02
  0
LINE
  8
0
 62
7
 10
-9.63453107E+01
 20
-1.98986026E+02
 11
-8.79024535E+01
 21
-1.98986026E+02
  0
LINE
  8
0
 62
7
 10
-9.53453107E+01
 20
-1.98986026E+02
 11
-9.53453107E+01
 21
-1.99286026E+02
  0
LINE
  8
0
 62
7
 10
-3.13453096E+01
 20
-1.98986026E+02
 11
-3.13453096E+01
 21
-1.99286026E+02
  0
LINE
  8
0
 62
7
 10
-9.63453107E+01
 20
-1.88986026E+02
 11
-9.63453107E+01
 21
-1.98986026E+02
  0
LINE
  8
0
 62
7
 10
-3.03453096E+01
 20
-1.88986026E+02
 11
-3.03453096E+01
 21
-1.98986026E+02
  0
LINE
  8
0
 62
7
 10
-2.55881667E+01
 20
-1.58986026E+02
 11
-3.70881669E+01
 21
-1.58986026E+02
  0
LINE
  8
0
 62
7
 10
-2.16024523E+01
 20
-1.88986026E+02
 11
-3.70881669E+01
 21
-1.88986026E+02
  0
LINE
  8
0
 62
7
 10
-3.87881669E+01
 20
-1.48986026E+02
 11
-2.29024523E+01
 21
-1.48986026E+02
  0
LINE
  8
0
 62
7
 10
-8.96024535E+01
 20
-1.58986026E+02
 11
-1.05716739E+02
 21
-1.58986026E+02
  0
LINE
  8
0
 62
7
 10
-8.96024535E+01
 20
-1.88986026E+02
 11
-1.01731025E+02
 21
-1.88986026E+02
  0
LINE
  8
0
 62
7
 10
-3.87881669E+01
 20
-1.98986026E+02
 11
-2.45453095E+01
 21
-1.98986026E+02
  0
LINE
  8
0
 62
7
 10
-3.91595955E+01
 20
-1.99286026E+02
 11
-3.03453096E+01
 21
-1.99286026E+02
  0
LINE
  8
0
 62
7
 10
-9.08595964E+01
 20
-1.72543169E+02
 11
-9.08595964E+01
 21
-1.75443169E+02
  0
LINE
  8
0
 62
7
 10
-9.08595964E+01
 20
-1.72543169E+02
 11
-8.96024535E+01
 21
-1.71814597E+02
  0
LINE
  8
0
 62
7
 10
-9.08595964E+01
 20
-1.75443169E+02
 11
-8.96024535E+01
 21
-1.76171740E+02
  0
LINE
  8
0
 62
7
 10
-3.58310240E+01
 20
-1.72543169E+02
 11
-3.58310240E+01
 21
-1.75443169E+02
  0
LINE
  8
0
 62
7
 10
-3.70881669E+01
 20
-1.76171740E+02
 11
-3.58310240E+01
 21
-1.75443169E+02
  0
LINE
  8
0
 62
7
 10
-3.70881669E+01
 20
-1.71814597E+02
 11
-3.58310240E+01
 21
-1.72543169E+02
  0
LINE
  8
0
 62
7
 10
-8.73453106E+01
 20
-2.13286027E+02
 11
-8.73453106E+01
 21
-2.24928884E+02
  0
LINE
  8
0
 62
7
 10
-3.93453098E+01
 20
-2.13286027E+02
 11
-3.93453098E+01
 21
-2.24828884E+02
  0
LINE
  8
0
 62
7
 10
-3.93453098E+01
 20
-2.15286027E+02
 11
-8.73453106E+01
 21
-2.15286027E+02
  0
LINE
  8
0
 62
7
 10
-1.03045311E+02
 20
-1.48986026E+02
 11
-9.78453108E+01
 21
-1.48986026E+02
  0
LINE
  8
0
 62
7
 10
-9.63453107E+01
 20
-1.50486026E+02
 11
-1.03631025E+02
 21
-1.50486026E+02
  0
LINE
  8
0
 62
7
 10
-9.78453108E+01
 20
-1.49000311E+02
 11
-9.63453107E+01
 21
-1.50500311E+02
  0
LINE
  8
0
 62
7
 10
-9.78453108E+01
 20
-1.48986026E+02
 11
-9.78453108E+01
 21
-1.58986026E+02
  0
LINE
  8
0
 62
7
 10
-9.78453108E+01
 20
-1.88986026E+02
 11
-9.78453108E+01
 21
-1.98986026E+02
  0
LINE
  8
0
 62
7
 10
-1.04673882E+02
 20
-1.98986026E+02
 11
-9.73453108E+01
 21
-1.98986026E+02
  0
LINE
  8
0
 62
7
 10
3.59404061E+01
 20
-2.13986027E+02
 11
5.60261207E+01
 21
-2.13986027E+02
  0
LINE
  8
0
 62
7
 10
3.69404061E+01
 20
-1.98986026E+02
 11
8.09404068E+01
 21
-1.98986026E+02
  0
LINE
  8
0
 62
7
 10
3.59404061E+01
 20
-1.99986026E+02
 11
3.59404061E+01
 21
-2.27986027E+02
  0
LINE
  8
0
  6
CENTER
 62
2
 10
4.39404062E+01
 20
-1.95986026E+02
 11
4.39404062E+01
 21
-2.09486027E+02
  0
LINE
  8
0
 62
7
 10
3.69404061E+01
 20
-2.06486027E+02
 11
4.79404063E+01
 21
-2.06486027E+02
  0
LINE
  8
0
 62
7
 10
3.99404061E+01
 20
-1.50486026E+02
 11
4.79404063E+01
 21
-1.50486026E+02
  0
LINE
  8
0
 62
7
 10
3.99404061E+01
 20
-1.50486026E+02
 11
3.92546918E+01
 21
-1.66986026E+02
  0
LINE
  8
0
 62
7
 10
4.79404063E+01
 20
-1.84271740E+02
 11
4.70261205E+01
 21
-1.98986026E+02
  0
LINE
  8
0
 62
7
 10
3.99404061E+01
 20
-1.50486026E+02
 11
4.14404061E+01
 21
-1.48986026E+02
  0
LINE
  8
0
 62
7
 10
3.69404061E+01
 20
-2.28986027E+02
 11
5.66404064E+01
 21
-2.28986027E+02
  0
LINE
  8
0
 62
7
 10
3.89404061E+01
 20
-1.99586026E+02
 11
3.89404061E+01
 21
-2.04986027E+02
  0
LINE
  8
0
 62
7
 10
4.79404063E+01
 20
-2.04986027E+02
 11
3.78404061E+01
 21
-2.04986027E+02
  0
LINE
  8
0
 62
7
 10
3.78404061E+01
 20
-2.04986027E+02
 11
3.78404061E+01
 21
-2.06486027E+02
  0
LINE
  8
0
 62
7
 10
3.89404061E+01
 20
-1.99586026E+02
 11
4.79404063E+01
 21
-1.99586026E+02
  0
LINE
  8
0
 62
7
 10
3.89404061E+01
 20
-1.99586026E+02
 11
3.95404061E+01
 21
-1.98986026E+02
  0
LINE
  8
0
 62
7
 10
4.08832633E+01
 20
-2.33714598E+02
 11
4.07832633E+01
 21
-2.29971741E+02
  0
LINE
  8
0
 62
7
 10
4.79404063E+01
 20
-1.34986025E+02
 11
4.79404063E+01
 21
-1.58243169E+02
  0
LINE
  8
0
 62
7
 10
4.79404063E+01
 20
-1.89743169E+02
 11
4.79404063E+01
 21
-2.11286027E+02
  0
LINE
  8
0
 62
7
 10
5.59404064E+01
 20
-1.53986026E+02
 11
5.59404064E+01
 21
-1.58986026E+02
  0
LINE
  8
0
 62
7
 10
6.76975495E+01
 20
-1.93986026E+02
 11
8.09404068E+01
 21
-1.93986026E+02
  0
LINE
  8
0
 62
7
 10
4.84404063E+01
 20
-1.58743169E+02
 11
5.59404064E+01
 21
-1.58743169E+02
  0
LINE
  8
0
 62
7
 10
4.84404063E+01
 20
-1.89243169E+02
 11
5.59404064E+01
 21
-1.89243169E+02
  0
LINE
  8
0
 62
7
 10
7.91404068E+01
 20
-1.78386026E+02
 11
7.91404068E+01
 21
-1.80757455E+02
  0
LINE
  8
0
 62
7
 10
5.59404064E+01
 20
-1.88986026E+02
 11
5.59404064E+01
 21
-1.93986026E+02
  0
LINE
  8
0
 62
7
 10
6.56975494E+01
 20
-1.98486026E+02
 11
6.56975494E+01
 21
-1.95986026E+02
  0
LINE
  8
0
 62
7
 10
8.09404068E+01
 20
-1.32986025E+02
 11
4.99404063E+01
 21
-1.32986025E+02
  0
LINE
  8
0
 62
7
 10
4.99404063E+01
 20
-2.13286027E+02
 11
8.09404068E+01
 21
-2.13286027E+02
  0
LINE
  8
0
 62
7
 10
4.79404063E+01
 20
-1.99286026E+02
 11
8.09404068E+01
 21
-1.99286026E+02
  0
LINE
  8
0
 62
7
 10
6.76975495E+01
 20
-1.53986026E+02
 11
8.09404068E+01
 21
-1.53986026E+02
  0
LINE
  8
0
 62
7
 10
6.56975494E+01
 20
-1.51986026E+02
 11
6.56975494E+01
 21
-1.49486026E+02
  0
LINE
  8
0
 62
7
 10
4.14404061E+01
 20
-1.48986026E+02
 11
8.09404068E+01
 21
-1.48986026E+02
  0
LINE
  8
0
  6
CENTER
 62
2
 10
5.29404063E+01
 20
-2.05286027E+02
 11
5.29404063E+01
 21
-2.14286027E+02
  0
LINE
  8
0
 62
7
 10
4.86975491E+01
 20
-2.06286027E+02
 11
5.79404064E+01
 21
-2.06286027E+02
  0
LINE
  8
0
 62
7
 10
5.79404064E+01
 20
-2.06286027E+02
 11
5.79404064E+01
 21
-2.11286027E+02
  0
LINE
  8
0
 62
7
 10
4.86975491E+01
 20
-1.39986025E+02
 11
5.79404064E+01
 21
-1.39986025E+02
  0
LINE
  8
0
  6
CENTER
 62
2
 10
5.29404063E+01
 20
-1.40986025E+02
 11
5.29404063E+01
 21
-1.31986025E+02
  0
LINE
  8
0
 62
7
 10
5.79404064E+01
 20
-1.39986025E+02
 11
5.79404064E+01
 21
-1.34986025E+02
  0
LINE
  8
0
 62
7
 10
5.85546922E+01
 20
-2.29286027E+02
 11
5.87832636E+01
 21
-2.34214598E+02
  0
LINE
  8
0
 62
7
 10
5.60261207E+01
 20
-2.13286027E+02
 11
5.60261207E+01
 21
-2.15286027E+02
  0
LINE
  8
0
 62
2
 10
5.60261207E+01
 20
-2.15286027E+02
 11
5.60261207E+01
 21
-2.28371741E+02
  0
LINE
  8
0
 62
7
 10
5.49404064E+01
 20
-2.15286027E+02
 11
5.49404064E+01
 21
-2.27286027E+02
  0
LINE
  8
0
 62
7
 10
5.49404064E+01
 20
-2.27286027E+02
 11
5.69404064E+01
 21
-2.29286027E+02
  0
LINE
  8
0
 62
7
 10
5.49404064E+01
 20
-2.27286027E+02
 11
8.09404068E+01
 21
-2.27286027E+02
  0
LINE
  8
0
 62
7
 10
5.69404064E+01
 20
-2.29286027E+02
 11
8.09404068E+01
 21
-2.29286027E+02
  0
LINE
  8
0
 62
7
 10
6.69404066E+01
 20
-2.29286027E+02
 11
6.70975494E+01
 21
-2.36528884E+02
  0
LINE
  8
0
 62
7
 10
7.39404067E+01
 20
-2.29286027E+02
 11
7.39404067E+01
 21
-2.36543170E+02
  0
LINE
  8
0
 62
7
 10
8.09404068E+01
 20
-2.15286027E+02
 11
5.49404064E+01
 21
-2.15286027E+02
  0
LINE
  8
0
 62
7
 10
3.86832632E+01
 20
-1.80986026E+02
 11
3.79832632E+01
 21
-1.98028884E+02
  0
ARC
  8
0
 62
7
 10
-9.43361410E+01
 20
-1.34995195E+02
 40
2.00919062E+00
 50
9.02614907E+01
 51
1.79738509E+02
  0
ARC
  8
0
 62
7
 10
-3.23485729E+01
 20
-1.34989289E+02
 40
2.00326596E+00
 50
9.33332446E-02
 51
8.99066665E+01
  0
ARC
  8
0
 62
7
 10
-3.23361796E+01
 20
-2.11295157E+02
 40
1.99089094E+00
 50
2.69737247E+02
 51
2.62753555E-01
  0
ARC
  8
0
 62
7
 10
-9.43484977E+01
 20
-2.11289214E+02
 40
1.99681561E+00
 50
1.79908555E+02
 51
2.70091445E+02
  0
ARC
  8
0
 62
7
 10
-9.43485020E+01
 20
-2.04289218E+02
 40
1.99681128E+00
 50
1.79908430E+02
 51
2.70091570E+02
  0
ARC
  8
0
 62
7
 10
-8.43484975E+01
 20
-2.11289214E+02
 40
1.99681561E+00
 50
1.79908555E+02
 51
2.70091445E+02
  0
ARC
  8
0
 62
7
 10
-9.43361454E+01
 20
-1.41995191E+02
 40
2.00918624E+00
 50
9.02613669E+01
 51
1.79738633E+02
  0
ARC
  8
0
 62
7
 10
-8.43361409E+01
 20
-1.34995195E+02
 40
2.00919062E+00
 50
9.02614907E+01
 51
1.79738509E+02
  0
ARC
  8
0
 62
7
 10
-4.23361798E+01
 20
-2.11295157E+02
 40
1.99089094E+00
 50
2.69737247E+02
 51
2.62753555E-01
  0
ARC
  8
0
 62
7
 10
-3.23361753E+01
 20
-2.04295161E+02
 40
1.99088661E+00
 50
2.69737121E+02
 51
2.62879393E-01
  0
ARC
  8
0
 62
7
 10
-3.23485685E+01
 20
-1.41989284E+02
 40
2.00326157E+00
 50
9.32081863E-02
 51
8.99067920E+01
  0
ARC
  8
0
 62
7
 10
-4.23485731E+01
 20
-1.34989289E+02
 40
2.00326596E+00
 50
9.33332446E-02
 51
8.99066665E+01
  0
ARC
  8
0
 62
7
 10
-3.83394073E+01
 20
-1.73993169E+02
 40
5.49437018E+00
 50
2.83163545E+02
 51
7.68364553E+01
  0
ARC
  8
0
 62
7
 10
-8.83394071E+01
 20
-1.73993169E+02
 40
5.49707079E+00
 50
1.03283365E+02
 51
2.56716635E+02
  0
ARC
  8
0
 62
7
 10
-8.83394069E+01
 20
-1.73993169E+02
 40
4.99794158E+00
 50
1.04638132E+02
 51
2.55361868E+02
  0
ARC
  8
0
 62
7
 10
-8.83394065E+01
 20
-1.73993169E+02
 40
3.97053334E+00
 50
1.08548369E+02
 51
2.51451632E+02
  0
ARC
  8
0
 62
7
 10
-8.83394056E+01
 20
-1.73993169E+02
 40
2.90984156E+00
 50
1.15725540E+02
 51
2.44274460E+02
  0
ARC
  8
0
 62
7
 10
-3.83394075E+01
 20
-1.73993169E+02
 40
4.99497112E+00
 50
2.84507105E+02
 51
7.54928944E+01
  0
ARC
  8
0
 62
7
 10
-3.83394079E+01
 20
-1.73993169E+02
 40
3.96679359E+00
 50
2.88386703E+02
 51
7.16132975E+01
  0
ARC
  8
0
 62
7
 10
-3.83394088E+01
 20
-1.73993169E+02
 40
2.90473653E+00
 50
2.95515749E+02
 51
6.44842513E+01
  0
ARC
  8
0
 62
7
 10
-9.73485290E+01
 20
-1.99989245E+02
 40
1.00322344E+00
 50
1.83800626E-01
 51
8.98161993E+01
  0
ARC
  8
0
 62
7
 10
3.97822803E+01
 20
-2.29987128E+02
 40
1.00110121E+00
 50
8.80642193E-01
 51
9.00000002E+01
  0
ARC
  8
0
 62
7
 10
8.09404068E+01
 20
-1.73993169E+02
 40
1.20642874E+01
 50
9.00000002E+01
 51
2.70000000E+02
  0
ARC
  8
0
 62
7
 10
3.69372555E+01
 20
-2.27989178E+02
 40
9.96854377E-01
 50
1.79818913E+02
 51
2.70181087E+02
  0
ARC
  8
0
 62
2
 10
8.09404068E+01
 20
-1.73993169E+02
 40
1.32214301E+01
 50
9.00000002E+01
 51
2.70000000E+02
  0
ARC
  8
0
 62
7
 10
3.69495303E+01
 20
-1.99995151E+02
 40
1.00916547E+00
 50
9.05180377E+01
 51
1.79481963E+02
  0
ARC
  8
0
 62
7
 10
3.69915512E+01
 20
-1.97993726E+02
 40
9.92334993E-01
 50
2.69521458E+02
 51
3.57969639E+02
  0
ARC
  8
0
 62
7
 10
3.69495303E+01
 20
-2.07495151E+02
 40
1.00916547E+00
 50
9.05180377E+01
 51
1.79481963E+02
  0
ARC
  8
0
 62
7
 10
4.99495541E+01
 20
-1.34995173E+02
 40
2.00916869E+00
 50
9.02608713E+01
 51
1.79739129E+02
  0
ARC
  8
0
 62
7
 10
4.99372193E+01
 20
-2.11289214E+02
 40
1.99681561E+00
 50
1.79908555E+02
 51
2.70091445E+02
  0
ARC
  8
0
 62
7
 10
6.09495637E+01
 20
-1.53995183E+02
 40
5.00916563E+00
 50
9.01047415E+01
 51
1.79895259E+02
  0
ARC
  8
0
 62
7
 10
6.09372162E+01
 20
-1.93989217E+02
 40
4.99681079E+00
 50
1.79963418E+02
 51
2.70036582E+02
  0
ARC
  8
0
 62
7
 10
6.52030883E+01
 20
-1.98491565E+02
 40
4.94492170E-01
 50
2.69358210E+02
 51
6.41789639E-01
  0
ARC
  8
0
 62
7
 10
6.77031456E+01
 20
-1.95991623E+02
 40
2.00560402E+00
 50
9.01598709E+01
 51
1.79840129E+02
  0
ARC
  8
0
 62
7
 10
4.84408058E+01
 20
-1.58242769E+02
 40
5.00399677E-01
 50
1.80045744E+02
 51
2.70000000E+02
  0
ARC
  8
0
 62
7
 10
4.84459868E+01
 20
-1.89748750E+02
 40
5.05611297E-01
 50
9.06323932E+01
 51
1.79367607E+02
  0
ARC
  8
0
 62
7
 10
6.51907481E+01
 20
-1.49492827E+02
 40
5.06846905E-01
 50
7.68861983E-01
 51
8.92311378E+01
  0
ARC
  8
0
 62
7
 10
6.76907871E+01
 20
-1.51992788E+02
 40
1.99324919E+00
 50
1.79805618E+02
 51
2.70194383E+02
  0
ARC
  8
0
 62
7
 10
8.09404068E+01
 20
-1.73986026E+02
 40
7.00000261E+00
 50
9.00000002E+01
 51
2.70000000E+02
  0
ARC
  8
0
 62
7
 10
8.09463102E+01
 20
-1.78386026E+02
 40
1.10001586E+00
 50
9.03074849E+01
 51
2.69692515E+02
  0
ARC
  8
0
 62
7
 10
8.09404068E+01
 20
-1.78386026E+02
 40
1.80000971E+00
 50
9.00000002E+01
 51
2.70000000E+02
  0
ARC
  8
0
 62
7
 10
4.99372150E+01
 20
-2.04289218E+02
 40
1.99681128E+00
 50
1.79908430E+02
 51
2.70091570E+02
  0
ARC
  8
0
 62
7
 10
5.99372195E+01
 20
-2.11289214E+02
 40
1.99681561E+00
 50
1.79908555E+02
 51
2.70091445E+02
  0
ARC
  8
0
 62
7
 10
4.99495498E+01
 20
-1.41995169E+02
 40
2.00916431E+00
 50
9.02607470E+01
 51
1.79739253E+02
  0
ARC
  8
0
 62
7
 10
5.99495543E+01
 20
-1.34995173E+02
 40
2.00916869E+00
 50
9.02608713E+01
 51
1.79739129E+02
  0
ARC
  8
0
 62
7
 10
-3.02616742E+02
 20
-1.73986026E+02
 40
5.00000000E+00
 50
2.17462651E+02
 51
1.42537349E+02
  0
ARC
  8
0
 62
7
 10
-3.02616742E+02
 20
-1.73986026E+02
 40
3.96076870E+00
 50
1.97255336E+02
 51
1.62744668E+02
  0
ARC
  8
0
 62
7
 10
-3.02616764E+02
 20
-1.73986017E+02
 40
5.49999928E+00
 50
2.22210816E+02
 51
1.37789251E+02
  0
LINE
  8
0
 62
7
 10
-3.05126742E+02
 20
-1.72546026E+02
 11
-3.05126742E+02
 21
-1.75426026E+02
  0
LINE
  8
0
 62
7
 10
-3.00106742E+02
 20
-1.72546026E+02
 11
-3.00106742E+02
 21
-1.75426026E+02
  0
LINE
  8
0
 62
7
 10
-3.05126742E+02
 20
-1.72546026E+02
 11
-3.02616742E+02
 21
-1.71096026E+02
  0
LINE
  8
0
 62
7
 10
-3.02616742E+02
 20
-1.76876026E+02
 11
-3.00106742E+02
 21
-1.75426026E+02
  0
LINE
  8
0
 62
7
 10
-3.02616742E+02
 20
-1.71096026E+02
 11
-3.00106742E+02
 21
-1.72546026E+02
  0
LINE
  8
0
 62
7
 10
-3.05126742E+02
 20
-1.75426026E+02
 11
-3.02616742E+02
 21
-1.76876026E+02
  0
CIRCLE
  8
0
 62
7
 10
-3.02616742E+02
 20
-1.73986026E+02
 40
2.89829731E+00
  0
LINE
  8
0
  6
CENTER
 62
2
 10
-3.02616742E+02
 20
-1.66486026E+02
 11
-3.02616742E+02
 21
-1.81486026E+02
  0
ARC
  8
0
 62
7
 10
-3.52616764E+02
 20
-1.73986017E+02
 40
5.49999928E+00
 50
4.22101828E+01
 51
3.17789750E+02
  0
CIRCLE
  8
0
 62
7
 10
-3.52616742E+02
 20
-1.73986026E+02
 40
2.89829731E+00
  0
ARC
  8
0
 62
7
 10
-3.52616742E+02
 20
-1.73986026E+02
 40
3.96076870E+00
 50
1.72553325E+01
 51
3.42744664E+02
  0
ARC
  8
0
 62
7
 10
-3.52616742E+02
 20
-1.73986026E+02
 40
5.00000000E+00
 50
3.74626511E+01
 51
3.22537349E+02
  0
LINE
  8
0
 62
7
 10
-3.55126742E+02
 20
-1.75426026E+02
 11
-3.52616742E+02
 21
-1.76876026E+02
  0
LINE
  8
0
 62
7
 10
-3.55126742E+02
 20
-1.72546026E+02
 11
-3.52616742E+02
 21
-1.71096026E+02
  0
LINE
  8
0
 62
7
 10
-3.50106742E+02
 20
-1.72546026E+02
 11
-3.50106742E+02
 21
-1.75426026E+02
  0
LINE
  8
0
 62
7
 10
-3.52616742E+02
 20
-1.76876026E+02
 11
-3.50106742E+02
 21
-1.75426026E+02
  0
LINE
  8
0
 62
7
 10
-3.52616742E+02
 20
-1.71096026E+02
 11
-3.50106742E+02
 21
-1.72546026E+02
  0
LINE
  8
0
  6
CENTER
 62
2
 10
-3.52616742E+02
 20
-1.66486026E+02
 11
-3.52616742E+02
 21
-1.81486026E+02
  0
ARC
  8
0
 62
7
 10
-2.32286772E+02
 20
-1.97986526E+02
 40
9.99501271E-01
 50
2.69919937E+02
 51
3.57571160E+02
  0
ARC
  8
0
 62
7
 10
-2.32328997E+02
 20
-1.99988056E+02
 40
1.00203155E+00
 50
9.01160453E+01
 51
1.79883955E+02
  0
ARC
  8
0
 62
7
 10
-2.09329008E+02
 20
-1.34988044E+02
 40
2.00201931E+00
 50
9.00577606E+01
 51
1.79942239E+02
  0
ARC
  8
0
 62
7
 10
-2.19329012E+02
 20
-1.41988039E+02
 40
2.00201493E+00
 50
9.00576352E+01
 51
1.79942365E+02
  0
ARC
  8
0
 62
7
 10
-2.09341365E+02
 20
-2.11296365E+02
 40
1.98968809E+00
 50
1.79702278E+02
 51
2.70297721E+02
  0
ARC
  8
0
 62
7
 10
-2.19341369E+02
 20
-2.04296370E+02
 40
1.98968375E+00
 50
1.79702152E+02
 51
2.70297848E+02
  0
ARC
  8
0
 62
7
 10
-1.88339365E+02
 20
-1.78386026E+02
 40
1.80001935E+00
 50
8.97345523E+01
 51
2.70265448E+02
  0
ARC
  8
0
 62
7
 10
-1.88339365E+02
 20
-1.78386026E+02
 40
1.10003163E+00
 50
8.95656191E+01
 51
2.70434380E+02
  0
ARC
  8
0
 62
7
 10
-1.88331025E+02
 20
-1.73986026E+02
 40
7.00000509E+00
 50
9.00000002E+01
 51
2.70000000E+02
  0
ARC
  8
0
 62
7
 10
-2.01594942E+02
 20
-1.51992799E+02
 40
1.99323824E+00
 50
1.79805301E+02
 51
2.70194700E+02
  0
ARC
  8
0
 62
7
 10
-2.04094980E+02
 20
-1.49492837E+02
 40
5.06857581E-01
 50
7.70036804E-01
 51
8.92299632E+01
  0
ARC
  8
0
 62
7
 10
-2.20832554E+02
 20
-1.89741642E+02
 40
4.98474729E-01
 50
8.98244115E+01
 51
1.80175588E+02
  0
ARC
  8
0
 62
7
 10
-2.20837787E+02
 20
-1.58249930E+02
 40
4.93285259E-01
 50
1.79214666E+02
 51
2.70785334E+02
  0
ARC
  8
0
 62
7
 10
-2.01582605E+02
 20
-1.95991590E+02
 40
2.00557127E+00
 50
9.01589404E+01
 51
1.79841060E+02
  0
ARC
  8
0
 62
7
 10
-2.04082663E+02
 20
-1.98491532E+02
 40
4.94524646E-01
 50
2.69362058E+02
 51
6.37941786E-01
  0
ARC
  8
0
 62
7
 10
-2.08341356E+02
 20
-1.93996357E+02
 40
4.98968054E+00
 50
1.79881379E+02
 51
2.70118621E+02
  0
ARC
  8
0
 62
7
 10
-2.08329013E+02
 20
-1.53988039E+02
 40
5.00201357E+00
 50
9.00230589E+01
 51
1.79976941E+02
  0
ARC
  8
0
 62
7
 10
-2.19341365E+02
 20
-2.11296365E+02
 40
1.98968809E+00
 50
1.79702278E+02
 51
2.70297721E+02
  0
ARC
  8
0
 62
7
 10
-2.19329008E+02
 20
-1.34988044E+02
 40
2.00201931E+00
 50
9.00577606E+01
 51
1.79942239E+02
  0
ARC
  8
0
 62
7
 10
-2.32329029E+02
 20
-2.07488024E+02
 40
1.00199913E+00
 50
9.01141987E+01
 51
1.79885801E+02
  0
ARC
  8
0
 62
7
 10
-2.32339079E+02
 20
-1.99971741E+02
 40
9.92050131E-01
 50
1.79174901E+02
 51
1.80825099E+02
  0
ARC
  8
0
 62
2
 10
-1.88331025E+02
 20
-1.73993169E+02
 40
1.32214314E+01
 50
9.00000002E+01
 51
2.70000000E+02
  0
ARC
  8
0
 62
7
 10
-2.32341370E+02
 20
-2.27996371E+02
 40
9.89710055E-01
 50
1.79401159E+02
 51
2.70598842E+02
  0
ARC
  8
0
 62
7
 10
-1.88331025E+02
 20
-1.73993169E+02
 40
1.20642888E+01
 50
9.00000002E+01
 51
2.70000000E+02
  0
ARC
  8
0
 62
7
 10
-2.29496104E+02
 20
-2.29994180E+02
 40
1.00818458E+00
 50
1.27533126E+00
 51
8.95490543E+01
  0
ARC
  8
0
 62
7
 10
-3.61627054E+02
 20
-1.99996337E+02
 40
1.01036344E+00
 50
5.84716591E-01
 51
8.94152836E+01
  0
ARC
  8
0
 62
7
 10
-3.06627095E+02
 20
-1.34996379E+02
 40
2.01038016E+00
 50
2.95074788E-01
 51
8.97049252E+01
  0
ARC
  8
0
 62
7
 10
-2.96627091E+02
 20
-1.41996375E+02
 40
2.01037577E+00
 50
2.94951054E-01
 51
8.97050490E+01
  0
ARC
  8
0
 62
7
 10
-2.96614742E+02
 20
-2.04288027E+02
 40
1.99800101E+00
 50
2.69942646E+02
 51
5.73539725E-02
  0
ARC
  8
0
 62
7
 10
-3.06614746E+02
 20
-2.11288022E+02
 40
1.99800534E+00
 50
2.69942771E+02
 51
5.72294753E-02
  0
ARC
  8
0
 62
7
 10
-3.48614702E+02
 20
-1.34988066E+02
 40
2.00204125E+00
 50
9.00583869E+01
 51
1.79941613E+02
  0
ARC
  8
0
 62
7
 10
-3.58614707E+02
 20
-1.41988061E+02
 40
2.00203686E+00
 50
9.00582620E+01
 51
1.79941738E+02
  0
ARC
  8
0
 62
7
 10
-3.48627103E+02
 20
-2.11296387E+02
 40
1.98966642E+00
 50
1.79701648E+02
 51
2.70298352E+02
  0
ARC
  8
0
 62
7
 10
-3.58627108E+02
 20
-2.04296391E+02
 40
1.98966209E+00
 50
1.79701522E+02
 51
2.70298478E+02
  0
ARC
  8
0
 62
7
 10
-3.58627103E+02
 20
-2.11296387E+02
 40
1.98966642E+00
 50
1.79701648E+02
 51
2.70298352E+02
  0
ARC
  8
0
 62
7
 10
-2.96614746E+02
 20
-2.11288022E+02
 40
1.99800534E+00
 50
2.69942771E+02
 51
5.72294753E-02
  0
ARC
  8
0
 62
7
 10
-2.96627095E+02
 20
-1.34996379E+02
 40
2.01038016E+00
 50
2.95074788E-01
 51
8.97049252E+01
  0
ARC
  8
0
 62
7
 10
-3.58614703E+02
 20
-1.34988066E+02
 40
2.00204125E+00
 50
9.00583869E+01
 51
1.79941613E+02
  0
LINE
  8
0
 62
7
 10
-3.42668735E+02
 20
-1.88986026E+02
 11
-3.66002457E+02
 21
-1.88986026E+02
  0
LINE
  8
0
 62
7
 10
-3.42668735E+02
 20
-1.58986026E+02
 11
-3.70045314E+02
 21
-1.58986026E+02
  0
LINE
  8
0
 62
7
 10
-2.30588169E+02
 20
-1.80986026E+02
 11
-2.31288169E+02
 21
-1.98028884E+02
  0
LINE
  8
0
 62
7
 10
-1.88331025E+02
 20
-2.15286027E+02
 11
-2.14331026E+02
 21
-2.15286027E+02
  0
LINE
  8
0
 62
7
 10
-1.95331026E+02
 20
-2.29286027E+02
 11
-1.95331026E+02
 21
-2.36543170E+02
  0
LINE
  8
0
 62
7
 10
-2.02331026E+02
 20
-2.29286027E+02
 11
-2.02173883E+02
 21
-2.36528884E+02
  0
LINE
  8
0
 62
7
 10
-2.12331026E+02
 20
-2.29286027E+02
 11
-1.88331025E+02
 21
-2.29286027E+02
  0
LINE
  8
0
 62
7
 10
-2.14331026E+02
 20
-2.27286027E+02
 11
-1.88331025E+02
 21
-2.27286027E+02
  0
LINE
  8
0
 62
7
 10
-2.14331026E+02
 20
-2.27286027E+02
 11
-2.12331026E+02
 21
-2.29286027E+02
  0
LINE
  8
0
 62
7
 10
-2.14331026E+02
 20
-2.15286027E+02
 11
-2.14331026E+02
 21
-2.27286027E+02
  0
LINE
  8
0
 62
2
 10
-2.13245312E+02
 20
-2.15286027E+02
 11
-2.13245312E+02
 21
-2.28371741E+02
  0
LINE
  8
0
 62
7
 10
-2.13245312E+02
 20
-2.13286027E+02
 11
-2.13245312E+02
 21
-2.15286027E+02
  0
LINE
  8
0
 62
7
 10
-2.10716740E+02
 20
-2.29286027E+02
 11
-2.10502454E+02
 21
-2.34214598E+02
  0
LINE
  8
0
 62
7
 10
-2.11331026E+02
 20
-1.39986025E+02
 11
-2.11331026E+02
 21
-1.34986025E+02
  0
LINE
  8
0
  6
CENTER
 62
2
 10
-2.16331026E+02
 20
-1.40986025E+02
 11
-2.16331026E+02
 21
-1.31986025E+02
  0
LINE
  8
0
 62
7
 10
-2.20588169E+02
 20
-1.39986025E+02
 11
-2.11331026E+02
 21
-1.39986025E+02
  0
LINE
  8
0
 62
7
 10
-2.11331026E+02
 20
-2.06286027E+02
 11
-2.11331026E+02
 21
-2.11286027E+02
  0
LINE
  8
0
 62
7
 10
-2.20588169E+02
 20
-2.06286027E+02
 11
-2.11331026E+02
 21
-2.06286027E+02
  0
LINE
  8
0
  6
CENTER
 62
2
 10
-2.16331026E+02
 20
-2.05286027E+02
 11
-2.16331026E+02
 21
-2.14286027E+02
  0
LINE
  8
0
 62
7
 10
-2.27831026E+02
 20
-1.48986026E+02
 11
-1.88331025E+02
 21
-1.48986026E+02
  0
LINE
  8
0
 62
7
 10
-2.03588169E+02
 20
-1.51986026E+02
 11
-2.03588169E+02
 21
-1.49486026E+02
  0
LINE
  8
0
 62
7
 10
-2.01588169E+02
 20
-1.53986026E+02
 11
-1.88331025E+02
 21
-1.53986026E+02
  0
LINE
  8
0
 62
7
 10
-2.21331026E+02
 20
-1.99286026E+02
 11
-1.88331025E+02
 21
-1.99286026E+02
  0
LINE
  8
0
 62
7
 10
-2.19331026E+02
 20
-2.13286027E+02
 11
-1.88331025E+02
 21
-2.13286027E+02
  0
LINE
  8
0
 62
7
 10
-1.88331025E+02
 20
-1.32986025E+02
 11
-2.19331026E+02
 21
-1.32986025E+02
  0
LINE
  8
0
 62
7
 10
-2.03588169E+02
 20
-1.98486026E+02
 11
-2.03588169E+02
 21
-1.95986026E+02
  0
LINE
  8
0
 62
7
 10
-2.13331026E+02
 20
-1.88986026E+02
 11
-2.13331026E+02
 21
-1.93986026E+02
  0
LINE
  8
0
 62
7
 10
-1.90131026E+02
 20
-1.78386026E+02
 11
-1.90131026E+02
 21
-1.80757455E+02
  0
LINE
  8
0
 62
7
 10
-2.20831026E+02
 20
-1.89243169E+02
 11
-2.13331026E+02
 21
-1.89243169E+02
  0
LINE
  8
0
 62
7
 10
-2.20831026E+02
 20
-1.58743169E+02
 11
-2.13331026E+02
 21
-1.58743169E+02
  0
LINE
  8
0
 62
7
 10
-2.01588169E+02
 20
-1.93986026E+02
 11
-1.88331025E+02
 21
-1.93986026E+02
  0
LINE
  8
0
 62
7
 10
-2.13331026E+02
 20
-1.53986026E+02
 11
-2.13331026E+02
 21
-1.58986026E+02
  0
LINE
  8
0
 62
7
 10
-2.21331026E+02
 20
-1.89743169E+02
 11
-2.21331026E+02
 21
-2.11286027E+02
  0
LINE
  8
0
 62
7
 10
-2.21331026E+02
 20
-1.34986025E+02
 11
-2.21331026E+02
 21
-1.58243169E+02
  0
LINE
  8
0
 62
7
 10
-2.28388169E+02
 20
-2.33714598E+02
 11
-2.28488169E+02
 21
-2.29971741E+02
  0
LINE
  8
0
 62
7
 10
-2.30331026E+02
 20
-1.99586026E+02
 11
-2.29731026E+02
 21
-1.98986026E+02
  0
LINE
  8
0
 62
7
 10
-2.30331026E+02
 20
-1.99586026E+02
 11
-2.21331026E+02
 21
-1.99586026E+02
  0
LINE
  8
0
 62
7
 10
-2.31431026E+02
 20
-2.04986027E+02
 11
-2.31431026E+02
 21
-2.06486027E+02
  0
LINE
  8
0
 62
7
 10
-2.21331026E+02
 20
-2.04986027E+02
 11
-2.31431026E+02
 21
-2.04986027E+02
  0
LINE
  8
0
 62
7
 10
-2.30331026E+02
 20
-1.99586026E+02
 11
-2.30331026E+02
 21
-2.04986027E+02
  0
LINE
  8
0
 62
7
 10
-2.32331026E+02
 20
-2.28986027E+02
 11
-2.12631026E+02
 21
-2.28986027E+02
  0
LINE
  8
0
 62
7
 10
-2.29331026E+02
 20
-1.50486026E+02
 11
-2.27831026E+02
 21
-1.48986026E+02
  0
LINE
  8
0
 62
7
 10
-2.21331026E+02
 20
-1.84271740E+02
 11
-2.22259597E+02
 21
-1.98986026E+02
  0
LINE
  8
0
 62
7
 10
-2.29331026E+02
 20
-1.50486026E+02
 11
-2.30016740E+02
 21
-1.66986026E+02
  0
LINE
  8
0
 62
7
 10
-2.29331026E+02
 20
-1.50486026E+02
 11
-2.21331026E+02
 21
-1.50486026E+02
  0
LINE
  8
0
 62
7
 10
-2.32331026E+02
 20
-2.06486027E+02
 11
-2.21331026E+02
 21
-2.06486027E+02
  0
LINE
  8
0
 62
7
 10
-2.33331026E+02
 20
-1.99986026E+02
 11
-2.33331026E+02
 21
-2.27986027E+02
  0
LINE
  8
0
 62
7
 10
-2.32331026E+02
 20
-1.98986026E+02
 11
-1.88331025E+02
 21
-1.98986026E+02
  0
LINE
  8
0
 62
7
 10
-2.33331026E+02
 20
-2.13986027E+02
 11
-2.13245312E+02
 21
-2.13986027E+02
  0
LINE
  8
0
 62
7
 10
-3.68959600E+02
 20
-1.98986026E+02
 11
-3.61616743E+02
 21
-1.98986026E+02
  0
LINE
  8
0
 62
7
 10
-3.62116743E+02
 20
-1.88986026E+02
 11
-3.62116743E+02
 21
-1.98986026E+02
  0
LINE
  8
0
 62
7
 10
-3.62116743E+02
 20
-1.48986026E+02
 11
-3.62116743E+02
 21
-1.58986026E+02
  0
LINE
  8
0
 62
7
 10
-3.62116743E+02
 20
-1.49000311E+02
 11
-3.60616743E+02
 21
-1.50500311E+02
  0
LINE
  8
0
 62
7
 10
-3.60616743E+02
 20
-1.50486026E+02
 11
-3.67902457E+02
 21
-1.50486026E+02
  0
LINE
  8
0
 62
7
 10
-3.67316743E+02
 20
-1.48986026E+02
 11
-3.62116743E+02
 21
-1.48986026E+02
  0
LINE
  8
0
 62
7
 10
-3.03616742E+02
 20
-2.15286027E+02
 11
-3.51616743E+02
 21
-2.15286027E+02
  0
LINE
  8
0
 62
7
 10
-3.03616742E+02
 20
-2.13286027E+02
 11
-3.03616742E+02
 21
-2.24828884E+02
  0
LINE
  8
0
 62
7
 10
-3.51616743E+02
 20
-2.13286027E+02
 11
-3.51616743E+02
 21
-2.24928884E+02
  0
LINE
  8
0
 62
7
 10
-2.85873884E+02
 20
-1.88986026E+02
 11
-3.12564749E+02
 21
-1.88986026E+02
  0
LINE
  8
0
 62
7
 10
-2.89859599E+02
 20
-1.58986026E+02
 11
-3.12564749E+02
 21
-1.58986026E+02
  0
LINE
  8
0
 62
7
 10
-2.94616742E+02
 20
-1.88986026E+02
 11
-2.94616742E+02
 21
-1.98986026E+02
  0
LINE
  8
0
 62
7
 10
-3.60616743E+02
 20
-1.88986026E+02
 11
-3.60616743E+02
 21
-1.98986026E+02
  0
LINE
  8
0
 62
7
 10
-2.95616742E+02
 20
-1.98986026E+02
 11
-2.95616742E+02
 21
-1.99286026E+02
  0
LINE
  8
0
 62
7
 10
-3.59616743E+02
 20
-1.98986026E+02
 11
-3.59616743E+02
 21
-1.99286026E+02
  0
LINE
  8
0
 62
7
 10
-3.60616743E+02
 20
-1.98986026E+02
 11
-2.88816742E+02
 21
-1.98986026E+02
  0
LINE
  8
0
 62
7
 10
-3.60616743E+02
 20
-1.48986026E+02
 11
-2.87173884E+02
 21
-1.48986026E+02
  0
LINE
  8
0
 62
7
 10
-3.04616742E+02
 20
-1.39986025E+02
 11
-3.04616742E+02
 21
-1.34986025E+02
  0
LINE
  8
0
  6
CENTER
 62
2
 10
-2.99616742E+02
 20
-1.40986025E+02
 11
-2.99616742E+02
 21
-1.31986025E+02
  0
LINE
  8
0
 62
7
 10
-2.95373885E+02
 20
-1.39986025E+02
 11
-3.04616742E+02
 21
-1.39986025E+02
  0
LINE
  8
0
  6
CENTER
 62
2
 10
-2.99616742E+02
 20
-2.05286027E+02
 11
-2.99616742E+02
 21
-2.14286027E+02
  0
LINE
  8
0
 62
7
 10
-2.95373885E+02
 20
-2.06286027E+02
 11
-3.04616742E+02
 21
-2.06286027E+02
  0
LINE
  8
0
 62
7
 10
-3.04616742E+02
 20
-2.06286027E+02
 11
-3.04616742E+02
 21
-2.11286027E+02
  0
LINE
  8
0
 62
7
 10
-3.50616743E+02
 20
-1.39986025E+02
 11
-3.50616743E+02
 21
-1.34986025E+02
  0
LINE
  8
0
  6
CENTER
 62
2
 10
-3.55616743E+02
 20
-1.40986025E+02
 11
-3.55616743E+02
 21
-1.31986025E+02
  0
LINE
  8
0
 62
7
 10
-3.59873886E+02
 20
-1.39986025E+02
 11
-3.50616743E+02
 21
-1.39986025E+02
  0
LINE
  8
0
  6
CENTER
 62
2
 10
-3.55616743E+02
 20
-2.05286027E+02
 11
-3.55616743E+02
 21
-2.14286027E+02
  0
LINE
  8
0
 62
7
 10
-3.50616743E+02
 20
-2.06286027E+02
 11
-3.50616743E+02
 21
-2.11286027E+02
  0
LINE
  8
0
 62
7
 10
-3.59873886E+02
 20
-2.06286027E+02
 11
-3.50616743E+02
 21
-2.06286027E+02
  0
LINE
  8
0
 62
7
 10
-2.96616742E+02
 20
-2.13286027E+02
 11
-3.58616743E+02
 21
-2.13286027E+02
  0
LINE
  8
0
 62
7
 10
-3.60616743E+02
 20
-1.99286026E+02
 11
-3.60616743E+02
 21
-2.11286027E+02
  0
LINE
  8
0
 62
7
 10
-2.94616742E+02
 20
-1.99286026E+02
 11
-2.94616742E+02
 21
-2.11286027E+02
  0
LINE
  8
0
 62
7
 10
-2.94616742E+02
 20
-1.34986025E+02
 11
-2.94616742E+02
 21
-1.58986026E+02
  0
LINE
  8
0
 62
7
 10
-3.60616743E+02
 20
-1.34986025E+02
 11
-3.60616743E+02
 21
-1.58986026E+02
  0
LINE
  8
0
 62
7
 10
-2.96616742E+02
 20
-1.32986025E+02
 11
-3.58616743E+02
 21
-1.32986025E+02
  0
LINE
  8
0
 62
7
 10
-3.60616743E+02
 20
-1.99286026E+02
 11
-2.94616742E+02
 21
-1.99286026E+02
  0
ARC
  8
0
 62
7
 10
1.89794299E+02
 20
-1.59989277E+02
 40
1.00325694E+00
 50
1.85701645E-01
 51
8.98142983E+01
  0
ARC
  8
0
 62
7
 10
1.89806701E+02
 20
-1.87995177E+02
 40
9.90891222E-01
 50
2.69470856E+02
 51
5.29143937E-01
  0
ARC
  8
0
 62
7
 10
2.22806712E+02
 20
-1.59995187E+02
 40
1.00920295E+00
 50
9.05201273E+01
 51
1.79479873E+02
  0
ARC
  8
0
 62
7
 10
2.22794383E+02
 20
-1.87989194E+02
 40
9.96837232E-01
 50
1.79817921E+02
 51
2.70182079E+02
  0
LINE
  8
0
 62
7
 10
1.90797550E+02
 20
-1.59986026E+02
 11
1.90797550E+02
 21
-1.87986026E+02
  0
LINE
  8
0
 62
7
 10
2.21797551E+02
 20
-1.59986026E+02
 11
2.21797551E+02
 21
-1.87986026E+02
  0
ARC
  8
0
 62
7
 10
2.22797544E+02
 20
-1.87986033E+02
 40
9.99993478E-01
 50
1.79999625E+02
 51
2.70000000E+02
  0
ARC
  8
0
 62
7
 10
1.89797535E+02
 20
-1.87986011E+02
 40
1.00001528E+00
 50
2.70000000E+02
 51
3.59999126E+02
  0
LINE
  8
0
 62
7
 10
1.73297550E+02
 20
-1.98986026E+02
 11
2.04447551E+02
 21
-1.98986026E+02
  0
LINE
  8
0
 62
7
 10
1.73297550E+02
 20
-1.99286026E+02
 11
2.04447551E+02
 21
-1.99286026E+02
  0
CIRCLE
  8
0
 62
7
 10
1.81303519E+02
 20
-1.73998370E+02
 40
5.49999928E+00
  0
ARC
  8
0
 62
7
 10
2.27294320E+02
 20
-1.34989256E+02
 40
2.00323326E+00
 50
9.24009964E-02
 51
8.99075993E+01
  0
ARC
  8
0
 62
7
 10
2.27306714E+02
 20
-2.11295189E+02
 40
1.99085838E+00
 50
2.69736301E+02
 51
2.63699378E-01
  0
ARC
  8
0
 62
7
 10
1.85306731E+02
 20
-1.34995206E+02
 40
2.00920152E+00
 50
9.02617989E+01
 51
1.79738201E+02
  0
ARC
  8
0
 62
7
 10
1.75306726E+02
 20
-1.41995202E+02
 40
2.00919713E+00
 50
9.02616746E+01
 51
1.79738325E+02
  0
ARC
  8
0
 62
7
 10
1.85294374E+02
 20
-2.11289203E+02
 40
1.99682665E+00
 50
1.79908872E+02
 51
2.70091128E+02
  0
ARC
  8
0
 62
7
 10
1.75294370E+02
 20
-2.04289207E+02
 40
1.99682231E+00
 50
1.79908748E+02
 51
2.70091253E+02
  0
ARC
  8
0
 62
7
 10
1.75294374E+02
 20
-2.11289203E+02
 40
1.99682665E+00
 50
1.79908872E+02
 51
2.70091128E+02
  0
ARC
  8
0
 62
7
 10
1.75306731E+02
 20
-1.34995206E+02
 40
2.00920152E+00
 50
9.02617989E+01
 51
1.79738201E+02
  0
ARC
  8
0
 62
7
 10
1.72294321E+02
 20
-1.99989256E+02
 40
1.00323447E+00
 50
1.84426735E-01
 51
8.98155731E+01
  0
LINE
  8
0
 62
7
 10
1.64968979E+02
 20
-1.98986026E+02
 11
1.72297550E+02
 21
-1.98986026E+02
  0
LINE
  8
0
 62
7
 10
2.04554694E+02
 20
-2.15286027E+02
 11
1.82297550E+02
 21
-2.15286027E+02
  0
LINE
  8
0
 62
7
 10
2.30297551E+02
 20
-2.15286027E+02
 11
2.08054694E+02
 21
-2.15286027E+02
  0
LINE
  8
0
 62
7
 10
2.30297551E+02
 20
-2.13286027E+02
 11
2.30297551E+02
 21
-2.24828884E+02
  0
LINE
  8
0
 62
7
 10
1.82297550E+02
 20
-2.13286027E+02
 11
1.82297550E+02
 21
-2.24928884E+02
  0
LINE
  8
0
 62
7
 10
2.04554694E+02
 20
-2.13286027E+02
 11
1.75297550E+02
 21
-2.13286027E+02
  0
LINE
  8
0
  6
CENTER
 62
2
 10
1.81297550E+02
 20
-1.66486026E+02
 11
1.81297550E+02
 21
-1.81486026E+02
  0
LINE
  8
0
 62
7
 10
1.73297550E+02
 20
-1.88986026E+02
 11
1.73297550E+02
 21
-1.98986026E+02
  0
LINE
  8
0
 62
7
 10
1.74297550E+02
 20
-1.98986026E+02
 11
1.74297550E+02
 21
-1.99286026E+02
  0
LINE
  8
0
 62
7
 10
2.29297551E+02
 20
-1.39986025E+02
 11
2.29297551E+02
 21
-1.34986025E+02
  0
LINE
  8
0
 62
7
 10
2.29297551E+02
 20
-2.06286027E+02
 11
2.29297551E+02
 21
-2.11286027E+02
  0
LINE
  8
0
 62
7
 10
1.83297550E+02
 20
-1.39986025E+02
 11
1.83297550E+02
 21
-1.34986025E+02
  0
LINE
  8
0
  6
CENTER
 62
2
 10
1.78297550E+02
 20
-1.40986025E+02
 11
1.78297550E+02
 21
-1.31986025E+02
  0
LINE
  8
0
 62
7
 10
1.74054693E+02
 20
-1.39986025E+02
 11
1.83297550E+02
 21
-1.39986025E+02
  0
LINE
  8
0
  6
CENTER
 62
2
 10
1.78297550E+02
 20
-2.05286027E+02
 11
1.78297550E+02
 21
-2.14286027E+02
  0
LINE
  8
0
 62
7
 10
1.83297550E+02
 20
-2.06286027E+02
 11
1.83297550E+02
 21
-2.11286027E+02
  0
LINE
  8
0
 62
7
 10
1.74054693E+02
 20
-2.06286027E+02
 11
1.83297550E+02
 21
-2.06286027E+02
  0
LINE
  8
0
 62
7
 10
1.73297550E+02
 20
-1.99286026E+02
 11
1.73297550E+02
 21
-2.11286027E+02
  0
LINE
  8
0
 62
7
 10
1.73297550E+02
 20
-1.34986025E+02
 11
1.73297550E+02
 21
-1.58986026E+02
  0
LINE
  8
0
 62
7
 10
1.71797550E+02
 20
-1.88986026E+02
 11
1.71797550E+02
 21
-1.98986026E+02
  0
LINE
  8
0
 62
7
 10
1.71797550E+02
 20
-1.48986026E+02
 11
1.71797550E+02
 21
-1.58986026E+02
  0
LINE
  8
0
 62
7
 10
1.71797550E+02
 20
-1.48986026E+02
 11
1.73297550E+02
 21
-1.50486026E+02
  0
LINE
  8
0
 62
7
 10
1.73297550E+02
 20
-1.50486026E+02
 11
1.66011836E+02
 21
-1.50486026E+02
  0
LINE
  8
0
 62
7
 10
1.66597550E+02
 20
-1.48986026E+02
 11
1.71797550E+02
 21
-1.48986026E+02
  0
LINE
  8
0
 62
7
 10
2.30053200E+02
 20
-2.10998392E+02
 11
2.30573200E+02
 21
-2.11298392E+02
  0
LINE
  8
0
 62
7
 10
2.30053200E+02
 20
-2.10998392E+02
 11
2.30053201E+02
 21
-2.06298392E+02
  0
LINE
  8
0
 62
7
 10
2.30053505E+02
 20
-2.10998392E+02
 11
2.30053506E+02
 21
-2.06298392E+02
  0
LINE
  8
0
 62
7
 10
2.30053505E+02
 20
-2.10998392E+02
 11
2.30573505E+02
 21
-2.11298392E+02
  0
LINE
  8
0
 62
7
 10
2.28793411E+02
 20
-1.72558370E+02
 11
2.28793411E+02
 21
-1.75438370E+02
  0
LINE
  8
0
 62
7
 10
1.78793519E+02
 20
-1.72558370E+02
 11
1.78793519E+02
 21
-1.75438370E+02
  0
LINE
  8
0
 62
7
 10
1.83813519E+02
 20
-1.72558370E+02
 11
1.83813519E+02
 21
-1.75438370E+02
  0
LINE
  8
0
 62
7
 10
1.78793519E+02
 20
-1.72558370E+02
 11
1.81303519E+02
 21
-1.71108370E+02
  0
LINE
  8
0
 62
7
 10
1.81303519E+02
 20
-1.76888370E+02
 11
1.83813519E+02
 21
-1.75438370E+02
  0
LINE
  8
0
 62
7
 10
1.81303519E+02
 20
-1.71108370E+02
 11
1.83813519E+02
 21
-1.72558370E+02
  0
LINE
  8
0
 62
7
 10
1.78793519E+02
 20
-1.75438370E+02
 11
1.81303519E+02
 21
-1.76888370E+02
  0
CIRCLE
  8
0
 62
7
 10
1.81303519E+02
 20
-1.73998370E+02
 40
5.00000000E+00
  0
CIRCLE
  8
0
 62
7
 10
1.81303519E+02
 20
-1.73998370E+02
 40
3.96076870E+00
  0
CIRCLE
  8
0
 62
7
 10
1.81303519E+02
 20
-1.73998370E+02
 40
2.89829731E+00
  0
LINE
  8
0
 62
7
 10
1.82553530E+02
 20
-1.35298407E+02
 11
1.82553532E+02
 21
-1.39998407E+02
  0
LINE
  8
0
 62
7
 10
1.82553530E+02
 20
-1.35298407E+02
 11
1.82033530E+02
 21
-1.34998407E+02
  0
LINE
  8
0
 62
7
 10
1.82033530E+02
 20
-1.34998407E+02
 11
1.74573530E+02
 21
-1.34998410E+02
  0
LINE
  8
0
 62
7
 10
1.82553530E+02
 20
-1.35298407E+02
 11
1.74053530E+02
 21
-1.35298410E+02
  0
LINE
  8
0
 62
7
 10
1.74053530E+02
 20
-1.35298410E+02
 11
1.74573530E+02
 21
-1.34998410E+02
  0
LINE
  8
0
 62
7
 10
1.74053530E+02
 20
-1.35298410E+02
 11
1.74053532E+02
 21
-1.39998410E+02
  0
LINE
  8
0
 62
7
 10
2.30053505E+02
 20
-1.35298410E+02
 11
2.30573505E+02
 21
-1.34998410E+02
  0
LINE
  8
0
 62
7
 10
2.30053505E+02
 20
-1.35298410E+02
 11
2.30053506E+02
 21
-1.39998410E+02
  0
LINE
  8
0
 62
7
 10
1.74053530E+02
 20
-2.10998392E+02
 11
1.74053532E+02
 21
-2.06298392E+02
  0
LINE
  8
0
 62
7
 10
1.74053530E+02
 20
-2.10998392E+02
 11
1.74573530E+02
 21
-2.11298392E+02
  0
LINE
  8
0
 62
7
 10
1.74573530E+02
 20
-2.11298392E+02
 11
1.82033530E+02
 21
-2.11298394E+02
  0
LINE
  8
0
 62
7
 10
1.74053530E+02
 20
-2.10998392E+02
 11
1.82553530E+02
 21
-2.10998394E+02
  0
LINE
  8
0
 62
7
 10
1.82553530E+02
 20
-2.10998394E+02
 11
1.82033530E+02
 21
-2.11298394E+02
  0
LINE
  8
0
 62
7
 10
1.82553530E+02
 20
-2.10998394E+02
 11
1.82553532E+02
 21
-2.06298394E+02
  0
LINE
  8
0
 62
7
 10
-3.51375049E+02
 20
-1.35298407E+02
 11
-3.51375047E+02
 21
-1.39998407E+02
  0
LINE
  8
0
 62
7
 10
-3.51375049E+02
 20
-1.35298407E+02
 11
-3.51895049E+02
 21
-1.34998407E+02
  0
LINE
  8
0
 62
7
 10
-3.51895049E+02
 20
-1.34998407E+02
 11
-3.59355049E+02
 21
-1.34998410E+02
  0
LINE
  8
0
 62
7
 10
-3.51375049E+02
 20
-1.35298407E+02
 11
-3.59875049E+02
 21
-1.35298410E+02
  0
LINE
  8
0
 62
7
 10
-3.59875049E+02
 20
-1.35298410E+02
 11
-3.59355049E+02
 21
-1.34998410E+02
  0
LINE
  8
0
 62
7
 10
-3.59875049E+02
 20
-1.35298410E+02
 11
-3.59875047E+02
 21
-1.39998410E+02
  0
LINE
  8
0
 62
7
 10
-2.95375117E+02
 20
-1.35298407E+02
 11
-2.95375116E+02
 21
-1.39998407E+02
  0
LINE
  8
0
 62
7
 10
-2.95375117E+02
 20
-1.35298407E+02
 11
-2.95895117E+02
 21
-1.34998407E+02
  0
LINE
  8
0
 62
7
 10
-2.95895117E+02
 20
-1.34998407E+02
 11
-3.03355117E+02
 21
-1.34998410E+02
  0
LINE
  8
0
 62
7
 10
-2.95375117E+02
 20
-1.35298407E+02
 11
-3.03875117E+02
 21
-1.35298410E+02
  0
LINE
  8
0
 62
7
 10
-3.03875117E+02
 20
-1.35298410E+02
 11
-3.03355117E+02
 21
-1.34998410E+02
  0
LINE
  8
0
 62
7
 10
-3.03875117E+02
 20
-1.35298410E+02
 11
-3.03875116E+02
 21
-1.39998410E+02
  0
LINE
  8
0
 62
7
 10
-3.03875117E+02
 20
-2.10998392E+02
 11
-3.03875116E+02
 21
-2.06298392E+02
  0
LINE
  8
0
 62
7
 10
-3.03875117E+02
 20
-2.10998392E+02
 11
-3.03355117E+02
 21
-2.11298392E+02
  0
LINE
  8
0
 62
7
 10
-3.03355117E+02
 20
-2.11298392E+02
 11
-2.95895117E+02
 21
-2.11298394E+02
  0
LINE
  8
0
 62
7
 10
-3.03875117E+02
 20
-2.10998392E+02
 11
-2.95375117E+02
 21
-2.10998394E+02
  0
LINE
  8
0
 62
7
 10
-2.95375117E+02
 20
-2.10998394E+02
 11
-2.95895117E+02
 21
-2.11298394E+02
  0
LINE
  8
0
 62
7
 10
-2.95375117E+02
 20
-2.10998394E+02
 11
-2.95375116E+02
 21
-2.06298394E+02
  0
LINE
  8
0
 62
7
 10
-3.59875049E+02
 20
-2.10998392E+02
 11
-3.59875047E+02
 21
-2.06298392E+02
  0
LINE
  8
0
 62
7
 10
-3.59875049E+02
 20
-2.10998392E+02
 11
-3.59355049E+02
 21
-2.11298392E+02
  0
LINE
  8
0
 62
7
 10
-3.59355049E+02
 20
-2.11298392E+02
 11
-3.51895049E+02
 21
-2.11298394E+02
  0
LINE
  8
0
 62
7
 10
-3.59875049E+02
 20
-2.10998392E+02
 11
-3.51375049E+02
 21
-2.10998394E+02
  0
LINE
  8
0
 62
7
 10
-3.51375049E+02
 20
-2.10998394E+02
 11
-3.51895049E+02
 21
-2.11298394E+02
  0
LINE
  8
0
 62
7
 10
-3.51375049E+02
 20
-2.10998394E+02
 11
-3.51375047E+02
 21
-2.06298394E+02
  0
LINE
  8
0
 62
7
 10
-2.12089332E+02
 20
-1.35298364E+02
 11
-2.12089330E+02
 21
-1.39998364E+02
  0
LINE
  8
0
 62
7
 10
-2.12089332E+02
 20
-1.35298364E+02
 11
-2.12609332E+02
 21
-1.34998364E+02
  0
LINE
  8
0
 62
7
 10
-2.12609332E+02
 20
-1.34998364E+02
 11
-2.20069332E+02
 21
-1.34998366E+02
  0
LINE
  8
0
 62
7
 10
-2.12089332E+02
 20
-1.35298364E+02
 11
-2.20589332E+02
 21
-1.35298366E+02
  0
LINE
  8
0
 62
7
 10
-2.20589332E+02
 20
-1.35298366E+02
 11
-2.20069332E+02
 21
-1.34998366E+02
  0
LINE
  8
0
 62
7
 10
-2.20589332E+02
 20
-1.35298366E+02
 11
-2.20589330E+02
 21
-1.39998366E+02
  0
LINE
  8
0
 62
7
 10
-2.20589332E+02
 20
-2.10998348E+02
 11
-2.20589330E+02
 21
-2.06298348E+02
  0
LINE
  8
0
 62
7
 10
-2.20589332E+02
 20
-2.10998348E+02
 11
-2.20069332E+02
 21
-2.11298348E+02
  0
LINE
  8
0
 62
7
 10
-2.20069332E+02
 20
-2.11298348E+02
 11
-2.12609332E+02
 21
-2.11298351E+02
  0
LINE
  8
0
 62
7
 10
-2.20589332E+02
 20
-2.10998348E+02
 11
-2.12089332E+02
 21
-2.10998351E+02
  0
LINE
  8
0
 62
7
 10
-2.12089332E+02
 20
-2.10998351E+02
 11
-2.12609332E+02
 21
-2.11298351E+02
  0
LINE
  8
0
 62
7
 10
-2.12089332E+02
 20
-2.10998351E+02
 11
-2.12089330E+02
 21
-2.06298351E+02
  0
LINE
  8
0
 62
7
 10
5.71963427E+01
 20
-2.10998373E+02
 11
5.71963442E+01
 21
-2.06298373E+02
  0
LINE
  8
0
 62
7
 10
5.71963427E+01
 20
-2.10998373E+02
 11
5.66763426E+01
 21
-2.11298373E+02
  0
LINE
  8
0
 62
7
 10
4.86963427E+01
 20
-2.10998370E+02
 11
5.71963427E+01
 21
-2.10998373E+02
  0
LINE
  8
0
 62
7
 10
4.92163426E+01
 20
-2.11298370E+02
 11
5.66763426E+01
 21
-2.11298373E+02
  0
LINE
  8
0
 62
7
 10
4.86963427E+01
 20
-2.10998370E+02
 11
4.92163426E+01
 21
-2.11298370E+02
  0
LINE
  8
0
 62
7
 10
4.86963427E+01
 20
-2.10998370E+02
 11
4.86963442E+01
 21
-2.06298370E+02
  0
LINE
  8
0
 62
7
 10
4.86963427E+01
 20
-1.35298388E+02
 11
4.86963442E+01
 21
-1.39998388E+02
  0
LINE
  8
0
 62
7
 10
4.86963427E+01
 20
-1.35298388E+02
 11
4.92163426E+01
 21
-1.34998388E+02
  0
LINE
  8
0
 62
7
 10
5.71963427E+01
 20
-1.35298385E+02
 11
4.86963427E+01
 21
-1.35298388E+02
  0
LINE
  8
0
 62
7
 10
5.66763426E+01
 20
-1.34998386E+02
 11
4.92163426E+01
 21
-1.34998388E+02
  0
LINE
  8
0
 62
7
 10
5.71963427E+01
 20
-1.35298385E+02
 11
5.66763426E+01
 21
-1.34998386E+02
  0
LINE
  8
0
 62
7
 10
5.71963427E+01
 20
-1.35298385E+02
 11
5.71963442E+01
 21
-1.39998385E+02
  0
LINE
  8
0
 62
7
 10
-8.70893743E+01
 20
-2.10998373E+02
 11
-8.70893728E+01
 21
-2.06298373E+02
  0
LINE
  8
0
 62
7
 10
-8.70893743E+01
 20
-2.10998373E+02
 11
-8.76093744E+01
 21
-2.11298373E+02
  0
LINE
  8
0
 62
7
 10
-9.55893743E+01
 20
-2.10998370E+02
 11
-8.70893743E+01
 21
-2.10998373E+02
  0
LINE
  8
0
 62
7
 10
-9.50693744E+01
 20
-2.11298370E+02
 11
-8.76093744E+01
 21
-2.11298373E+02
  0
LINE
  8
0
 62
7
 10
-9.55893743E+01
 20
-2.10998370E+02
 11
-9.50693744E+01
 21
-2.11298370E+02
  0
LINE
  8
0
 62
7
 10
-9.55893743E+01
 20
-2.10998370E+02
 11
-9.55893728E+01
 21
-2.06298370E+02
  0
LINE
  8
0
 62
7
 10
-3.10893995E+01
 20
-2.10998373E+02
 11
-3.10893980E+01
 21
-2.06298373E+02
  0
LINE
  8
0
 62
7
 10
-3.10893995E+01
 20
-2.10998373E+02
 11
-3.16093996E+01
 21
-2.11298373E+02
  0
LINE
  8
0
 62
7
 10
-3.95893995E+01
 20
-2.10998370E+02
 11
-3.10893995E+01
 21
-2.10998373E+02
  0
LINE
  8
0
 62
7
 10
-3.90693996E+01
 20
-2.11298370E+02
 11
-3.16093996E+01
 21
-2.11298373E+02
  0
LINE
  8
0
 62
7
 10
-3.95893995E+01
 20
-2.10998370E+02
 11
-3.90693996E+01
 21
-2.11298370E+02
  0
LINE
  8
0
 62
7
 10
-3.95893995E+01
 20
-2.10998370E+02
 11
-3.95893980E+01
 21
-2.06298370E+02
  0
LINE
  8
0
 62
7
 10
-3.95893995E+01
 20
-1.35298388E+02
 11
-3.95893980E+01
 21
-1.39998388E+02
  0
LINE
  8
0
 62
7
 10
-3.95893995E+01
 20
-1.35298388E+02
 11
-3.90693996E+01
 21
-1.34998388E+02
  0
LINE
  8
0
 62
7
 10
-3.10893995E+01
 20
-1.35298385E+02
 11
-3.95893995E+01
 21
-1.35298388E+02
  0
LINE
  8
0
 62
7
 10
-3.16093996E+01
 20
-1.34998386E+02
 11
-3.90693996E+01
 21
-1.34998388E+02
  0
LINE
  8
0
 62
7
 10
-3.10893995E+01
 20
-1.35298385E+02
 11
-3.16093996E+01
 21
-1.34998386E+02
  0
LINE
  8
0
 62
7
 10
-3.10893995E+01
 20
-1.35298385E+02
 11
-3.10893980E+01
 21
-1.39998385E+02
  0
LINE
  8
0
 62
7
 10
-9.55893743E+01
 20
-1.35298388E+02
 11
-9.55893728E+01
 21
-1.39998388E+02
  0
LINE
  8
0
 62
7
 10
-9.55893743E+01
 20
-1.35298388E+02
 11
-9.50693744E+01
 21
-1.34998388E+02
  0
LINE
  8
0
 62
7
 10
-8.70893743E+01
 20
-1.35298385E+02
 11
-9.55893743E+01
 21
-1.35298388E+02
  0
LINE
  8
0
 62
7
 10
-8.76093744E+01
 20
-1.34998386E+02
 11
-9.50693744E+01
 21
-1.34998388E+02
  0
LINE
  8
0
 62
7
 10
-8.70893743E+01
 20
-1.35298385E+02
 11
-8.76093744E+01
 21
-1.34998386E+02
  0
LINE
  8
0
 62
7
 10
-8.70893743E+01
 20
-1.35298385E+02
 11
-8.70893728E+01
 21
-1.39998385E+02
  0
LINE
  8
0
 62
7
 10
2.38553505E+02
 20
-1.35298407E+02
 11
2.30053505E+02
 21
-1.35298410E+02
  0
LINE
  8
0
 62
7
 10
2.38033505E+02
 20
-1.34998407E+02
 11
2.30573505E+02
 21
-1.34998410E+02
  0
LINE
  8
0
 62
7
 10
2.30053200E+02
 20
-2.10998392E+02
 11
2.38553505E+02
 21
-2.10998394E+02
  0
LINE
  8
0
 62
7
 10
2.28793411E+02
 20
-1.72558370E+02
 11
2.31303411E+02
 21
-1.71108370E+02
  0
LINE
  8
0
 62
7
 10
2.28793411E+02
 20
-1.75438370E+02
 11
2.31303411E+02
 21
-1.76888370E+02
  0
CIRCLE
  8
0
 62
7
 10
2.31303411E+02
 20
-1.73998370E+02
 40
5.00000000E+00
  0
CIRCLE
  8
0
 62
7
 10
2.31303411E+02
 20
-1.73998370E+02
 40
3.96076870E+00
  0
CIRCLE
  8
0
 62
7
 10
2.31303411E+02
 20
-1.73998370E+02
 40
2.89829731E+00
  0
LINE
  8
0
 62
7
 10
2.30573505E+02
 20
-2.11298392E+02
 11
2.38033505E+02
 21
-2.11298394E+02
  0
LINE
  8
0
 62
7
 10
2.37297551E+02
 20
-1.32986025E+02
 11
1.75297550E+02
 21
-1.32986025E+02
  0
LINE
  8
0
 62
7
 10
2.37297551E+02
 20
-2.13286027E+02
 11
2.08054694E+02
 21
-2.13286027E+02
  0
LINE
  8
0
 62
7
 10
2.38554694E+02
 20
-2.06286027E+02
 11
2.29297551E+02
 21
-2.06286027E+02
  0
LINE
  8
0
 62
7
 10
2.38554694E+02
 20
-1.39986025E+02
 11
2.29297551E+02
 21
-1.39986025E+02
  0
LINE
  8
0
 62
7
 10
1.73297550E+02
 20
-1.48986026E+02
 11
2.46740409E+02
 21
-1.48986026E+02
  0
LINE
  8
0
 62
7
 10
2.48041287E+02
 20
-1.88986026E+02
 11
2.20797551E+02
 21
-1.88986026E+02
  0
CIRCLE
  8
0
 62
7
 10
2.31303411E+02
 20
-1.73998370E+02
 40
5.49999928E+00
  0
LINE
  8
0
 62
7
 10
2.08147551E+02
 20
-1.99286026E+02
 11
2.39297551E+02
 21
-1.99286026E+02
  0
LINE
  8
0
 62
7
 10
2.08147551E+02
 20
-1.98986026E+02
 11
2.45097551E+02
 21
-1.98986026E+02
  0
LINE
  8
0
 62
7
 10
2.44058821E+02
 20
-1.58986026E+02
 11
2.20797551E+02
 21
-1.58986026E+02
  0
ARC
  8
0
 62
7
 10
1.80543056E+02
 20
-1.85235681E+01
 40
1.49981091E+01
 50
1.80489408E+02
 51
2.70009314E+02
  0
LINE
  8
0
 62
7
 10
2.79799927E+02
 20
-2.56750000E+02
 11
3.99799805E+02
 21
-2.56750000E+02
  0
LINE
  8
0
 62
7
 10
2.79799927E+02
 20
-2.56750000E+02
 11
2.79799927E+02
 21
-2.76750000E+02
  0
TEXT
  8
0
 62
7
 10
2.87585240E+02
 20
-2.71250000E+02
 40
9.00000000E+00
  1
KOGANEI CORP.
 41
1.04838710E+00
  7
MONOTXT
  0
TEXT
  8
0
 62
7
 10
3.15499645E+02
 20
2.63100000E+02
 40
6.30000019E+00
  1
Ver. 1.0
 41
1.08108108E+00
  7
MONOTXT
  0
LINE
  8
0
 62
7
 10
2.79799927E+02
 20
2.56250000E+02
 11
3.99799805E+02
 21
2.56250000E+02
  0
LINE
  8
0
 62
7
 10
2.79799927E+02
 20
2.76250000E+02
 11
2.79799927E+02
 21
2.56250000E+02
  0
TEXT
  8
0
 62
7
 10
-3.85600562E+02
 20
2.38100000E+02
 40
6.30000019E+00
  1
MODEL:CY900-06-G1B
 41
1.00000000E+00
  7
MONOTXT
  0
LINE
  8
0
 62
7
 10
-3.99250000E+02
 20
-2.76750000E+02
 11
3.99799805E+02
 21
-2.76750000E+02
  0
LINE
  8
0
 62
7
 10
-3.99250000E+02
 20
2.76250000E+02
 11
3.99799805E+02
 21
2.76250000E+02
  0
LINE
  8
0
 62
7
 10
-3.99250000E+02
 20
2.76250000E+02
 11
-3.99250000E+02
 21
-2.76750000E+02
  0
LINE
  8
0
 62
7
 10
3.99799805E+02
 20
2.76250000E+02
 11
3.99799805E+02
 21
-2.76750000E+02
  0
ENDSEC
  0
EOF
