  0
SECTION
  2
HEADER
  9
$ACADVER
  1
AC1003
  9
$EXTMIN
 10
-3.99250000E+02
 20
-2.76750000E+02
  9
$EXTMAX
 10
3.99799805E+02
 20
2.76250000E+02
  9
$LIMMIN
 10
-3.99251000E+02
 20
-2.76751000E+02
  9
$LIMMAX
 10
3.99800805E+02
 20
2.76251000E+02
  9
$SNAPUNIT
 10
1
 20
1
  9
$SNAPBASE
 10
0
 20
0
  9
$GRIDMODE
 70
0
  9
$GRIDUNIT
 10
0
 20
0
  9
$LTSCALE
 40
1.33174967E+01
  9
$TEXTSIZE
 40
3.2
  9
$DIMTAD
 70
0
  9
$LUNITS
 70
2
  9
$LUPREC
 70
4
  9
$FILLETRAD
 40
0
  9
$AUNITS
 70
0
  9
$AUPREC
 70
0
  0
ENDSEC
  0
SECTION
  2
TABLES
  0
TABLE
  2
LTYPE
 70
2
  0
LTYPE
  2
CONTINUOUS
 70
64
  3
Solid-Line
 72
65
 73
0
 40
0
  0
LTYPE
  2
DASHED
 70
64
  3
DASHED
 72
65
 73
2
 40
.75
 49
.5
 49
-.25
  0
LTYPE
  2
HIDDEN
 70
64
  3
HIDDEN
 72
65
 73
2
 40
.375
 49
.25
 49
-.125
  0
LTYPE
  2
CENTER
 70
64
  3
CENTER
 72
65
 73
4
 40
2
 49
1.25
 49
-.25
 49
.25
 49
-.25
  0
LTYPE
  2
PHANTOM
 70
64
  3
PHANTOM
 72
65
 73
6
 40
2.5
 49
1.25
 49
-.25
 49
.25
 49
-.25
 49
.25
 49
-.25
  0
ENDTAB
  0
TABLE
  2
LAYER
 70
1
  0
LAYER
  2
0
 70
0
 62
3
  6
CONTINUOUS
 0
ENDTAB
  0
TABLE
  2
STYLE
 70
2
  0
STYLE
  2
MONOTXT
 70
0
 40
0
 41
1
 50
0
 71
0
 42
.2
  3
monotxt
  0
STYLE
  2
BIGFONT
 70
0
 40
0
 41
1
 50
0
 71
0
 42
.2
  3
txt
  4
bigfont
  0
ENDTAB
  0
ENDSEC
  0
SECTION
  2
ENTITIES
  0
LINE
  8
0
 62
7
 10
-2.46457443E+02
 20
1.32347200E+02
 11
-2.54457443E+02
 21
1.32347200E+02
  0
LINE
  8
0
 62
7
 10
-2.33457443E+02
 20
1.24347200E+02
 11
-2.33457443E+02
 21
1.22347200E+02
  0
LINE
  8
0
 62
7
 10
-2.54457443E+02
 20
1.62347200E+02
 11
-2.46457443E+02
 21
1.62347200E+02
  0
LINE
  8
0
  6
CENTER
 62
2
 10
-3.67747443E+02
 20
1.47347200E+02
 11
-1.11467443E+02
 21
1.47347200E+02
  0
LINE
  8
0
  6
CENTER
 62
2
 10
-2.93457443E+02
 20
1.77347200E+02
 11
-2.93457443E+02
 21
-7.97927996E+01
  0
LINE
  8
0
 62
7
 10
-3.48457443E+02
 20
1.07347200E+02
 11
-2.38457443E+02
 21
1.07347200E+02
  0
LINE
  8
0
 62
7
 10
-3.53457443E+02
 20
1.22347200E+02
 11
-2.33457443E+02
 21
1.22347200E+02
  0
LINE
  8
0
 62
7
 10
-2.38457443E+02
 20
1.20847200E+02
 11
-2.38457443E+02
 21
9.73472004E+01
  0
LINE
  8
0
 62
7
 10
-3.48457443E+02
 20
1.20847200E+02
 11
-3.48457443E+02
 21
9.73472004E+01
  0
LINE
  8
0
 62
7
 10
-3.30957443E+02
 20
1.20347200E+02
 11
-3.30957443E+02
 21
1.14247200E+02
  0
LINE
  8
0
 62
7
 10
-2.55957443E+02
 20
1.20347200E+02
 11
-2.55957443E+02
 21
1.14247200E+02
  0
LINE
  8
0
 62
7
 10
-3.46457443E+02
 20
1.13747200E+02
 11
-3.31457443E+02
 21
1.13747200E+02
  0
LINE
  8
0
 62
7
 10
-2.55457443E+02
 20
1.13747200E+02
 11
-2.40457443E+02
 21
1.13747200E+02
  0
LINE
  8
0
  6
CENTER
 62
2
 10
-2.48457443E+02
 20
1.26347200E+02
 11
-2.48457443E+02
 21
1.09747200E+02
  0
LINE
  8
0
  6
CENTER
 62
2
 10
-3.38457443E+02
 20
1.26347200E+02
 11
-3.38457443E+02
 21
1.09747200E+02
  0
LINE
  8
0
 62
7
 10
-3.48457443E+02
 20
9.73472004E+01
 11
-2.38457443E+02
 21
9.73472004E+01
  0
LINE
  8
0
 62
7
 10
-3.38457443E+02
 20
8.54720037E+00
 11
-2.48457443E+02
 21
8.54720037E+00
  0
LINE
  8
0
 62
7
 10
-3.44387443E+02
 20
9.54172004E+01
 11
-3.41377443E+02
 21
1.02072004E+01
  0
LINE
  8
0
 62
7
 10
-2.42527443E+02
 20
9.54172004E+01
 11
-2.45537443E+02
 21
1.02072004E+01
  0
LINE
  8
0
 62
7
 10
-3.39877443E+02
 20
7.71720037E+00
 11
-3.29897443E+02
 21
1.95720037E+00
  0
LINE
  8
0
 62
7
 10
-2.47037443E+02
 20
7.71720037E+00
 11
-2.57017443E+02
 21
1.95720037E+00
  0
LINE
  8
0
 62
7
 10
-3.25957443E+02
 20
1.12720037E+00
 11
-2.60957443E+02
 21
1.12720037E+00
  0
LINE
  8
0
  6
CENTER
 62
2
 10
-3.17457443E+02
 20
-2.14427996E+01
 11
-2.69457443E+02
 21
-2.14427996E+01
  0
LINE
  8
0
 62
7
 10
-3.51957443E+02
 20
1.72347200E+02
 11
-2.34957443E+02
 21
1.72347200E+02
  0
LINE
  8
0
 62
7
 10
-3.53457443E+02
 20
1.70847200E+02
 11
-3.53457443E+02
 21
1.22347200E+02
  0
LINE
  8
0
 62
7
 10
-3.53457443E+02
 20
1.70847200E+02
 11
-3.51957443E+02
 21
1.72347200E+02
  0
LINE
  8
0
 62
7
 10
-3.27677443E+02
 20
1.69347200E+02
 11
-2.59237443E+02
 21
1.69347200E+02
  0
LINE
  8
0
 62
7
 10
-2.54457443E+02
 20
1.62347200E+02
 11
-2.54457443E+02
 21
1.32347200E+02
  0
LINE
  8
0
 62
7
 10
-3.30877443E+02
 20
1.22347200E+02
 11
-3.29287443E+02
 21
1.67847200E+02
  0
LINE
  8
0
 62
7
 10
-2.56037443E+02
 20
1.22347200E+02
 11
-2.57627443E+02
 21
1.67847200E+02
  0
LINE
  8
0
 62
7
 10
-3.29287443E+02
 20
1.67847200E+02
 11
-3.27677443E+02
 21
1.69347200E+02
  0
LINE
  8
0
 62
7
 10
-2.57627443E+02
 20
1.67847200E+02
 11
-2.59237443E+02
 21
1.69347200E+02
  0
LINE
  8
0
 62
7
 10
-3.29287443E+02
 20
1.67847200E+02
 11
-2.57627443E+02
 21
1.67847200E+02
  0
LINE
  8
0
 62
7
 10
-2.53577443E+02
 20
1.61507200E+02
 11
-2.53577443E+02
 21
1.33177200E+02
  0
LINE
  8
0
 62
7
 10
-2.53577443E+02
 20
1.61507200E+02
 11
-2.46457443E+02
 21
1.61507200E+02
  0
LINE
  8
0
 62
7
 10
-2.53577443E+02
 20
1.33177200E+02
 11
-2.46457443E+02
 21
1.33177200E+02
  0
LINE
  8
0
 62
7
 10
-2.54457443E+02
 20
1.32347200E+02
 11
-2.53577443E+02
 21
1.33177200E+02
  0
LINE
  8
0
 62
7
 10
-2.54457443E+02
 20
1.62347200E+02
 11
-2.53577443E+02
 21
1.61507200E+02
  0
LINE
  8
0
 62
7
 10
-3.46457443E+02
 20
1.62347200E+02
 11
-3.46457443E+02
 21
1.32347200E+02
  0
LINE
  8
0
 62
7
 10
-3.32457443E+02
 20
1.62347200E+02
 11
-3.32457443E+02
 21
1.32347200E+02
  0
LINE
  8
0
 62
7
 10
-3.32457443E+02
 20
1.62347200E+02
 11
-3.46457443E+02
 21
1.62347200E+02
  0
LINE
  8
0
 62
7
 10
-3.32457443E+02
 20
1.32347200E+02
 11
-3.46457443E+02
 21
1.32347200E+02
  0
LINE
  8
0
 62
7
 10
-3.33337443E+02
 20
1.61507200E+02
 11
-3.33337443E+02
 21
1.33177200E+02
  0
LINE
  8
0
 62
7
 10
-3.45577443E+02
 20
1.61507200E+02
 11
-3.45577443E+02
 21
1.33177200E+02
  0
LINE
  8
0
 62
7
 10
-3.33337443E+02
 20
1.61507200E+02
 11
-3.45577443E+02
 21
1.61507200E+02
  0
LINE
  8
0
 62
7
 10
-3.33337443E+02
 20
1.33177200E+02
 11
-3.45577443E+02
 21
1.33177200E+02
  0
LINE
  8
0
 62
7
 10
-3.32457443E+02
 20
1.32347200E+02
 11
-3.33337443E+02
 21
1.33177200E+02
  0
LINE
  8
0
 62
7
 10
-3.45577443E+02
 20
1.33177200E+02
 11
-3.46457443E+02
 21
1.32347200E+02
  0
LINE
  8
0
 62
7
 10
-3.46457443E+02
 20
1.62347200E+02
 11
-3.45577443E+02
 21
1.61507200E+02
  0
LINE
  8
0
 62
7
 10
-3.32457443E+02
 20
1.62347200E+02
 11
-3.33337443E+02
 21
1.61517200E+02
  0
LINE
  8
0
 62
7
 10
-3.51957443E+02
 20
1.72347200E+02
 11
-3.51957443E+02
 21
1.22347200E+02
  0
LINE
  8
0
 62
4
 10
-3.35037443E+02
 20
1.73317200E+02
 11
-3.35007443E+02
 21
1.72347200E+02
  0
LINE
  8
0
 62
7
 10
-3.08847443E+02
 20
-5.14427996E+01
 11
-2.78067443E+02
 21
-5.14427996E+01
  0
LINE
  8
0
 62
7
 10
-3.24457443E+02
 20
-4.14427996E+01
 11
-2.62457443E+02
 21
-4.14427996E+01
  0
LINE
  8
0
 62
7
 10
-3.28397443E+02
 20
-5.42799635E-01
 11
-3.27027443E+02
 21
-3.97827996E+01
  0
LINE
  8
0
 62
7
 10
-2.58517443E+02
 20
-5.42799635E-01
 11
-2.59887443E+02
 21
-3.97827996E+01
  0
LINE
  8
0
 62
7
 10
-3.25527443E+02
 20
-4.22727996E+01
 11
-3.10347443E+02
 21
-5.10427996E+01
  0
LINE
  8
0
 62
7
 10
-2.61387443E+02
 20
-4.22727996E+01
 11
-2.76567443E+02
 21
-5.10427996E+01
  0
LINE
  8
0
 62
4
 10
-3.01027443E+02
 20
-5.79427996E+01
 11
-2.85877443E+02
 21
-5.79427996E+01
  0
LINE
  8
0
 62
4
 10
-2.85377443E+02
 20
-5.14427996E+01
 11
-2.85377443E+02
 21
-5.74427996E+01
  0
LINE
  8
0
 62
4
 10
-3.01527443E+02
 20
-5.14427996E+01
 11
-3.01527443E+02
 21
-5.74427996E+01
  0
LINE
  8
0
 62
4
 10
-3.00207443E+02
 20
-7.26427996E+01
 11
-2.86707443E+02
 21
-7.26427996E+01
  0
LINE
  8
0
 62
4
 10
-3.01207443E+02
 20
-5.96427996E+01
 11
-3.01207443E+02
 21
-7.16427996E+01
  0
LINE
  8
0
 62
4
 10
-2.85707443E+02
 20
-5.96427996E+01
 11
-2.85707443E+02
 21
-7.16427996E+01
  0
LINE
  8
0
 62
4
 10
-3.01207443E+02
 20
-7.16427996E+01
 11
-3.00207443E+02
 21
-7.26427996E+01
  0
LINE
  8
0
 62
4
 10
-2.86707443E+02
 20
-7.26427996E+01
 11
-2.85707443E+02
 21
-7.16427996E+01
  0
LINE
  8
0
 62
4
 10
-3.01057443E+02
 20
-6.21427996E+01
 11
-2.99897443E+02
 21
-6.21427996E+01
  0
LINE
  8
0
 62
4
 10
-3.00707443E+02
 20
-5.91427996E+01
 11
-2.86207443E+02
 21
-5.91427996E+01
  0
LINE
  8
0
 62
4
 10
-3.01207443E+02
 20
-5.96427996E+01
 11
-3.00707443E+02
 21
-5.91427996E+01
  0
LINE
  8
0
 62
4
 10
-2.86207443E+02
 20
-5.91427996E+01
 11
-2.85707443E+02
 21
-5.96427996E+01
  0
LINE
  8
0
 62
4
 10
-2.99457443E+02
 20
-5.79427996E+01
 11
-2.99457443E+02
 21
-5.91427996E+01
  0
LINE
  8
0
 62
4
 10
-2.87457443E+02
 20
-5.79427996E+01
 11
-2.87457443E+02
 21
-5.91427996E+01
  0
LINE
  8
0
 62
4
 10
-3.01527443E+02
 20
-5.74427996E+01
 11
-3.01027443E+02
 21
-5.79427996E+01
  0
LINE
  8
0
 62
4
 10
-2.85377443E+02
 20
-5.74427996E+01
 11
-2.85877443E+02
 21
-5.79427996E+01
  0
LINE
  8
0
 62
4
 10
-3.01527443E+02
 20
-5.74427996E+01
 11
-2.85377443E+02
 21
-5.74427996E+01
  0
LINE
  8
0
 62
4
 10
-3.01207443E+02
 20
-5.96427996E+01
 11
-2.85707443E+02
 21
-5.96427996E+01
  0
LINE
  8
0
 62
4
 10
-3.01057443E+02
 20
-6.24327996E+01
 11
-3.00467443E+02
 21
-6.24327996E+01
  0
LINE
  8
0
 62
4
 10
-3.01207443E+02
 20
-7.16427996E+01
 11
-3.01057443E+02
 21
-7.16427996E+01
  0
LINE
  8
0
 62
4
 10
-2.94957443E+02
 20
-6.21427996E+01
 11
-2.94957443E+02
 21
-7.16427996E+01
  0
LINE
  8
0
 62
4
 10
-2.91957443E+02
 20
-6.21427996E+01
 11
-2.91957443E+02
 21
-7.16427996E+01
  0
LINE
  8
0
 62
4
 10
-2.91957443E+02
 20
-6.21427996E+01
 11
-2.89137443E+02
 21
-6.21427996E+01
  0
LINE
  8
0
 62
4
 10
-2.91617443E+02
 20
-6.24327996E+01
 11
-2.89797443E+02
 21
-6.24327996E+01
  0
LINE
  8
0
 62
4
 10
-2.94957443E+02
 20
-7.16427996E+01
 11
-2.91957443E+02
 21
-7.16427996E+01
  0
LINE
  8
0
 62
4
 10
-2.89137443E+02
 20
-7.16427996E+01
 11
-2.87017443E+02
 21
-7.16427996E+01
  0
LINE
  8
0
 62
4
 10
-3.00707443E+02
 20
-7.21427996E+01
 11
-3.00467443E+02
 21
-7.21427996E+01
  0
LINE
  8
0
 62
4
 10
-2.91617443E+02
 20
-6.24327996E+01
 11
-2.91617443E+02
 21
-7.21427996E+01
  0
LINE
  8
0
 62
4
 10
-2.95297443E+02
 20
-6.24327996E+01
 11
-2.95297443E+02
 21
-7.21427996E+01
  0
LINE
  8
0
 62
4
 10
-2.95297443E+02
 20
-7.21427996E+01
 11
-2.91617443E+02
 21
-7.21427996E+01
  0
LINE
  8
0
 62
4
 10
-2.89797443E+02
 20
-7.21427996E+01
 11
-2.87017443E+02
 21
-7.21427996E+01
  0
LINE
  8
0
 62
4
 10
-2.89797443E+02
 20
-6.24327996E+01
 11
-2.89797443E+02
 21
-7.21427996E+01
  0
LINE
  8
0
 62
4
 10
-2.97117443E+02
 20
-6.24327996E+01
 11
-2.97117443E+02
 21
-7.21427996E+01
  0
LINE
  8
0
 62
4
 10
-2.97777443E+02
 20
-6.21427996E+01
 11
-2.97777443E+02
 21
-7.16427996E+01
  0
LINE
  8
0
 62
4
 10
-2.89137443E+02
 20
-6.21427996E+01
 11
-2.89137443E+02
 21
-7.16427996E+01
  0
LINE
  8
0
 62
4
 10
-2.87017443E+02
 20
-6.21427996E+01
 11
-2.85857443E+02
 21
-6.21427996E+01
  0
LINE
  8
0
 62
4
 10
-2.86447443E+02
 20
-6.24327996E+01
 11
-2.85857443E+02
 21
-6.24327996E+01
  0
LINE
  8
0
 62
4
 10
-2.97777443E+02
 20
-6.21427996E+01
 11
-2.94957443E+02
 21
-6.21427996E+01
  0
LINE
  8
0
 62
4
 10
-2.97117443E+02
 20
-6.24327996E+01
 11
-2.95297443E+02
 21
-6.24327996E+01
  0
LINE
  8
0
 62
4
 10
-2.99897443E+02
 20
-7.16427996E+01
 11
-2.97777443E+02
 21
-7.16427996E+01
  0
LINE
  8
0
 62
4
 10
-2.99897443E+02
 20
-7.21427996E+01
 11
-2.97117443E+02
 21
-7.21427996E+01
  0
LINE
  8
0
 62
4
 10
-2.85857443E+02
 20
-7.16427996E+01
 11
-2.85707443E+02
 21
-7.16427996E+01
  0
LINE
  8
0
 62
4
 10
-2.86447443E+02
 20
-7.21427996E+01
 11
-2.86207443E+02
 21
-7.21427996E+01
  0
LINE
  8
0
 62
4
 10
-2.99897443E+02
 20
-6.21427996E+01
 11
-2.99897443E+02
 21
-7.21427996E+01
  0
LINE
  8
0
 62
4
 10
-2.87017443E+02
 20
-6.21427996E+01
 11
-2.87017443E+02
 21
-7.21427996E+01
  0
LINE
  8
0
 62
4
 10
-3.00467443E+02
 20
-6.24327996E+01
 11
-3.00467443E+02
 21
-7.21427996E+01
  0
LINE
  8
0
 62
4
 10
-2.86447443E+02
 20
-6.24327996E+01
 11
-2.86447443E+02
 21
-7.21427996E+01
  0
LINE
  8
0
 62
4
 10
-3.01057443E+02
 20
-6.21427996E+01
 11
-3.01057443E+02
 21
-7.16427996E+01
  0
LINE
  8
0
 62
4
 10
-2.85857443E+02
 20
-6.21427996E+01
 11
-2.85857443E+02
 21
-7.16427996E+01
  0
LINE
  8
0
 62
4
 10
-2.95297443E+02
 20
-6.24327996E+01
 11
-2.94957443E+02
 21
-6.21427996E+01
  0
LINE
  8
0
 62
4
 10
-2.91957443E+02
 20
-6.21427996E+01
 11
-2.91617443E+02
 21
-6.24327996E+01
  0
LINE
  8
0
 62
4
 10
-2.91957443E+02
 20
-7.16427996E+01
 11
-2.91617443E+02
 21
-7.21427996E+01
  0
LINE
  8
0
 62
4
 10
-2.94957443E+02
 20
-7.16427996E+01
 11
-2.95297443E+02
 21
-7.21427996E+01
  0
LINE
  8
0
 62
4
 10
-2.97777443E+02
 20
-6.21427996E+01
 11
-2.97117443E+02
 21
-6.24327996E+01
  0
LINE
  8
0
 62
4
 10
-2.89797443E+02
 20
-6.24327996E+01
 11
-2.89137443E+02
 21
-6.21427996E+01
  0
LINE
  8
0
 62
4
 10
-2.89137443E+02
 20
-7.16427996E+01
 11
-2.89797443E+02
 21
-7.21427996E+01
  0
LINE
  8
0
 62
4
 10
-2.97777443E+02
 20
-7.16427996E+01
 11
-2.97117443E+02
 21
-7.21427996E+01
  0
LINE
  8
0
 62
4
 10
-3.00467443E+02
 20
-6.24327996E+01
 11
-2.99897443E+02
 21
-6.22127996E+01
  0
LINE
  8
0
 62
4
 10
-2.87017443E+02
 20
-6.22127996E+01
 11
-2.86447443E+02
 21
-6.24327996E+01
  0
LINE
  8
0
 62
4
 10
-3.01057443E+02
 20
-7.16427996E+01
 11
-3.00467443E+02
 21
-7.21427996E+01
  0
LINE
  8
0
 62
4
 10
-2.85857443E+02
 20
-7.16427996E+01
 11
-2.86447443E+02
 21
-7.21427996E+01
  0
LINE
  8
0
 62
7
 10
-2.34957443E+02
 20
1.24347200E+02
 11
-2.34957443E+02
 21
1.22347200E+02
  0
LINE
  8
0
  6
CENTER
 62
2
 10
-2.18957443E+02
 20
1.35847200E+02
 11
-2.35957443E+02
 21
1.35847200E+02
  0
LINE
  8
0
 62
7
 10
-2.08467443E+02
 20
1.24347200E+02
 11
-2.46457443E+02
 21
1.24347200E+02
  0
LINE
  8
0
  6
CENTER
 62
2
 10
-2.27457443E+02
 20
2.07347200E+02
 11
-2.27457443E+02
 21
8.73472004E+01
  0
LINE
  8
0
 62
7
 10
-2.46457443E+02
 20
1.70347200E+02
 11
-2.46457443E+02
 21
1.24347200E+02
  0
LINE
  8
0
 62
7
 10
-2.08467443E+02
 20
1.70347200E+02
 11
-2.08467443E+02
 21
1.24347200E+02
  0
LINE
  8
0
 62
7
 10
-2.17987443E+02
 20
1.29847200E+02
 11
-2.36927443E+02
 21
1.29847200E+02
  0
LINE
  8
0
 62
7
 10
-2.17987443E+02
 20
1.64847200E+02
 11
-2.36927443E+02
 21
1.64847200E+02
  0
LINE
  8
0
 62
7
 10
-2.17987443E+02
 20
1.64847200E+02
 11
-2.17987443E+02
 21
1.29847200E+02
  0
LINE
  8
0
 62
7
 10
-2.36927443E+02
 20
1.64847200E+02
 11
-2.36927443E+02
 21
1.29847200E+02
  0
LINE
  8
0
 62
7
 10
-2.17987443E+02
 20
1.64847200E+02
 11
-2.08467443E+02
 21
1.70347200E+02
  0
LINE
  8
0
 62
7
 10
-2.36927443E+02
 20
1.64847200E+02
 11
-2.46457443E+02
 21
1.70347200E+02
  0
LINE
  8
0
 62
7
 10
-2.36927443E+02
 20
1.29847200E+02
 11
-2.46457443E+02
 21
1.24347200E+02
  0
LINE
  8
0
 62
7
 10
-2.17987443E+02
 20
1.29847200E+02
 11
-2.08467443E+02
 21
1.24347200E+02
  0
LINE
  8
0
  6
CENTER
 62
2
 10
-2.18957443E+02
 20
1.58847200E+02
 11
-2.35957443E+02
 21
1.58847200E+02
  0
LINE
  8
0
 62
7
 10
-2.08467443E+02
 20
1.70347200E+02
 11
-2.46457443E+02
 21
1.70347200E+02
  0
LINE
  8
0
 62
7
 10
-2.21457443E+02
 20
1.70847200E+02
 11
-2.21457443E+02
 21
1.70347200E+02
  0
LINE
  8
0
 62
7
 10
-1.21467443E+02
 20
1.70847200E+02
 11
-1.21467443E+02
 21
1.23847200E+02
  0
LINE
  8
0
 62
7
 10
-2.19957443E+02
 20
1.72347200E+02
 11
-1.22967443E+02
 21
1.72347200E+02
  0
LINE
  8
0
 62
7
 10
-2.21457443E+02
 20
1.70847200E+02
 11
-2.19957443E+02
 21
1.72347200E+02
  0
LINE
  8
0
 62
7
 10
-1.21467443E+02
 20
1.70847200E+02
 11
-1.22967443E+02
 21
1.72347200E+02
  0
LINE
  8
0
 62
7
 10
-2.21457443E+02
 20
1.70847200E+02
 11
-1.21467443E+02
 21
1.70847200E+02
  0
LINE
  8
0
  6
CENTER
 62
2
 10
-1.71467443E+02
 20
1.88347200E+02
 11
-1.71467443E+02
 21
5.24972004E+01
  0
LINE
  8
0
 62
7
 10
-1.91217443E+02
 20
1.73347200E+02
 11
-1.91217443E+02
 21
1.72347200E+02
  0
LINE
  8
0
 62
7
 10
-2.16457443E+02
 20
1.73347200E+02
 11
-2.16457443E+02
 21
1.72347200E+02
  0
LINE
  8
0
 62
7
 10
-2.05467443E+02
 20
1.73347200E+02
 11
-2.05467443E+02
 21
1.72347200E+02
  0
LINE
  8
0
 62
7
 10
-2.16457443E+02
 20
1.73347200E+02
 11
-2.05467443E+02
 21
1.73347200E+02
  0
LINE
  8
0
 62
7
 10
-2.19957443E+02
 20
1.22347200E+02
 11
-1.87667443E+02
 21
1.22347200E+02
  0
LINE
  8
0
 62
7
 10
-1.99467443E+02
 20
1.20347200E+02
 11
-1.43467443E+02
 21
1.20347200E+02
  0
LINE
  8
0
 62
7
 10
-2.21457443E+02
 20
1.23847200E+02
 11
-2.19957443E+02
 21
1.22347200E+02
  0
LINE
  8
0
 62
7
 10
-1.22967443E+02
 20
1.22347200E+02
 11
-1.21467443E+02
 21
1.23847200E+02
  0
LINE
  8
0
 62
7
 10
-2.21457443E+02
 20
1.23847200E+02
 11
-1.86167443E+02
 21
1.23847200E+02
  0
LINE
  8
0
 62
7
 10
-1.22967443E+02
 20
1.22347200E+02
 11
-1.22967443E+02
 21
1.72347200E+02
  0
LINE
  8
0
 62
7
 10
-2.19957443E+02
 20
1.22347200E+02
 11
-2.19957443E+02
 21
1.24347200E+02
  0
LINE
  8
0
 62
7
 10
-2.16457443E+02
 20
1.21347200E+02
 11
-2.05467443E+02
 21
1.21347200E+02
  0
LINE
  8
0
 62
7
 10
-2.16457443E+02
 20
1.21347200E+02
 11
-2.16457443E+02
 21
1.22347200E+02
  0
LINE
  8
0
 62
7
 10
-2.05467443E+02
 20
1.21347200E+02
 11
-2.05467443E+02
 21
1.22347200E+02
  0
LINE
  8
0
 62
7
 10
-1.56767443E+02
 20
1.23847200E+02
 11
-1.21467443E+02
 21
1.23847200E+02
  0
LINE
  8
0
 62
7
 10
-1.55267443E+02
 20
1.22347200E+02
 11
-1.22967443E+02
 21
1.22347200E+02
  0
LINE
  8
0
 62
7
 10
-1.85167443E+02
 20
1.40347200E+02
 11
-1.74531403E+02
 21
1.40347200E+02
  0
LINE
  8
0
 62
7
 10
-2.00467443E+02
 20
1.22347200E+02
 11
-2.00467443E+02
 21
1.21347200E+02
  0
LINE
  8
0
 62
7
 10
-1.42467443E+02
 20
1.22347200E+02
 11
-1.42467443E+02
 21
1.21347200E+02
  0
LINE
  8
0
 62
7
 10
-2.00467443E+02
 20
1.21347200E+02
 11
-1.99467443E+02
 21
1.20347200E+02
  0
LINE
  8
0
 62
7
 10
-1.43467443E+02
 20
1.20347200E+02
 11
-1.42467443E+02
 21
1.21347200E+02
  0
LINE
  8
0
 62
7
 10
-2.00467443E+02
 20
1.21347200E+02
 11
-1.42467443E+02
 21
1.21347200E+02
  0
LINE
  8
0
 62
7
 10
-1.86167443E+02
 20
1.23847200E+02
 11
-1.86167443E+02
 21
1.39347200E+02
  0
LINE
  8
0
 62
7
 10
-1.86167443E+02
 20
1.23847200E+02
 11
-1.87667443E+02
 21
1.22347200E+02
  0
LINE
  8
0
 62
7
 10
-1.85167443E+02
 20
1.40347200E+02
 11
-1.86167443E+02
 21
1.39347200E+02
  0
LINE
  8
0
 62
7
 10
-1.86167443E+02
 20
1.39347200E+02
 11
-1.74154050E+02
 21
1.39347200E+02
  0
LINE
  8
0
 62
7
 10
-2.00467443E+02
 20
1.62347200E+02
 11
-2.00467443E+02
 21
1.32347200E+02
  0
LINE
  8
0
 62
7
 10
-2.21457443E+02
 20
1.24347200E+02
 11
-2.21457443E+02
 21
1.23847200E+02
  0
LINE
  8
0
 62
7
 10
-2.19957443E+02
 20
1.70347200E+02
 11
-2.19957443E+02
 21
1.72347200E+02
  0
LINE
  8
0
 62
7
 10
-2.08467443E+02
 20
1.62347200E+02
 11
-2.00467443E+02
 21
1.62347200E+02
  0
LINE
  8
0
 62
7
 10
-2.08467443E+02
 20
1.32347200E+02
 11
-2.00467443E+02
 21
1.32347200E+02
  0
LINE
  8
0
 62
7
 10
-2.01347443E+02
 20
1.61727200E+02
 11
-2.01347443E+02
 21
1.32957200E+02
  0
LINE
  8
0
 62
7
 10
-2.08467443E+02
 20
1.61727200E+02
 11
-2.01347443E+02
 21
1.61727200E+02
  0
LINE
  8
0
 62
7
 10
-2.08467443E+02
 20
1.32957200E+02
 11
-2.01347443E+02
 21
1.32957200E+02
  0
LINE
  8
0
 62
7
 10
-2.01347443E+02
 20
1.32957200E+02
 11
-2.00467443E+02
 21
1.32347200E+02
  0
LINE
  8
0
 62
7
 10
-2.00467443E+02
 20
1.62347200E+02
 11
-2.01347443E+02
 21
1.61737200E+02
  0
LINE
  8
0
 62
7
 10
-1.29347443E+02
 20
1.61727200E+02
 11
-1.28467443E+02
 21
1.62347200E+02
  0
LINE
  8
0
 62
7
 10
-1.28467443E+02
 20
1.62347200E+02
 11
-1.28467443E+02
 21
1.32347200E+02
  0
LINE
  8
0
 62
7
 10
-1.28467443E+02
 20
1.62347200E+02
 11
-1.39415450E+02
 21
1.62347200E+02
  0
LINE
  8
0
 62
7
 10
-1.28467443E+02
 20
1.32347200E+02
 11
-1.39415450E+02
 21
1.32347200E+02
  0
LINE
  8
0
 62
7
 10
-1.29347443E+02
 20
1.61727200E+02
 11
-1.29347443E+02
 21
1.32957200E+02
  0
LINE
  8
0
 62
7
 10
-1.29347443E+02
 20
1.61727200E+02
 11
-1.38822057E+02
 21
1.61727200E+02
  0
LINE
  8
0
 62
7
 10
-1.29347443E+02
 20
1.32957200E+02
 11
-1.38831254E+02
 21
1.32957200E+02
  0
LINE
  8
0
 62
7
 10
-1.28467443E+02
 20
1.32347200E+02
 11
-1.29347443E+02
 21
1.32957200E+02
  0
LINE
  8
0
 62
7
 10
-1.91467443E+02
 20
1.73347200E+02
 11
-1.51467443E+02
 21
1.73347200E+02
  0
LINE
  8
0
 62
7
 10
-1.60437443E+02
 20
1.82347200E+02
 11
-1.61417443E+02
 21
1.83347200E+02
  0
LINE
  8
0
 62
7
 10
-1.52957443E+02
 20
1.76347200E+02
 11
-1.51867443E+02
 21
1.75767200E+02
  0
LINE
  8
0
 62
7
 10
-1.67467443E+02
 20
1.75767200E+02
 11
-1.67177443E+02
 21
1.76347200E+02
  0
LINE
  8
0
 62
7
 10
-1.61417443E+02
 20
1.76347200E+02
 11
-1.60437443E+02
 21
1.75767200E+02
  0
LINE
  8
0
 62
7
 10
-1.90467443E+02
 20
1.83347200E+02
 11
-1.52467443E+02
 21
1.83347200E+02
  0
LINE
  8
0
 62
7
 10
-1.51467443E+02
 20
1.82347200E+02
 11
-1.51467443E+02
 21
1.73427200E+02
  0
LINE
  8
0
 62
7
 10
-1.91467443E+02
 20
1.82347200E+02
 11
-1.91467443E+02
 21
1.73347200E+02
  0
LINE
  8
0
 62
7
 10
-1.91467443E+02
 20
1.82347200E+02
 11
-1.90467443E+02
 21
1.83347200E+02
  0
LINE
  8
0
 62
7
 10
-1.51467443E+02
 20
1.82347200E+02
 11
-1.52467443E+02
 21
1.83347200E+02
  0
LINE
  8
0
 62
7
 10
-1.89977443E+02
 20
1.76347200E+02
 11
-1.88147443E+02
 21
1.76347200E+02
  0
LINE
  8
0
 62
7
 10
-1.91057443E+02
 20
1.75767200E+02
 11
-1.88147443E+02
 21
1.75767200E+02
  0
LINE
  8
0
 62
7
 10
-1.75467443E+02
 20
1.82347200E+02
 11
-1.75467443E+02
 21
1.75767200E+02
  0
LINE
  8
0
 62
7
 10
-1.67467443E+02
 20
1.82347200E+02
 11
-1.67467443E+02
 21
1.75767200E+02
  0
LINE
  8
0
 62
7
 10
-1.67177443E+02
 20
1.83347200E+02
 11
-1.67177443E+02
 21
1.76347200E+02
  0
LINE
  8
0
 62
7
 10
-1.75757443E+02
 20
1.83347200E+02
 11
-1.75757443E+02
 21
1.76347200E+02
  0
LINE
  8
0
 62
7
 10
-1.91467443E+02
 20
1.82347200E+02
 11
-1.91057443E+02
 21
1.82347200E+02
  0
LINE
  8
0
 62
7
 10
-1.75467443E+02
 20
1.82347200E+02
 11
-1.67467443E+02
 21
1.82347200E+02
  0
LINE
  8
0
 62
7
 10
-1.60437443E+02
 20
1.82347200E+02
 11
-1.54777443E+02
 21
1.82347200E+02
  0
LINE
  8
0
 62
7
 10
-1.67177443E+02
 20
1.76347200E+02
 11
-1.61417443E+02
 21
1.76347200E+02
  0
LINE
  8
0
 62
7
 10
-1.67467443E+02
 20
1.75767200E+02
 11
-1.60437443E+02
 21
1.75767200E+02
  0
LINE
  8
0
 62
7
 10
-1.81517443E+02
 20
1.83347200E+02
 11
-1.81517443E+02
 21
1.76347200E+02
  0
LINE
  8
0
 62
7
 10
-1.61417443E+02
 20
1.83347200E+02
 11
-1.61417443E+02
 21
1.76347200E+02
  0
LINE
  8
0
 62
7
 10
-1.81517443E+02
 20
1.76347200E+02
 11
-1.75757443E+02
 21
1.76347200E+02
  0
LINE
  8
0
 62
7
 10
-1.54777443E+02
 20
1.76347200E+02
 11
-1.52957443E+02
 21
1.76347200E+02
  0
LINE
  8
0
 62
7
 10
-1.82497443E+02
 20
1.82347200E+02
 11
-1.82497443E+02
 21
1.75767200E+02
  0
LINE
  8
0
 62
7
 10
-1.60437443E+02
 20
1.82347200E+02
 11
-1.60437443E+02
 21
1.75767200E+02
  0
LINE
  8
0
 62
7
 10
-1.82497443E+02
 20
1.75767200E+02
 11
-1.75467443E+02
 21
1.75767200E+02
  0
LINE
  8
0
 62
7
 10
-1.54777443E+02
 20
1.75767200E+02
 11
-1.51867443E+02
 21
1.75767200E+02
  0
LINE
  8
0
 62
7
 10
-1.54777443E+02
 20
1.82347200E+02
 11
-1.54777443E+02
 21
1.75767200E+02
  0
LINE
  8
0
 62
7
 10
-1.88147443E+02
 20
1.82347200E+02
 11
-1.88147443E+02
 21
1.75767200E+02
  0
LINE
  8
0
 62
7
 10
-1.51867443E+02
 20
1.82347200E+02
 11
-1.51467443E+02
 21
1.82347200E+02
  0
LINE
  8
0
 62
7
 10
-1.88147443E+02
 20
1.82347200E+02
 11
-1.82497443E+02
 21
1.82347200E+02
  0
LINE
  8
0
 62
7
 10
-1.88147443E+02
 20
1.82347200E+02
 11
-1.87587443E+02
 21
1.83347200E+02
  0
LINE
  8
0
 62
7
 10
-1.55347443E+02
 20
1.83347200E+02
 11
-1.54777443E+02
 21
1.82347200E+02
  0
LINE
  8
0
 62
7
 10
-1.52957443E+02
 20
1.83347200E+02
 11
-1.52957443E+02
 21
1.76347200E+02
  0
LINE
  8
0
 62
7
 10
-1.89977443E+02
 20
1.83347200E+02
 11
-1.89977443E+02
 21
1.76347200E+02
  0
LINE
  8
0
 62
7
 10
-1.51867443E+02
 20
1.82347200E+02
 11
-1.51867443E+02
 21
1.75767200E+02
  0
LINE
  8
0
 62
7
 10
-1.91057443E+02
 20
1.82347200E+02
 11
-1.91057443E+02
 21
1.75767200E+02
  0
LINE
  8
0
 62
7
 10
-1.89977443E+02
 20
1.76347200E+02
 11
-1.91057443E+02
 21
1.75767200E+02
  0
LINE
  8
0
 62
7
 10
-1.81517443E+02
 20
1.76347200E+02
 11
-1.82497443E+02
 21
1.75767200E+02
  0
LINE
  8
0
 62
7
 10
-1.82497443E+02
 20
1.82347200E+02
 11
-1.81517443E+02
 21
1.83347200E+02
  0
LINE
  8
0
 62
7
 10
-1.75757443E+02
 20
1.83347200E+02
 11
-1.75467443E+02
 21
1.82347200E+02
  0
LINE
  8
0
 62
7
 10
-1.75757443E+02
 20
1.76347200E+02
 11
-1.75467443E+02
 21
1.75767200E+02
  0
LINE
  8
0
 62
7
 10
-1.67467443E+02
 20
1.82347200E+02
 11
-1.67177443E+02
 21
1.83347200E+02
  0
LINE
  8
0
 62
7
 10
-1.51867443E+02
 20
1.82347200E+02
 11
-1.52957443E+02
 21
1.83347200E+02
  0
LINE
  8
0
 62
7
 10
-1.91057443E+02
 20
1.82347200E+02
 11
-1.89977443E+02
 21
1.83347200E+02
  0
LINE
  8
0
 62
7
 10
-1.89497443E+02
 20
5.74972004E+01
 11
-1.53427443E+02
 21
5.74972004E+01
  0
LINE
  8
0
 62
7
 10
-1.92237443E+02
 20
8.94972004E+01
 11
-1.50697443E+02
 21
8.94972004E+01
  0
LINE
  8
0
 62
7
 10
-1.90537443E+02
 20
5.95372004E+01
 11
-1.91717443E+02
 21
6.02172004E+01
  0
LINE
  8
0
 62
7
 10
-1.52397443E+02
 20
5.95372004E+01
 11
-1.51217443E+02
 21
6.02172004E+01
  0
LINE
  8
0
 62
7
 10
-1.90497443E+02
 20
5.84572004E+01
 11
-1.90537443E+02
 21
5.95372004E+01
  0
LINE
  8
0
 62
7
 10
-1.52427443E+02
 20
5.84572004E+01
 11
-1.52397443E+02
 21
5.95372004E+01
  0
LINE
  8
0
 62
7
 10
-1.51217443E+02
 20
6.02172004E+01
 11
-1.50207443E+02
 21
8.90072004E+01
  0
LINE
  8
0
 62
7
 10
-1.91717443E+02
 20
6.02172004E+01
 11
-1.92717443E+02
 21
8.90072004E+01
  0
LINE
  8
0
 62
7
 10
-1.92237443E+02
 20
8.94972004E+01
 11
-1.92717443E+02
 21
8.90072004E+01
  0
LINE
  8
0
 62
7
 10
-1.50697443E+02
 20
8.94972004E+01
 11
-1.50207443E+02
 21
8.90072004E+01
  0
LINE
  8
0
 62
7
 10
-1.92717443E+02
 20
8.90072004E+01
 11
-1.50207443E+02
 21
8.90072004E+01
  0
LINE
  8
0
 62
7
 10
-1.92227443E+02
 20
8.61772004E+01
 11
-1.89237443E+02
 21
8.61772004E+01
  0
LINE
  8
0
 62
7
 10
-1.91717443E+02
 20
6.02172004E+01
 11
-1.91317443E+02
 21
6.02172004E+01
  0
LINE
  8
0
 62
7
 10
-1.90537443E+02
 20
5.95372004E+01
 11
-1.90037443E+02
 21
5.95372004E+01
  0
LINE
  8
0
 62
7
 10
-1.75467443E+02
 20
6.02172004E+01
 11
-1.67467443E+02
 21
6.02172004E+01
  0
LINE
  8
0
 62
7
 10
-1.75827443E+02
 20
5.95372004E+01
 11
-1.67097443E+02
 21
5.95372004E+01
  0
LINE
  8
0
 62
7
 10
-1.81767443E+02
 20
8.61772004E+01
 11
-1.76377443E+02
 21
8.61772004E+01
  0
LINE
  8
0
 62
7
 10
-1.80547443E+02
 20
8.54972004E+01
 11
-1.76737443E+02
 21
8.54972004E+01
  0
LINE
  8
0
 62
7
 10
-1.87627443E+02
 20
5.95372004E+01
 11
-1.81457443E+02
 21
5.95372004E+01
  0
LINE
  8
0
 62
7
 10
-1.88327443E+02
 20
6.02172004E+01
 11
-1.82677443E+02
 21
6.02172004E+01
  0
LINE
  8
0
 62
7
 10
-1.88327443E+02
 20
6.02172004E+01
 11
-1.87627443E+02
 21
5.95372004E+01
  0
LINE
  8
0
 62
7
 10
-1.90937443E+02
 20
8.54972004E+01
 11
-1.89217443E+02
 21
8.54972004E+01
  0
LINE
  8
0
 62
7
 10
-1.91317443E+02
 20
6.02172004E+01
 11
-1.92227443E+02
 21
8.61772004E+01
  0
LINE
  8
0
 62
7
 10
-1.90037443E+02
 20
5.95372004E+01
 11
-1.90937443E+02
 21
8.54972004E+01
  0
LINE
  8
0
 62
7
 10
-1.88327443E+02
 20
6.02172004E+01
 11
-1.89237443E+02
 21
8.61772004E+01
  0
LINE
  8
0
 62
7
 10
-1.75467443E+02
 20
6.02172004E+01
 11
-1.76377443E+02
 21
8.61772004E+01
  0
LINE
  8
0
 62
7
 10
-1.75827443E+02
 20
5.95372004E+01
 11
-1.76737443E+02
 21
8.54972004E+01
  0
LINE
  8
0
 62
7
 10
-1.82677443E+02
 20
6.02172004E+01
 11
-1.81767443E+02
 21
8.61772004E+01
  0
LINE
  8
0
 62
7
 10
-1.81457443E+02
 20
5.95372004E+01
 11
-1.80547443E+02
 21
8.54972004E+01
  0
LINE
  8
0
 62
7
 10
-1.75827443E+02
 20
5.95372004E+01
 11
-1.75467443E+02
 21
6.02172004E+01
  0
LINE
  8
0
 62
7
 10
-1.76737443E+02
 20
8.54972004E+01
 11
-1.76377443E+02
 21
8.61772004E+01
  0
LINE
  8
0
 62
7
 10
-1.80547443E+02
 20
8.54972004E+01
 11
-1.81767443E+02
 21
8.61772004E+01
  0
LINE
  8
0
 62
7
 10
-1.82677443E+02
 20
6.02172004E+01
 11
-1.81457443E+02
 21
5.95372004E+01
  0
LINE
  8
0
 62
7
 10
-1.90937443E+02
 20
8.54972004E+01
 11
-1.92227443E+02
 21
8.61772004E+01
  0
LINE
  8
0
 62
7
 10
-1.91317443E+02
 20
6.02172004E+01
 11
-1.90037443E+02
 21
5.95372004E+01
  0
LINE
  8
0
 62
7
 10
-1.51617443E+02
 20
6.02172004E+01
 11
-1.52897443E+02
 21
5.95372004E+01
  0
LINE
  8
0
 62
7
 10
-1.51997443E+02
 20
8.54972004E+01
 11
-1.50707443E+02
 21
8.61772004E+01
  0
LINE
  8
0
 62
7
 10
-1.62387443E+02
 20
8.54972004E+01
 11
-1.61167443E+02
 21
8.61772004E+01
  0
LINE
  8
0
 62
7
 10
-1.61477443E+02
 20
5.95372004E+01
 11
-1.62387443E+02
 21
8.54972004E+01
  0
LINE
  8
0
 62
7
 10
-1.60257443E+02
 20
6.02172004E+01
 11
-1.61477443E+02
 21
5.95372004E+01
  0
LINE
  8
0
 62
7
 10
-1.66197443E+02
 20
8.54972004E+01
 11
-1.66557443E+02
 21
8.61772004E+01
  0
LINE
  8
0
 62
7
 10
-1.67097443E+02
 20
5.95372004E+01
 11
-1.67467443E+02
 21
6.02172004E+01
  0
LINE
  8
0
 62
7
 10
-1.50707443E+02
 20
8.61772004E+01
 11
-1.53697443E+02
 21
8.61772004E+01
  0
LINE
  8
0
 62
7
 10
-1.51217443E+02
 20
6.02172004E+01
 11
-1.51617443E+02
 21
6.02172004E+01
  0
LINE
  8
0
 62
7
 10
-1.52397443E+02
 20
5.95372004E+01
 11
-1.52897443E+02
 21
5.95372004E+01
  0
LINE
  8
0
 62
7
 10
-1.60257443E+02
 20
6.02172004E+01
 11
-1.61167443E+02
 21
8.61772004E+01
  0
LINE
  8
0
 62
7
 10
-1.67097443E+02
 20
5.95372004E+01
 11
-1.66197443E+02
 21
8.54972004E+01
  0
LINE
  8
0
 62
7
 10
-1.61167443E+02
 20
8.61772004E+01
 11
-1.66557443E+02
 21
8.61772004E+01
  0
LINE
  8
0
 62
7
 10
-1.62387443E+02
 20
8.54972004E+01
 11
-1.66197443E+02
 21
8.54972004E+01
  0
LINE
  8
0
 62
7
 10
-1.55307443E+02
 20
5.95372004E+01
 11
-1.61477443E+02
 21
5.95372004E+01
  0
LINE
  8
0
 62
7
 10
-1.54597443E+02
 20
6.02172004E+01
 11
-1.60257443E+02
 21
6.02172004E+01
  0
LINE
  8
0
 62
7
 10
-1.54597443E+02
 20
6.02172004E+01
 11
-1.55307443E+02
 21
5.95372004E+01
  0
LINE
  8
0
 62
7
 10
-1.51997443E+02
 20
8.54972004E+01
 11
-1.53717443E+02
 21
8.54972004E+01
  0
LINE
  8
0
 62
7
 10
-1.51617443E+02
 20
6.02172004E+01
 11
-1.50707443E+02
 21
8.61772004E+01
  0
LINE
  8
0
 62
7
 10
-1.52897443E+02
 20
5.95372004E+01
 11
-1.51997443E+02
 21
8.54972004E+01
  0
LINE
  8
0
 62
7
 10
-1.54597443E+02
 20
6.02172004E+01
 11
-1.53697443E+02
 21
8.61772004E+01
  0
LINE
  8
0
 62
7
 10
-1.67467443E+02
 20
6.02172004E+01
 11
-1.66557443E+02
 21
8.61772004E+01
  0
LINE
  8
0
 62
7
 10
-1.99967443E+02
 20
1.19347200E+02
 11
-1.42967443E+02
 21
1.19347200E+02
  0
LINE
  8
0
 62
7
 10
-1.99967443E+02
 20
1.19347200E+02
 11
-1.99967443E+02
 21
1.10347200E+02
  0
LINE
  8
0
 62
7
 10
-1.42967443E+02
 20
1.19347200E+02
 11
-1.42967443E+02
 21
1.10347200E+02
  0
LINE
  8
0
 62
7
 10
-1.98967443E+02
 20
1.09347200E+02
 11
-1.43967443E+02
 21
1.09347200E+02
  0
LINE
  8
0
 62
7
 10
-1.99967443E+02
 20
1.10347200E+02
 11
-1.98967443E+02
 21
1.09347200E+02
  0
LINE
  8
0
 62
7
 10
-1.42967443E+02
 20
1.10347200E+02
 11
-1.43967443E+02
 21
1.09347200E+02
  0
LINE
  8
0
 62
7
 10
-1.99967443E+02
 20
1.10347200E+02
 11
-1.99747443E+02
 21
1.10347200E+02
  0
LINE
  8
0
 62
7
 10
-1.60977443E+02
 20
1.10347200E+02
 11
-1.54577443E+02
 21
1.10347200E+02
  0
LINE
  8
0
 62
7
 10
-1.54577443E+02
 20
1.17347200E+02
 11
-1.48717443E+02
 21
1.17347200E+02
  0
LINE
  8
0
 62
7
 10
-1.54297443E+02
 20
1.16347200E+02
 11
-1.49767443E+02
 21
1.16347200E+02
  0
LINE
  8
0
 62
7
 10
-1.54297443E+02
 20
1.16347200E+02
 11
-1.54297443E+02
 21
1.09347200E+02
  0
LINE
  8
0
 62
7
 10
-1.54577443E+02
 20
1.17347200E+02
 11
-1.54577443E+02
 21
1.10347200E+02
  0
LINE
  8
0
 62
7
 10
-1.88637443E+02
 20
1.16347200E+02
 11
-1.88637443E+02
 21
1.09347200E+02
  0
LINE
  8
0
 62
7
 10
-1.88357443E+02
 20
1.17347200E+02
 11
-1.88357443E+02
 21
1.10347200E+02
  0
LINE
  8
0
 62
7
 10
-1.88357443E+02
 20
1.10347200E+02
 11
-1.81957443E+02
 21
1.10347200E+02
  0
LINE
  8
0
 62
7
 10
-1.48717443E+02
 20
1.10347200E+02
 11
-1.45217443E+02
 21
1.10347200E+02
  0
LINE
  8
0
 62
7
 10
-1.49767443E+02
 20
1.16347200E+02
 11
-1.49767443E+02
 21
1.09347200E+02
  0
LINE
  8
0
 62
7
 10
-1.48717443E+02
 20
1.17347200E+02
 11
-1.48717443E+02
 21
1.10347200E+02
  0
LINE
  8
0
 62
7
 10
-1.94207443E+02
 20
1.17347200E+02
 11
-1.94207443E+02
 21
1.10347200E+02
  0
LINE
  8
0
 62
7
 10
-1.93167443E+02
 20
1.16347200E+02
 11
-1.93167443E+02
 21
1.09347200E+02
  0
LINE
  8
0
 62
7
 10
-1.94207443E+02
 20
1.17347200E+02
 11
-1.88357443E+02
 21
1.17347200E+02
  0
LINE
  8
0
 62
7
 10
-1.93167443E+02
 20
1.16347200E+02
 11
-1.88637443E+02
 21
1.16347200E+02
  0
LINE
  8
0
 62
7
 10
-1.45217443E+02
 20
1.17347200E+02
 11
-1.43177443E+02
 21
1.17347200E+02
  0
LINE
  8
0
 62
7
 10
-1.45217443E+02
 20
1.16347200E+02
 11
-1.44227443E+02
 21
1.16347200E+02
  0
LINE
  8
0
 62
7
 10
-1.45217443E+02
 20
1.17347200E+02
 11
-1.45217443E+02
 21
1.10347200E+02
  0
LINE
  8
0
 62
7
 10
-1.97707443E+02
 20
1.17347200E+02
 11
-1.97707443E+02
 21
1.10347200E+02
  0
LINE
  8
0
 62
7
 10
-1.99747443E+02
 20
1.17347200E+02
 11
-1.97707443E+02
 21
1.17347200E+02
  0
LINE
  8
0
 62
7
 10
-1.98707443E+02
 20
1.16347200E+02
 11
-1.97707443E+02
 21
1.16347200E+02
  0
LINE
  8
0
 62
7
 10
-1.97707443E+02
 20
1.10347200E+02
 11
-1.94207443E+02
 21
1.10347200E+02
  0
LINE
  8
0
 62
7
 10
-1.43177443E+02
 20
1.10347200E+02
 11
-1.42967443E+02
 21
1.10347200E+02
  0
LINE
  8
0
 62
7
 10
-1.97707443E+02
 20
1.10347200E+02
 11
-1.96947443E+02
 21
1.09347200E+02
  0
LINE
  8
0
 62
7
 10
-1.44227443E+02
 20
1.16347200E+02
 11
-1.44227443E+02
 21
1.09347200E+02
  0
LINE
  8
0
 62
7
 10
-1.43177443E+02
 20
1.17347200E+02
 11
-1.43177443E+02
 21
1.10347200E+02
  0
LINE
  8
0
 62
7
 10
-1.98707443E+02
 20
1.16347200E+02
 11
-1.98707443E+02
 21
1.09347200E+02
  0
LINE
  8
0
 62
7
 10
-1.99747443E+02
 20
1.17347200E+02
 11
-1.99747443E+02
 21
1.10347200E+02
  0
LINE
  8
0
 62
7
 10
-1.99747443E+02
 20
1.10347200E+02
 11
-1.98707443E+02
 21
1.09347200E+02
  0
LINE
  8
0
 62
7
 10
-1.99747443E+02
 20
1.17347200E+02
 11
-1.98707443E+02
 21
1.16347200E+02
  0
LINE
  8
0
 62
7
 10
-1.44227443E+02
 20
1.09347200E+02
 11
-1.43177443E+02
 21
1.10347200E+02
  0
LINE
  8
0
 62
7
 10
-1.44227443E+02
 20
1.16347200E+02
 11
-1.43177443E+02
 21
1.17347200E+02
  0
LINE
  8
0
 62
7
 10
-1.94207443E+02
 20
1.10347200E+02
 11
-1.93167443E+02
 21
1.09347200E+02
  0
LINE
  8
0
 62
7
 10
-1.93167443E+02
 20
1.16347200E+02
 11
-1.94207443E+02
 21
1.17347200E+02
  0
LINE
  8
0
 62
7
 10
-1.88637443E+02
 20
1.16347200E+02
 11
-1.88357443E+02
 21
1.17347200E+02
  0
LINE
  8
0
 62
7
 10
-1.88637443E+02
 20
1.09347200E+02
 11
-1.88357443E+02
 21
1.10347200E+02
  0
LINE
  8
0
 62
7
 10
-1.54297443E+02
 20
1.16347200E+02
 11
-1.54577443E+02
 21
1.17347200E+02
  0
LINE
  8
0
 62
7
 10
-1.54297443E+02
 20
1.09347200E+02
 11
-1.54577443E+02
 21
1.10347200E+02
  0
LINE
  8
0
 62
7
 10
-1.49767443E+02
 20
1.16347200E+02
 11
-1.48717443E+02
 21
1.17347200E+02
  0
LINE
  8
0
 62
7
 10
-1.48717443E+02
 20
1.10347200E+02
 11
-1.49767443E+02
 21
1.09347200E+02
  0
LINE
  8
0
 62
7
 10
-1.45217443E+02
 20
1.10347200E+02
 11
-1.45987443E+02
 21
1.09347200E+02
  0
LINE
  8
0
 62
7
 10
-1.81957443E+02
 20
1.19347200E+02
 11
-1.81957443E+02
 21
1.10347200E+02
  0
LINE
  8
0
 62
7
 10
-1.60977443E+02
 20
1.19347200E+02
 11
-1.60977443E+02
 21
1.10347200E+02
  0
LINE
  8
0
 62
2
 10
-1.81957443E+02
 20
1.19347200E+02
 11
-1.60977443E+02
 21
1.10347200E+02
  0
LINE
  8
0
 62
2
 10
-1.60977443E+02
 20
1.19347200E+02
 11
-1.81957443E+02
 21
1.10347200E+02
  0
LINE
  8
0
 62
7
 10
-1.49967443E+02
 20
1.09347200E+02
 11
-1.49967443E+02
 21
1.08347200E+02
  0
LINE
  8
0
 62
7
 10
-1.91237443E+02
 20
1.07347200E+02
 11
-1.51697443E+02
 21
1.07347200E+02
  0
LINE
  8
0
 62
7
 10
-1.92967443E+02
 20
1.08347200E+02
 11
-1.49967443E+02
 21
1.08347200E+02
  0
LINE
  8
0
 62
7
 10
-1.92967443E+02
 20
1.08347200E+02
 11
-1.91237443E+02
 21
1.07347200E+02
  0
LINE
  8
0
 62
7
 10
-1.49967443E+02
 20
1.08347200E+02
 11
-1.51697443E+02
 21
1.07347200E+02
  0
LINE
  8
0
 62
7
 10
-1.92967443E+02
 20
1.09347200E+02
 11
-1.92967443E+02
 21
1.08347200E+02
  0
LINE
  8
0
 62
7
 10
-1.93967443E+02
 20
1.20347200E+02
 11
-1.93967443E+02
 21
1.19347200E+02
  0
LINE
  8
0
 62
2
 10
-1.92967443E+02
 20
1.20347200E+02
 11
-1.92967443E+02
 21
1.19347200E+02
  0
LINE
  8
0
 62
2
 10
-1.49967443E+02
 20
1.20347200E+02
 11
-1.49967443E+02
 21
1.19347200E+02
  0
LINE
  8
0
 62
7
 10
-1.48967443E+02
 20
1.20347200E+02
 11
-1.48967443E+02
 21
1.19347200E+02
  0
LINE
  8
0
 62
7
 10
-1.83227443E+02
 20
1.07347200E+02
 11
-1.83227443E+02
 21
8.94972004E+01
  0
LINE
  8
0
 62
7
 10
-1.90517443E+02
 20
1.07347200E+02
 11
-1.89907443E+02
 21
8.94972004E+01
  0
LINE
  8
0
 62
7
 10
-1.77377443E+02
 20
1.07347200E+02
 11
-1.77377443E+02
 21
8.94972004E+01
  0
LINE
  8
0
 62
7
 10
-1.65547443E+02
 20
1.07347200E+02
 11
-1.65547443E+02
 21
8.94972004E+01
  0
LINE
  8
0
 62
7
 10
-1.59697443E+02
 20
1.07347200E+02
 11
-1.59697443E+02
 21
8.94972004E+01
  0
LINE
  8
0
 62
7
 10
-1.52417443E+02
 20
1.07347200E+02
 11
-1.53027443E+02
 21
8.94972004E+01
  0
LINE
  8
0
 62
7
 10
-2.12467443E+02
 20
2.02347200E+02
 11
-2.42457443E+02
 21
2.02347200E+02
  0
LINE
  8
0
 62
7
 10
-2.08467443E+02
 20
1.98347200E+02
 11
-2.08467443E+02
 21
1.73347200E+02
  0
LINE
  8
0
 62
7
 10
-2.46457443E+02
 20
1.98347200E+02
 11
-2.46457443E+02
 21
1.72347200E+02
  0
LINE
  8
0
 62
7
 10
-2.08467443E+02
 20
1.98347200E+02
 11
-2.12467443E+02
 21
2.02347200E+02
  0
LINE
  8
0
 62
7
 10
-2.46457443E+02
 20
1.98347200E+02
 11
-2.42457443E+02
 21
2.02347200E+02
  0
LINE
  8
0
 62
7
 10
-2.09967443E+02
 20
1.97727200E+02
 11
-2.09967443E+02
 21
1.73347200E+02
  0
LINE
  8
0
 62
7
 10
-2.44957443E+02
 20
1.97727200E+02
 11
-2.44957443E+02
 21
1.72347200E+02
  0
LINE
  8
0
 62
7
 10
-2.13087443E+02
 20
2.00847200E+02
 11
-2.41837443E+02
 21
2.00847200E+02
  0
LINE
  8
0
 62
7
 10
-2.44957443E+02
 20
1.97727200E+02
 11
-2.41837443E+02
 21
2.00847200E+02
  0
LINE
  8
0
 62
7
 10
-2.09967443E+02
 20
1.97727200E+02
 11
-2.13087443E+02
 21
2.00847200E+02
  0
LINE
  8
0
  6
CENTER
 62
2
 10
-2.16957443E+02
 20
1.92347200E+02
 11
-2.37957443E+02
 21
1.92347200E+02
  0
LINE
  8
0
 62
7
 10
-2.25457443E+02
 20
1.96847200E+02
 11
-2.29457443E+02
 21
1.96847200E+02
  0
LINE
  8
0
 62
7
 10
-2.25457443E+02
 20
1.87847200E+02
 11
-2.29457443E+02
 21
1.87847200E+02
  0
LINE
  8
0
  6
CENTER
 62
2
 10
-2.25457443E+02
 20
1.98847200E+02
 11
-2.25457443E+02
 21
1.85847200E+02
  0
LINE
  8
0
  6
CENTER
 62
2
 10
-2.29457443E+02
 20
1.98847200E+02
 11
-2.29457443E+02
 21
1.85847200E+02
  0
LINE
  8
0
 62
7
 10
-2.12467443E+02
 20
9.23472004E+01
 11
-2.42457443E+02
 21
9.23472004E+01
  0
LINE
  8
0
 62
7
 10
-2.08467443E+02
 20
9.63472004E+01
 11
-2.08467443E+02
 21
1.21347200E+02
  0
LINE
  8
0
 62
7
 10
-2.08467443E+02
 20
9.63472004E+01
 11
-2.12467443E+02
 21
9.23472004E+01
  0
LINE
  8
0
 62
7
 10
-2.42627443E+02
 20
9.25172004E+01
 11
-2.42457443E+02
 21
9.23472004E+01
  0
LINE
  8
0
 62
7
 10
-2.09967443E+02
 20
9.69672004E+01
 11
-2.09967443E+02
 21
1.21347200E+02
  0
LINE
  8
0
 62
7
 10
-2.13087443E+02
 20
9.38472004E+01
 11
-2.41837443E+02
 21
9.38472004E+01
  0
LINE
  8
0
 62
7
 10
-2.42557443E+02
 20
9.45672004E+01
 11
-2.41837443E+02
 21
9.38472004E+01
  0
LINE
  8
0
 62
7
 10
-2.09967443E+02
 20
9.69672004E+01
 11
-2.13087443E+02
 21
9.38472004E+01
  0
LINE
  8
0
  6
CENTER
 62
2
 10
-2.16957443E+02
 20
1.02347200E+02
 11
-2.37957443E+02
 21
1.02347200E+02
  0
LINE
  8
0
 62
7
 10
-2.25457443E+02
 20
9.78472004E+01
 11
-2.29457443E+02
 21
9.78472004E+01
  0
LINE
  8
0
 62
7
 10
-2.25457443E+02
 20
1.06847200E+02
 11
-2.29457443E+02
 21
1.06847200E+02
  0
LINE
  8
0
  6
CENTER
 62
2
 10
-2.25457443E+02
 20
9.58472004E+01
 11
-2.25457443E+02
 21
1.08847200E+02
  0
LINE
  8
0
  6
CENTER
 62
2
 10
-2.29457443E+02
 20
9.58472004E+01
 11
-2.29457443E+02
 21
1.08847200E+02
  0
LINE
  8
0
 62
7
 10
-2.42957443E+02
 20
1.80347200E+02
 11
-2.11967443E+02
 21
1.80347200E+02
  0
LINE
  8
0
 62
7
 10
-2.38457443E+02
 20
1.14347200E+02
 11
-2.11967443E+02
 21
1.14347200E+02
  0
LINE
  8
0
 62
7
 10
-2.44957443E+02
 20
1.97727200E+02
 11
-2.46457443E+02
 21
1.98347200E+02
  0
LINE
  8
0
 62
7
 10
-2.09967443E+02
 20
1.97727200E+02
 11
-2.08467443E+02
 21
1.98347200E+02
  0
LINE
  8
0
 62
7
 10
-2.12467443E+02
 20
2.02347200E+02
 11
-2.13087443E+02
 21
2.00847200E+02
  0
LINE
  8
0
 62
7
 10
-2.42457443E+02
 20
2.02347200E+02
 11
-2.41837443E+02
 21
2.00847200E+02
  0
LINE
  8
0
 62
7
 10
-2.42457443E+02
 20
9.23472004E+01
 11
-2.41837443E+02
 21
9.38472004E+01
  0
LINE
  8
0
 62
7
 10
-2.12467443E+02
 20
9.23472004E+01
 11
-2.13087443E+02
 21
9.38472004E+01
  0
LINE
  8
0
 62
7
 10
-2.09967443E+02
 20
9.69672004E+01
 11
-2.08467443E+02
 21
9.63472004E+01
  0
LINE
  8
0
  6
CENTER
 62
2
 10
-1.54467443E+02
 20
1.70325589E+02
 11
-1.54467443E+02
 21
1.24747853E+02
  0
LINE
  8
0
 62
4
 10
-3.33827443E+02
 20
1.74017200E+02
 11
-3.23087443E+02
 21
1.74017200E+02
  0
LINE
  8
0
 62
4
 10
-3.35037443E+02
 20
1.73317200E+02
 11
-3.33827443E+02
 21
1.74017200E+02
  0
LINE
  8
0
 62
6
 10
-3.34177443E+02
 20
1.73807200E+02
 11
-3.34177443E+02
 21
1.72347200E+02
  0
LINE
  8
0
 62
4
 10
-3.35037443E+02
 20
1.73317200E+02
 11
-3.21877443E+02
 21
1.73317200E+02
  0
LINE
  8
0
  6
CENTER
 62
2
 10
-3.28457443E+02
 20
1.78017200E+02
 11
-3.28457443E+02
 21
1.68347200E+02
  0
LINE
  8
0
 62
4
 10
-3.23087443E+02
 20
1.74017200E+02
 11
-3.21877443E+02
 21
1.73317200E+02
  0
LINE
  8
0
 62
6
 10
-3.22737443E+02
 20
1.73807200E+02
 11
-3.22737443E+02
 21
1.72347200E+02
  0
LINE
  8
0
 62
4
 10
-3.21877443E+02
 20
1.73317200E+02
 11
-3.21907443E+02
 21
1.72347200E+02
  0
LINE
  8
0
 62
4
 10
-2.63827443E+02
 20
1.74017200E+02
 11
-2.53087443E+02
 21
1.74017200E+02
  0
LINE
  8
0
 62
4
 10
-2.65037443E+02
 20
1.73317200E+02
 11
-2.51877443E+02
 21
1.73317200E+02
  0
LINE
  8
0
 62
4
 10
-2.65037443E+02
 20
1.73317200E+02
 11
-2.63827443E+02
 21
1.74017200E+02
  0
LINE
  8
0
 62
4
 10
-2.65037443E+02
 20
1.73317200E+02
 11
-2.65007443E+02
 21
1.72347200E+02
  0
LINE
  8
0
 62
6
 10
-2.64177443E+02
 20
1.73807200E+02
 11
-2.64177443E+02
 21
1.72347200E+02
  0
LINE
  8
0
 62
4
 10
-2.53087443E+02
 20
1.74017200E+02
 11
-2.51877443E+02
 21
1.73317200E+02
  0
LINE
  8
0
 62
6
 10
-2.52737443E+02
 20
1.73807200E+02
 11
-2.52737443E+02
 21
1.72347200E+02
  0
LINE
  8
0
 62
4
 10
-2.51877443E+02
 20
1.73317200E+02
 11
-2.51907443E+02
 21
1.72347200E+02
  0
LINE
  8
0
 62
7
 10
-3.53457443E+02
 20
1.70847200E+02
 11
-2.33457443E+02
 21
1.70847200E+02
  0
LINE
  8
0
 62
7
 10
-2.34957443E+02
 20
1.72347200E+02
 11
-2.34957443E+02
 21
1.70347200E+02
  0
LINE
  8
0
 62
7
 10
-2.34957443E+02
 20
1.72347200E+02
 11
-2.33457443E+02
 21
1.70847200E+02
  0
LINE
  8
0
 62
7
 10
-2.33457443E+02
 20
1.70847200E+02
 11
-2.33457443E+02
 21
1.70347200E+02
  0
LINE
  8
0
  6
CENTER
 62
2
 10
-2.58457443E+02
 20
1.78017200E+02
 11
-2.58457443E+02
 21
1.68347200E+02
  0
CIRCLE
  8
0
 62
7
 10
-2.88625678E+02
 20
-3.36693103E+01
 40
1.00000000E+00
  0
ARC
  8
0
 62
7
 10
-3.24037636E+02
 20
-3.96785186E+01
 40
2.99162455E+00
 50
1.81997601E+02
 51
2.40132728E+02
  0
ARC
  8
0
 62
7
 10
-2.78062909E+02
 20
-4.84473030E+01
 40
2.99550009E+00
 50
2.69913273E+02
 51
2.99949562E+02
  0
CIRCLE
  8
0
 62
7
 10
-2.98297705E+02
 20
-3.36693103E+01
 40
1.00000000E+00
  0
ARC
  8
0
 62
7
 10
-2.62883448E+02
 20
-3.96747846E+01
 40
2.99795152E+00
 50
2.99934462E+02
 51
3.57935208E+02
  0
ARC
  8
0
 62
7
 10
-3.08852543E+02
 20
-4.84494268E+01
 40
2.99337719E+00
 50
2.40039536E+02
 51
2.70097629E+02
  0
ARC
  8
0
 62
7
 10
-3.49958153E+02
 20
1.20846491E+02
 40
1.50070988E+00
 50
2.70962917E-02
 51
9.00000002E+01
  0
ARC
  8
0
 62
7
 10
-2.36960970E+02
 20
1.20850728E+02
 40
1.49647649E+00
 50
8.98649357E+01
 51
1.80135064E+02
  0
ARC
  8
0
 62
7
 10
-3.31460983E+02
 20
1.14250741E+02
 40
5.03553056E-01
 50
2.70402864E+02
 51
3.59597136E+02
  0
ARC
  8
0
 62
7
 10
-2.55458170E+02
 20
1.14246474E+02
 40
4.99273817E-01
 50
1.79916604E+02
 51
2.70000000E+02
  0
ARC
  8
0
 62
7
 10
-3.28961001E+02
 20
1.20350759E+02
 40
1.99644496E+00
 50
8.98978831E+01
 51
1.80102117E+02
  0
ARC
  8
0
 62
7
 10
-2.57958167E+02
 20
1.20346476E+02
 40
2.00072409E+00
 50
2.07325229E-02
 51
9.00000002E+01
  0
ARC
  8
0
 62
7
 10
-3.46460983E+02
 20
1.11750740E+02
 40
1.99646324E+00
 50
8.98984096E+01
 51
1.80101590E+02
  0
ARC
  8
0
 62
7
 10
-2.40458185E+02
 20
1.11746458E+02
 40
2.00074238E+00
 50
2.12557708E-02
 51
9.00000002E+01
  0
ARC
  8
0
 62
7
 10
-3.46388134E+02
 20
9.53452151E+01
 40
2.00198543E+00
 50
2.06062639E+00
 51
9.00000002E+01
  0
ARC
  8
0
 62
7
 10
-2.40530885E+02
 20
9.53494976E+01
 40
1.99770571E+00
 50
8.99012847E+01
 51
1.78057860E+02
  0
ARC
  8
0
 62
7
 10
-3.38378784E+02
 20
1.03168138E+01
 40
3.00066109E+00
 50
1.82093467E+02
 51
2.40036862E+02
  0
ARC
  8
0
 62
7
 10
-2.48542316E+02
 20
1.03205578E+01
 40
3.00701074E+00
 50
3.00030102E+02
 51
3.57839568E+02
  0
ARC
  8
0
 62
7
 10
-3.31399273E+02
 20
-6.43897656E-01
 40
3.00353198E+00
 50
1.92892379E+00
 51
5.99985893E+01
  0
ARC
  8
0
 62
7
 10
-2.55521841E+02
 20
-6.40160516E-01
 40
2.99718323E+00
 50
1.19934018E+02
 51
1.78138469E+02
  0
CIRCLE
  8
0
 62
7
 10
-2.93461676E+02
 20
-2.14499804E+01
 40
1.55000000E+01
  0
CIRCLE
  8
0
 62
7
 10
-2.93461676E+02
 20
-2.14499804E+01
 40
1.99999847E+01
  0
CIRCLE
  8
0
 62
7
 10
-2.93461676E+02
 20
-2.14499804E+01
 40
1.90000000E+01
  0
CIRCLE
  8
0
 62
7
 10
-2.93461676E+02
 20
-2.14499804E+01
 40
1.50000000E+01
  0
CIRCLE
  8
0
 62
7
 10
-2.27461676E+02
 20
1.58850023E+02
 40
5.50000000E+00
  0
CIRCLE
  8
0
 62
7
 10
-2.27461676E+02
 20
1.35850023E+02
 40
5.50000000E+00
  0
ARC
  8
0
 62
7
 10
-1.89496131E+02
 20
5.84994004E+01
 40
1.00220085E+00
 50
1.82413285E+02
 51
2.69924994E+02
  0
ARC
  8
0
 62
7
 10
-1.53433216E+02
 20
5.84936225E+01
 40
9.96438847E-01
 50
2.70331951E+02
 51
3.57905241E+02
  0
ARC
  8
0
 62
7
 10
-1.71467443E+02
 20
1.64850877E+02
 40
5.55039720E+01
 50
2.59105833E+02
 51
2.80894167E+02
  0
ARC
  8
0
 62
7
 10
-2.25457443E+02
 20
1.92347200E+02
 40
4.50000199E+00
 50
2.70000000E+02
 51
9.00000002E+01
  0
ARC
  8
0
 62
7
 10
-2.29457443E+02
 20
1.92347200E+02
 40
4.50000199E+00
 50
9.00000002E+01
 51
2.70000000E+02
  0
ARC
  8
0
 62
7
 10
-2.29457443E+02
 20
1.02347200E+02
 40
4.50000199E+00
 50
9.00000002E+01
 51
2.70000000E+02
  0
ARC
  8
0
 62
7
 10
-2.25457443E+02
 20
1.02347200E+02
 40
4.50000199E+00
 50
2.70000000E+02
 51
9.00000002E+01
  0
LINE
  8
0
 62
7
 10
-1.56767443E+02
 20
1.23847200E+02
 11
-1.56767443E+02
 21
1.26222038E+02
  0
LINE
  8
0
 62
7
 10
-1.56767443E+02
 20
1.23847200E+02
 11
-1.55267443E+02
 21
1.22347200E+02
  0
LINE
  8
0
 62
7
 10
-1.51717443E+02
 20
1.73347200E+02
 11
-1.51717443E+02
 21
1.72347200E+02
  0
CIRCLE
  8
0
 62
4
 10
-1.54467443E+02
 20
1.47347200E+02
 40
2.12500000E+01
  0
CIRCLE
  8
0
 62
4
 10
-1.54467443E+02
 20
1.47347200E+02
 40
2.07500000E+01
  0
CIRCLE
  8
0
 62
4
 10
-1.54467443E+02
 20
1.47347200E+02
 40
1.75000000E+01
  0
CIRCLE
  8
0
 62
4
 10
-1.54477443E+02
 20
1.47347174E+02
 40
1.75000000E+01
  0
LINE
  8
0
 62
4
 10
-1.65877443E+02
 20
1.43647200E+02
 11
-1.55467443E+02
 21
1.46237200E+02
  0
LINE
  8
0
 62
4
 10
-1.65877443E+02
 20
1.43647200E+02
 11
-1.55927443E+02
 21
1.47657200E+02
  0
LINE
  8
0
 62
4
 10
-1.50217443E+02
 20
1.49967200E+02
 11
-1.48767443E+02
 21
1.49197200E+02
  0
LINE
  8
0
 62
4
 10
-1.48767443E+02
 20
1.49197200E+02
 11
-1.49487443E+02
 21
1.47727200E+02
  0
LINE
  8
0
 62
4
 10
-1.53057443E+02
 20
1.46837200E+02
 11
-1.49487443E+02
 21
1.47727200E+02
  0
ARC
  8
0
 62
4
 10
-1.54464546E+02
 20
1.47348370E+02
 40
1.49513989E+00
 50
5.59523004E+01
 51
1.68079377E+02
  0
ARC
  8
0
 62
4
 10
-1.54464298E+02
 20
1.47347985E+02
 40
1.49671065E+00
 50
2.27914952E+02
 51
3.40045629E+02
  0
LINE
  8
0
 62
4
 10
-1.53627443E+02
 20
1.48587200E+02
 11
-1.50217443E+02
 21
1.49967200E+02
  0
LINE
  8
0
 62
7
 10
-1.65907443E+02
 20
1.43737200E+02
 11
-1.63997443E+02
 21
1.44337200E+02
  0
CIRCLE
  8
0
 62
7
 10
-2.27461676E+02
 20
1.35850023E+02
 40
2.89829731E+00
  0
CIRCLE
  8
0
 62
7
 10
-2.27461676E+02
 20
1.35850023E+02
 40
3.96076870E+00
  0
CIRCLE
  8
0
 62
7
 10
-2.27461676E+02
 20
1.35850023E+02
 40
5.00000000E+00
  0
LINE
  8
0
 62
7
 10
-2.29971676E+02
 20
1.34410023E+02
 11
-2.27461676E+02
 21
1.32960023E+02
  0
LINE
  8
0
 62
7
 10
-2.27461676E+02
 20
1.38740023E+02
 11
-2.24951676E+02
 21
1.37290023E+02
  0
LINE
  8
0
 62
7
 10
-2.27461676E+02
 20
1.32960023E+02
 11
-2.24951676E+02
 21
1.34410023E+02
  0
LINE
  8
0
 62
7
 10
-2.29971676E+02
 20
1.37290023E+02
 11
-2.27461676E+02
 21
1.38740023E+02
  0
LINE
  8
0
 62
7
 10
-2.24951676E+02
 20
1.37290023E+02
 11
-2.24951676E+02
 21
1.34410023E+02
  0
LINE
  8
0
 62
7
 10
-2.29971676E+02
 20
1.37290023E+02
 11
-2.29971676E+02
 21
1.34410023E+02
  0
CIRCLE
  8
0
 62
7
 10
-2.27461676E+02
 20
1.58850023E+02
 40
2.89829731E+00
  0
CIRCLE
  8
0
 62
7
 10
-2.27461676E+02
 20
1.58850023E+02
 40
3.96076870E+00
  0
CIRCLE
  8
0
 62
7
 10
-2.27461676E+02
 20
1.58850023E+02
 40
5.00000000E+00
  0
LINE
  8
0
 62
7
 10
-2.29971676E+02
 20
1.57410023E+02
 11
-2.27461676E+02
 21
1.55960023E+02
  0
LINE
  8
0
 62
7
 10
-2.27461676E+02
 20
1.61740023E+02
 11
-2.24951676E+02
 21
1.60290023E+02
  0
LINE
  8
0
 62
7
 10
-2.27461676E+02
 20
1.55960023E+02
 11
-2.24951676E+02
 21
1.57410023E+02
  0
LINE
  8
0
 62
7
 10
-2.29971676E+02
 20
1.60290023E+02
 11
-2.27461676E+02
 21
1.61740023E+02
  0
LINE
  8
0
 62
7
 10
-2.24951676E+02
 20
1.60290023E+02
 11
-2.24951676E+02
 21
1.57410023E+02
  0
LINE
  8
0
 62
7
 10
-2.29971676E+02
 20
1.60290023E+02
 11
-2.29971676E+02
 21
1.57410023E+02
  0
LINE
  8
0
 62
7
 10
-2.41961676E+02
 20
1.21249986E+02
 11
-2.41961676E+02
 21
1.13749986E+02
  0
LINE
  8
0
 62
7
 10
-2.41961676E+02
 20
1.21249986E+02
 11
-2.42831676E+02
 21
1.21749986E+02
  0
LINE
  8
0
 62
7
 10
-2.42831676E+02
 20
1.21749986E+02
 11
-2.54091676E+02
 21
1.21749986E+02
  0
LINE
  8
0
 62
7
 10
-2.41961676E+02
 20
1.21249986E+02
 11
-2.54961676E+02
 21
1.21249986E+02
  0
LINE
  8
0
 62
7
 10
-2.54961676E+02
 20
1.21249986E+02
 11
-2.54091676E+02
 21
1.21749986E+02
  0
LINE
  8
0
 62
7
 10
-2.54961676E+02
 20
1.21249986E+02
 11
-2.54961676E+02
 21
1.13749986E+02
  0
LINE
  8
0
 62
7
 10
-3.31961676E+02
 20
1.21249986E+02
 11
-3.31961676E+02
 21
1.13749986E+02
  0
LINE
  8
0
 62
7
 10
-3.31961676E+02
 20
1.21249986E+02
 11
-3.32831676E+02
 21
1.21749986E+02
  0
LINE
  8
0
 62
7
 10
-3.32831676E+02
 20
1.21749986E+02
 11
-3.44091676E+02
 21
1.21749986E+02
  0
LINE
  8
0
 62
7
 10
-3.31961676E+02
 20
1.21249986E+02
 11
-3.44961676E+02
 21
1.21249986E+02
  0
LINE
  8
0
 62
7
 10
-3.44961676E+02
 20
1.21249986E+02
 11
-3.44091676E+02
 21
1.21749986E+02
  0
LINE
  8
0
 62
7
 10
-3.44961676E+02
 20
1.21249986E+02
 11
-3.44961676E+02
 21
1.13749986E+02
  0
ARC
  8
0
 62
7
 10
-2.88632017E+02
 20
-3.36731504E+01
 40
1.51004724E+00
 50
4.74913752E+01
 51
1.94842970E+02
  0
ARC
  8
0
 62
7
 10
-2.93461676E+02
 20
-2.21999804E+01
 40
1.34437532E+01
 50
3.09052512E+02
 51
2.30947488E+02
  0
ARC
  8
0
 62
7
 10
-3.00667773E+02
 20
-3.10903114E+01
 40
1.99973131E+00
 50
2.30799466E+02
 51
3.12698427E+02
  0
ARC
  8
0
 62
7
 10
-2.98291336E+02
 20
-3.36731504E+01
 40
1.51004724E+00
 50
3.45157030E+02
 51
1.32508625E+02
  0
ARC
  8
0
 62
7
 10
-2.86255579E+02
 20
-3.10903114E+01
 40
1.99973131E+00
 50
2.27301573E+02
 51
3.09200534E+02
  0
ARC
  8
0
 62
7
 10
-2.93461676E+02
 20
-2.14499804E+01
 40
1.49908239E+01
 50
2.54999647E+02
 51
2.85000353E+02
  0
LINE
  8
0
 62
7
 10
-2.96831676E+02
 20
-3.40599804E+01
 11
-2.97341676E+02
 21
-3.59299804E+01
  0
LINE
  8
0
 62
7
 10
-2.90091676E+02
 20
-3.40599804E+01
 11
-2.89581676E+02
 21
-3.59299804E+01
  0
LINE
  8
0
 62
4
 10
-1.23574428E+01
 20
-5.96527996E+01
 11
-1.23574428E+01
 21
-7.16527996E+01
  0
LINE
  8
0
 62
4
 10
3.14255717E+00
 20
-5.96527996E+01
 11
3.14255717E+00
 21
-7.16527996E+01
  0
LINE
  8
0
  6
CENTER
 62
2
 10
-4.60744283E+00
 20
1.88437200E+02
 11
-4.60744283E+00
 21
-7.76527996E+01
  0
LINE
  8
0
  6
CENTER
 62
2
 10
-7.71074428E+01
 20
1.47437200E+02
 11
7.73925572E+01
 21
1.47437200E+02
  0
LINE
  8
0
 62
7
 10
-5.61074428E+01
 20
1.21337200E+02
 11
-5.52374428E+01
 21
1.21837200E+02
  0
LINE
  8
0
 62
7
 10
-5.52374428E+01
 20
1.21837200E+02
 11
-4.39774428E+01
 21
1.21837200E+02
  0
ARC
  8
0
 62
7
 10
-5.15357304E+01
 20
1.24426056E+02
 40
1.98888967E+00
 50
2.69662644E+02
 51
3.58592442E+02
  0
ARC
  8
0
 62
7
 10
-5.76002283E+01
 20
1.20429988E+02
 40
2.00722555E+00
 50
9.02058823E+01
 51
1.79794118E+02
  0
LINE
  8
0
 62
7
 10
-5.76074408E+01
 20
1.22437200E+02
 11
-3.36074428E+01
 21
1.22437200E+02
  0
LINE
  8
0
 62
7
 10
-4.74527762E+01
 20
1.68437200E+02
 11
-4.64074428E+01
 21
1.69417200E+02
  0
LINE
  8
0
 62
7
 10
-4.62622282E+01
 20
1.67917200E+02
 11
-2.96074428E+01
 21
1.67917200E+02
  0
LINE
  8
0
 62
7
 10
-4.95474428E+01
 20
1.24377200E+02
 11
-4.94755273E+01
 21
1.26437200E+02
  0
LINE
  8
0
 62
7
 10
-4.64074428E+01
 20
1.69417200E+02
 11
-2.96074428E+01
 21
1.69417200E+02
  0
ARC
  8
0
 62
4
 10
-4.76074413E+01
 20
1.66437202E+02
 40
1.99999847E+00
 50
3.59999956E+02
 51
9.00000002E+01
  0
ARC
  8
0
 62
4
 10
-4.76074413E+01
 20
1.28437199E+02
 40
1.99999847E+00
 50
2.70000000E+02
 51
4.37132276E-05
  0
LINE
  8
0
 62
4
 10
-7.11074428E+01
 20
1.68687200E+02
 11
-7.11074428E+01
 21
1.26187200E+02
  0
LINE
  8
0
 62
4
 10
-7.21074428E+01
 20
1.27187200E+02
 11
-7.11074428E+01
 21
1.26187200E+02
  0
LINE
  8
0
 62
4
 10
-7.21074428E+01
 20
1.67687200E+02
 11
-7.11074428E+01
 21
1.68687200E+02
  0
LINE
  8
0
 62
6
 10
-4.56074428E+01
 20
1.54437200E+02
 11
-3.81074428E+01
 21
1.40437200E+02
  0
LINE
  8
0
 62
6
 10
-4.56074428E+01
 20
1.40437200E+02
 11
-3.81074428E+01
 21
1.54437200E+02
  0
LINE
  8
0
 62
4
 10
-3.61074428E+01
 20
1.54137200E+02
 11
-3.61074428E+01
 21
1.40737200E+02
  0
LINE
  8
0
 62
4
 10
-4.56074428E+01
 20
1.54437200E+02
 11
-3.81074428E+01
 21
1.54437200E+02
  0
LINE
  8
0
 62
4
 10
-4.56074428E+01
 20
1.40437200E+02
 11
-3.81074428E+01
 21
1.40437200E+02
  0
LINE
  8
0
 62
4
 10
-6.91074428E+01
 20
1.26437200E+02
 11
-4.76074428E+01
 21
1.26437200E+02
  0
LINE
  8
0
 62
4
 10
-6.91074428E+01
 20
1.68437200E+02
 11
-4.76074428E+01
 21
1.68437200E+02
  0
LINE
  8
0
 62
4
 10
-4.56074428E+01
 20
1.66437200E+02
 11
-4.56074428E+01
 21
1.28437200E+02
  0
LINE
  8
0
 62
4
 10
-6.91074428E+01
 20
1.68687200E+02
 11
-6.91074428E+01
 21
1.26187200E+02
  0
LINE
  8
0
 62
4
 10
-7.11074428E+01
 20
1.26187200E+02
 11
-6.91074428E+01
 21
1.26187200E+02
  0
LINE
  8
0
 62
4
 10
-7.11074428E+01
 20
1.68687200E+02
 11
-6.91074428E+01
 21
1.68687200E+02
  0
LINE
  8
0
 62
4
 10
-7.21074428E+01
 20
1.67687200E+02
 11
-7.21074428E+01
 21
1.27187200E+02
  0
ARC
  8
0
 62
7
 10
-4.60462092E+00
 20
1.50437200E+02
 40
6.99817620E+00
 50
3.08194241E+02
 51
5.18057593E+01
  0
ARC
  8
0
 62
7
 10
-5.75347186E+01
 20
9.54387540E+01
 40
1.99844820E+00
 50
1.96274975E+00
 51
9.00781052E+01
  0
ARC
  8
0
 62
7
 10
-5.76074454E+01
 20
1.11837203E+02
 40
1.99999740E+00
 50
9.00000002E+01
 51
1.80000074E+02
  0
ARC
  8
0
 62
7
 10
-5.76064191E+01
 20
1.20433374E+02
 40
2.00102737E+00
 50
1.49890412E+02
 51
1.79890438E+02
  0
ARC
  8
0
 62
7
 10
-4.01074408E+01
 20
1.20437198E+02
 40
2.00000199E+00
 50
9.00000002E+01
 51
1.79999943E+02
  0
CIRCLE
  8
0
 62
7
 10
3.03953794E+01
 20
1.47440023E+02
 40
2.30940056E+00
  0
CIRCLE
  8
0
 62
7
 10
3.03953794E+01
 20
1.47440023E+02
 40
3.73038483E+00
  0
CIRCLE
  8
0
 62
7
 10
3.03953794E+01
 20
1.47440023E+02
 40
4.25000000E+00
  0
ARC
  8
0
 62
7
 10
6.18999865E+01
 20
1.12979218E+02
 40
4.99257707E+00
 50
9.16109805E-02
 51
4.51250669E+01
  0
ARC
  8
0
 62
7
 10
5.39345745E+01
 20
1.20944630E+02
 40
4.99257707E+00
 50
4.48749331E+01
 51
8.99083888E+01
  0
ARC
  8
0
 62
7
 10
6.03995141E+01
 20
1.12359021E+02
 40
4.99304978E+00
 50
9.38596937E-02
 51
4.51228182E+01
  0
ARC
  8
0
 62
7
 10
5.33143778E+01
 20
1.19444157E+02
 40
4.99304978E+00
 50
4.48771818E+01
 51
8.99061405E+01
  0
ARC
  8
0
 62
7
 10
5.39411075E+01
 20
1.73938137E+02
 40
5.00093686E+00
 50
2.70016609E+02
 51
3.14923143E+02
  0
ARC
  8
0
 62
7
 10
6.18944324E+01
 20
1.81887481E+02
 40
4.99812479E+00
 50
3.14901466E+02
 51
3.59996783E+02
  0
ARC
  8
0
 62
7
 10
6.03939579E+01
 20
1.82507678E+02
 40
4.99859931E+00
 50
3.14903725E+02
 51
3.59994525E+02
  0
ARC
  8
0
 62
7
 10
5.33209124E+01
 20
1.75438609E+02
 40
5.00140853E+00
 50
2.70018842E+02
 51
3.14920910E+02
  0
CIRCLE
  8
0
 62
7
 10
3.03953794E+01
 20
1.47440023E+02
 40
4.75000000E+00
  0
ARC
  8
0
 62
7
 10
1.34249144E+01
 20
5.85855782E+01
 40
9.98380650E-01
 50
2.69864721E+02
 51
3.57797001E+02
  0
ARC
  8
0
 62
7
 10
-2.26372003E+01
 20
5.85882317E+01
 40
1.00108371E+00
 50
1.82349034E+02
 51
2.69413774E+02
  0
ARC
  8
0
 62
7
 10
-4.60462021E+00
 20
1.50437200E+02
 40
7.00166779E+00
 50
1.28230543E+02
 51
2.31769458E+02
  0
CIRCLE
  8
0
 62
7
 10
-4.60462056E+00
 20
1.47440023E+02
 40
1.20585003E+01
  0
CIRCLE
  8
0
 62
2
 10
-4.60462056E+00
 20
1.47440023E+02
 40
1.32205000E+01
  0
ARC
  8
0
 62
7
 10
-3.78433930E+01
 20
-4.19534530E+01
 40
5.00669757E-01
 50
4.13320733E+01
 51
9.04634577E+01
  0
ARC
  8
0
 62
7
 10
-4.25407576E+01
 20
-6.49194081E-01
 40
2.99520503E+00
 50
2.03566547E+00
 51
6.00946640E+01
  0
ARC
  8
0
 62
7
 10
-4.63383267E+01
 20
1.54368977E+00
 40
2.99648953E+00
 50
2.70000000E+02
 51
5.99417147E+01
  0
ARC
  8
0
 62
7
 10
2.59683765E+01
 20
-3.96862912E+01
 40
2.99573558E+00
 50
2.99918605E+02
 51
3.58153882E+02
  0
ARC
  8
0
 62
7
 10
3.33298856E+01
 20
-6.51611945E-01
 40
2.99930290E+00
 50
1.19948772E+02
 51
1.77920899E+02
  0
ARC
  8
0
 62
7
 10
-4.95202831E+01
 20
1.03114962E+01
 40
3.00896779E+00
 50
1.81986365E+02
 51
2.39941148E+02
  0
ARC
  8
0
 62
7
 10
4.03042575E+01
 20
1.03001670E+01
 40
2.99974064E+00
 50
3.00186085E+02
 51
3.58224030E+02
  0
ARC
  8
0
 62
7
 10
4.83224332E+01
 20
9.54360594E+01
 40
2.00114098E+00
 50
9.00000002E+01
 51
1.77962694E+02
  0
ARC
  8
0
 62
7
 10
1.07696869E+01
 20
-4.84568110E+01
 40
2.99601631E+00
 50
2.70246131E+02
 51
3.00328738E+02
  0
ARC
  8
0
 62
7
 10
-3.51791556E+01
 20
-3.96838273E+01
 40
2.99992027E+00
 50
1.81890625E+02
 51
2.40036888E+02
  0
ARC
  8
0
 62
7
 10
-1.99842026E+01
 20
-4.84554574E+01
 40
2.99737151E+00
 50
2.39678223E+02
 51
2.69746908E+02
  0
CIRCLE
  8
0
 62
7
 10
-4.60462056E+00
 20
1.47440023E+02
 40
2.10000000E+01
  0
ARC
  8
0
 62
7
 10
4.83953764E+01
 20
1.11840020E+02
 40
1.99718278E+00
 50
3.59919121E+02
 51
9.00808783E+01
  0
ARC
  8
0
 62
7
 10
3.08953794E+01
 20
1.20440023E+02
 40
1.99717973E+00
 50
3.59919034E+02
 51
9.00809660E+01
  0
ARC
  8
0
 62
7
 10
4.83953794E+01
 20
1.20440023E+02
 40
1.99717973E+00
 50
3.59919034E+02
 51
9.00809660E+01
  0
ARC
  8
0
 62
7
 10
3.33953764E+01
 20
1.14340020E+02
 40
5.02827117E-01
 50
1.80321243E+02
 51
2.69678756E+02
  0
ARC
  8
0
 62
7
 10
-4.26074477E+01
 20
1.14337205E+02
 40
5.00004896E-01
 50
2.70000000E+02
 51
3.59999439E+02
  0
ARC
  8
0
 62
7
 10
4.23261585E+01
 20
1.24440309E+02
 40
2.00311178E+00
 50
1.95138189E+02
 51
2.69896988E+02
  0
LINE
  8
0
 62
7
 10
4.43925572E+01
 20
1.68937200E+02
 11
5.39425572E+01
 21
1.68937200E+02
  0
LINE
  8
0
 62
7
 10
4.43925572E+01
 20
1.25937200E+02
 11
5.39425572E+01
 21
1.25937200E+02
  0
LINE
  8
0
 62
7
 10
3.63925572E+01
 20
1.70437200E+02
 11
3.63925572E+01
 21
1.24437200E+02
  0
LINE
  8
0
 62
7
 10
4.43925572E+01
 20
1.70437200E+02
 11
4.43925572E+01
 21
1.24437200E+02
  0
LINE
  8
0
 62
7
 10
-4.46074428E+01
 20
1.67877200E+02
 11
-3.41674428E+01
 21
1.67877200E+02
  0
LINE
  8
0
 62
7
 10
-3.26074428E+01
 20
1.69437200E+02
 11
-4.47074428E+01
 21
1.69437200E+02
  0
LINE
  8
0
 62
6
 10
-3.61074428E+01
 20
1.41607200E+02
 11
-3.76674428E+01
 21
1.40707200E+02
  0
LINE
  8
0
 62
4
 10
-3.21074428E+01
 20
1.40857200E+02
 11
-3.81074428E+01
 21
1.40697200E+02
  0
LINE
  8
0
 62
6
 10
-3.21074428E+01
 20
1.41717200E+02
 11
-3.61074428E+01
 21
1.41607200E+02
  0
LINE
  8
0
 62
6
 10
-3.61074428E+01
 20
1.53267200E+02
 11
-3.76674428E+01
 21
1.54167200E+02
  0
LINE
  8
0
 62
6
 10
-3.21074428E+01
 20
1.53157200E+02
 11
-3.61074428E+01
 21
1.53267200E+02
  0
LINE
  8
0
 62
4
 10
-3.21074428E+01
 20
1.54017200E+02
 11
-3.81074428E+01
 21
1.54177200E+02
  0
LINE
  8
0
 62
7
 10
-8.93744283E+00
 20
1.55937200E+02
 11
-2.77442829E-01
 21
1.55937200E+02
  0
LINE
  8
0
 62
7
 10
-8.93744283E+00
 20
1.44937200E+02
 11
-2.77442829E-01
 21
1.44937200E+02
  0
LINE
  8
0
 62
7
 10
4.68925572E+01
 20
1.21337200E+02
 11
4.68925572E+01
 21
1.13837200E+02
  0
LINE
  8
0
 62
7
 10
4.68925572E+01
 20
1.21337200E+02
 11
4.60225572E+01
 21
1.21837200E+02
  0
LINE
  8
0
 62
7
 10
4.60225572E+01
 20
1.21837200E+02
 11
3.47525572E+01
 21
1.21837200E+02
  0
LINE
  8
0
 62
7
 10
4.68925572E+01
 20
1.21337200E+02
 11
3.38925572E+01
 21
1.21337200E+02
  0
LINE
  8
0
 62
7
 10
3.38925572E+01
 20
1.21337200E+02
 11
3.47525572E+01
 21
1.21837200E+02
  0
LINE
  8
0
 62
7
 10
3.38925572E+01
 20
1.21337200E+02
 11
3.38925572E+01
 21
1.13837200E+02
  0
LINE
  8
0
 62
7
 10
-4.31074428E+01
 20
1.21337200E+02
 11
-4.31074428E+01
 21
1.13837200E+02
  0
LINE
  8
0
 62
7
 10
-4.31074428E+01
 20
1.21337200E+02
 11
-4.39774428E+01
 21
1.21837200E+02
  0
LINE
  8
0
 62
7
 10
-4.31074428E+01
 20
1.21337200E+02
 11
-5.61074428E+01
 21
1.21337200E+02
  0
LINE
  8
0
 62
7
 10
-5.61074428E+01
 20
1.21337200E+02
 11
-5.59374428E+01
 21
1.21437200E+02
  0
LINE
  8
0
 62
7
 10
-5.61074428E+01
 20
1.21337200E+02
 11
-5.61074428E+01
 21
1.13837200E+02
  0
LINE
  8
0
 62
7
 10
-3.71074428E+01
 20
1.40727200E+02
 11
-3.71074428E+01
 21
1.29937200E+02
  0
LINE
  8
0
 62
7
 10
-5.55374428E+01
 20
9.55072004E+01
 11
-5.25274428E+01
 21
1.02072004E+01
  0
LINE
  8
0
 62
7
 10
-2.32774428E+01
 20
9.74372004E+01
 11
-5.96074428E+01
 21
9.74372004E+01
  0
LINE
  8
0
 62
7
 10
-5.76074428E+01
 20
1.13837200E+02
 11
-4.26074428E+01
 21
1.13837200E+02
  0
LINE
  8
0
 62
7
 10
-5.96074428E+01
 20
1.20437200E+02
 11
-5.96074428E+01
 21
9.74372004E+01
  0
LINE
  8
0
  6
CENTER
 62
2
 10
-4.96074428E+01
 20
1.26437200E+02
 11
-4.96074428E+01
 21
1.09837200E+02
  0
LINE
  8
0
 62
7
 10
-4.21074428E+01
 20
1.20437200E+02
 11
-4.21074428E+01
 21
1.14337200E+02
  0
LINE
  8
0
 62
7
 10
-3.71074428E+01
 20
1.29937200E+02
 11
-3.36074428E+01
 21
1.26437200E+02
  0
LINE
  8
0
 62
7
 10
-3.71074428E+01
 20
1.64937200E+02
 11
-3.71074428E+01
 21
1.54147200E+02
  0
LINE
  8
0
 62
7
 10
-3.71074428E+01
 20
1.64937200E+02
 11
-3.16074428E+01
 21
1.70437200E+02
  0
LINE
  8
0
 62
7
 10
-3.16074428E+01
 20
1.70437200E+02
 11
-3.16074428E+01
 21
1.56937200E+02
  0
LINE
  8
0
 62
7
 10
-3.16074428E+01
 20
1.70437200E+02
 11
-2.96074428E+01
 21
1.70437200E+02
  0
LINE
  8
0
 62
7
 10
2.83925572E+01
 20
1.46277200E+02
 11
3.03925572E+01
 21
1.45127200E+02
  0
LINE
  8
0
 62
7
 10
3.03925572E+01
 20
1.49747200E+02
 11
3.23925572E+01
 21
1.48587200E+02
  0
LINE
  8
0
 62
7
 10
3.03925572E+01
 20
1.45127200E+02
 11
3.23925572E+01
 21
1.46277200E+02
  0
LINE
  8
0
 62
7
 10
2.83925572E+01
 20
1.48587200E+02
 11
3.03925572E+01
 21
1.49747200E+02
  0
LINE
  8
0
 62
7
 10
3.23925572E+01
 20
1.48587200E+02
 11
3.23925572E+01
 21
1.46277200E+02
  0
LINE
  8
0
 62
7
 10
2.83925572E+01
 20
1.48587200E+02
 11
2.83925572E+01
 21
1.46277200E+02
  0
LINE
  8
0
  6
CENTER
 62
2
 10
6.13925572E+01
 20
1.92437200E+02
 11
7.63925572E+01
 21
1.92437200E+02
  0
LINE
  8
0
  6
CENTER
 62
2
 10
6.13925572E+01
 20
1.02437200E+02
 11
7.63925572E+01
 21
1.02437200E+02
  0
LINE
  8
0
 62
7
 10
6.53925572E+01
 20
1.97817200E+02
 11
6.68925572E+01
 21
1.98437200E+02
  0
LINE
  8
0
 62
7
 10
6.53925572E+01
 20
9.70572004E+01
 11
6.68925572E+01
 21
9.64372004E+01
  0
LINE
  8
0
 62
7
 10
6.68925572E+01
 20
9.64372004E+01
 11
7.23925572E+01
 21
9.64372004E+01
  0
LINE
  8
0
 62
7
 10
6.68925572E+01
 20
1.98437200E+02
 11
7.23925572E+01
 21
1.98437200E+02
  0
LINE
  8
0
 62
7
 10
5.74725572E+01
 20
1.70397200E+02
 11
6.54225572E+01
 21
1.78347200E+02
  0
LINE
  8
0
 62
7
 10
5.74725572E+01
 20
1.24467200E+02
 11
6.54225572E+01
 21
1.16517200E+02
  0
LINE
  8
0
 62
7
 10
2.43925572E+01
 20
1.25937200E+02
 11
3.63925572E+01
 21
1.25937200E+02
  0
LINE
  8
0
 62
7
 10
2.03925572E+01
 20
1.68937200E+02
 11
3.63925572E+01
 21
1.68937200E+02
  0
LINE
  8
0
 62
7
 10
6.68925572E+01
 20
1.12987200E+02
 11
6.68925572E+01
 21
9.24372004E+01
  0
LINE
  8
0
 62
7
 10
6.68925572E+01
 20
2.02437200E+02
 11
6.68925572E+01
 21
1.81887200E+02
  0
LINE
  8
0
 62
7
 10
5.68525572E+01
 20
1.22967200E+02
 11
6.39225572E+01
 21
1.15897200E+02
  0
LINE
  8
0
 62
7
 10
5.68525572E+01
 20
1.71897200E+02
 11
6.39225572E+01
 21
1.78967200E+02
  0
LINE
  8
0
 62
7
 10
6.53925572E+01
 20
1.12367200E+02
 11
6.53925572E+01
 21
9.39372004E+01
  0
LINE
  8
0
 62
7
 10
6.68925572E+01
 20
2.02437200E+02
 11
6.53925572E+01
 21
2.00937200E+02
  0
LINE
  8
0
 62
7
 10
6.68925572E+01
 20
9.24372004E+01
 11
6.53925572E+01
 21
9.39372004E+01
  0
LINE
  8
0
 62
7
 10
6.53925572E+01
 20
2.00937200E+02
 11
6.53925572E+01
 21
1.82507200E+02
  0
LINE
  8
0
 62
7
 10
6.68925572E+01
 20
9.24372004E+01
 11
7.23925572E+01
 21
9.24372004E+01
  0
LINE
  8
0
 62
7
 10
6.68925572E+01
 20
2.02437200E+02
 11
7.23925572E+01
 21
2.02437200E+02
  0
LINE
  8
0
  6
CENTER
 62
2
 10
3.03925572E+01
 20
1.54437200E+02
 11
3.03925572E+01
 21
1.40437200E+02
  0
LINE
  8
0
 62
7
 10
2.03925572E+01
 20
1.70437200E+02
 11
5.33225572E+01
 21
1.70437200E+02
  0
LINE
  8
0
 62
7
 10
2.43925572E+01
 20
1.24437200E+02
 11
5.33225572E+01
 21
1.24437200E+02
  0
LINE
  8
0
 62
7
 10
7.23925572E+01
 20
2.02437200E+02
 11
7.23925572E+01
 21
9.24372004E+01
  0
LINE
  8
0
 62
7
 10
2.43925572E+01
 20
1.22437200E+02
 11
4.83925572E+01
 21
1.22437200E+02
  0
LINE
  8
0
 62
4
 10
-3.81074428E+01
 20
1.54437200E+02
 11
-3.81074428E+01
 21
1.40437200E+02
  0
LINE
  8
0
  6
CENTER
 62
2
 10
2.28925572E+01
 20
1.40857200E+02
 11
2.38625572E+01
 21
1.40827200E+02
  0
LINE
  8
0
  6
CENTER
 62
2
 10
2.28925572E+01
 20
1.41717200E+02
 11
2.43525572E+01
 21
1.41677200E+02
  0
LINE
  8
0
  6
CENTER
 62
2
 10
2.38625572E+01
 20
1.40827200E+02
 11
2.45625572E+01
 21
1.42047200E+02
  0
LINE
  8
0
  6
CENTER
 62
2
 10
2.38625572E+01
 20
1.54037200E+02
 11
2.45625572E+01
 21
1.52827200E+02
  0
LINE
  8
0
  6
CENTER
 62
2
 10
2.28925572E+01
 20
1.54017200E+02
 11
2.38625572E+01
 21
1.54037200E+02
  0
LINE
  8
0
  6
CENTER
 62
2
 10
2.28925572E+01
 20
1.53157200E+02
 11
2.43525572E+01
 21
1.53197200E+02
  0
LINE
  8
0
  6
CENTER
 62
2
 10
2.38625572E+01
 20
1.54037200E+02
 11
2.38625572E+01
 21
1.40827200E+02
  0
LINE
  8
0
  6
CENTER
 62
2
 10
2.45625572E+01
 20
1.52827200E+02
 11
2.45625572E+01
 21
1.42047200E+02
  0
LINE
  8
0
 62
7
 10
-1.63774428E+01
 20
1.07437200E+02
 11
-1.63774428E+01
 21
8.95872004E+01
  0
LINE
  8
0
 62
7
 10
-1.05274428E+01
 20
1.07437200E+02
 11
-1.05274428E+01
 21
8.95872004E+01
  0
LINE
  8
0
 62
7
 10
7.15255717E+00
 20
1.07437200E+02
 11
7.15255717E+00
 21
8.95872004E+01
  0
LINE
  8
0
 62
7
 10
1.30255717E+00
 20
1.07437200E+02
 11
1.30255717E+00
 21
8.95872004E+01
  0
LINE
  8
0
 62
7
 10
1.44425572E+01
 20
1.07437200E+02
 11
1.38325572E+01
 21
8.95872004E+01
  0
LINE
  8
0
 62
7
 10
-2.36574428E+01
 20
1.07437200E+02
 11
-2.30474428E+01
 21
8.95872004E+01
  0
LINE
  8
0
 62
7
 10
-2.71074428E+01
 20
1.20437200E+02
 11
-2.71074428E+01
 21
1.19437200E+02
  0
LINE
  8
0
 62
7
 10
1.78925572E+01
 20
1.20437200E+02
 11
1.78925572E+01
 21
1.19437200E+02
  0
LINE
  8
0
 62
7
 10
1.68925572E+01
 20
1.09437200E+02
 11
1.68925572E+01
 21
1.08437200E+02
  0
LINE
  8
0
 62
7
 10
-2.61074428E+01
 20
1.09437200E+02
 11
-2.61074428E+01
 21
1.08437200E+02
  0
LINE
  8
0
 62
7
 10
1.68925572E+01
 20
1.08437200E+02
 11
1.51625572E+01
 21
1.07437200E+02
  0
LINE
  8
0
 62
7
 10
-2.61074428E+01
 20
1.08437200E+02
 11
-2.43774428E+01
 21
1.07437200E+02
  0
LINE
  8
0
 62
2
 10
1.68925572E+01
 20
1.20437200E+02
 11
1.68925572E+01
 21
1.19437200E+02
  0
LINE
  8
0
 62
2
 10
-2.61074428E+01
 20
1.20437200E+02
 11
-2.61074428E+01
 21
1.19437200E+02
  0
LINE
  8
0
 62
7
 10
-2.61074428E+01
 20
1.08437200E+02
 11
1.68925572E+01
 21
1.08437200E+02
  0
LINE
  8
0
 62
7
 10
1.70925572E+01
 20
1.16437200E+02
 11
1.81325572E+01
 21
1.17437200E+02
  0
LINE
  8
0
 62
7
 10
1.25625572E+01
 20
1.09437200E+02
 11
1.22825572E+01
 21
1.10437200E+02
  0
LINE
  8
0
 62
7
 10
1.25625572E+01
 20
1.16437200E+02
 11
1.22825572E+01
 21
1.17437200E+02
  0
LINE
  8
0
 62
7
 10
6.50255717E+00
 20
1.17437200E+02
 11
5.73255717E+00
 21
1.16437200E+02
  0
LINE
  8
0
 62
7
 10
6.50255717E+00
 20
1.10437200E+02
 11
5.73255717E+00
 21
1.09437200E+02
  0
LINE
  8
0
 62
7
 10
-1.10744283E+00
 20
1.10437200E+02
 11
-8.27442829E-01
 21
1.09437200E+02
  0
LINE
  8
0
 62
7
 10
-8.27442829E-01
 20
1.16437200E+02
 11
-1.10744283E+00
 21
1.17437200E+02
  0
LINE
  8
0
 62
7
 10
-8.10744283E+00
 20
1.10437200E+02
 11
-8.38744283E+00
 21
1.09437200E+02
  0
LINE
  8
0
 62
7
 10
-8.38744283E+00
 20
1.16437200E+02
 11
-8.10744283E+00
 21
1.17437200E+02
  0
LINE
  8
0
 62
7
 10
-1.57174428E+01
 20
1.17437200E+02
 11
-1.49574428E+01
 21
1.16437200E+02
  0
LINE
  8
0
 62
7
 10
-1.57174428E+01
 20
1.10437200E+02
 11
-1.49574428E+01
 21
1.09437200E+02
  0
LINE
  8
0
 62
7
 10
-2.17774428E+01
 20
1.09437200E+02
 11
-2.14974428E+01
 21
1.10437200E+02
  0
LINE
  8
0
 62
7
 10
-2.17774428E+01
 20
1.16437200E+02
 11
-2.14974428E+01
 21
1.17437200E+02
  0
LINE
  8
0
 62
7
 10
-2.63074428E+01
 20
1.16437200E+02
 11
-2.73574428E+01
 21
1.17437200E+02
  0
LINE
  8
0
 62
7
 10
-2.73574428E+01
 20
1.10437200E+02
 11
-2.63074428E+01
 21
1.09437200E+02
  0
LINE
  8
0
 62
7
 10
2.26325572E+01
 20
1.16437200E+02
 11
2.36725572E+01
 21
1.17437200E+02
  0
LINE
  8
0
 62
7
 10
2.26325572E+01
 20
1.09437200E+02
 11
2.36725572E+01
 21
1.10437200E+02
  0
LINE
  8
0
 62
7
 10
-3.28974428E+01
 20
1.17437200E+02
 11
-3.18474428E+01
 21
1.16437200E+02
  0
LINE
  8
0
 62
7
 10
-3.28974428E+01
 20
1.10437200E+02
 11
-3.18474428E+01
 21
1.09437200E+02
  0
LINE
  8
0
 62
7
 10
-3.28974428E+01
 20
1.17437200E+02
 11
-3.28974428E+01
 21
1.10437200E+02
  0
LINE
  8
0
 62
7
 10
-3.18474428E+01
 20
1.16437200E+02
 11
-3.18474428E+01
 21
1.09437200E+02
  0
LINE
  8
0
 62
7
 10
2.36725572E+01
 20
1.17437200E+02
 11
2.36725572E+01
 21
1.10437200E+02
  0
LINE
  8
0
 62
7
 10
2.26325572E+01
 20
1.16437200E+02
 11
2.26325572E+01
 21
1.09437200E+02
  0
LINE
  8
0
 62
7
 10
2.16325572E+01
 20
1.10437200E+02
 11
2.08725572E+01
 21
1.09437200E+02
  0
LINE
  8
0
 62
7
 10
-3.08574428E+01
 20
1.10437200E+02
 11
-3.00874428E+01
 21
1.09437200E+02
  0
LINE
  8
0
 62
7
 10
2.36725572E+01
 20
1.10437200E+02
 11
2.38925572E+01
 21
1.10437200E+02
  0
LINE
  8
0
 62
7
 10
-3.08574428E+01
 20
1.10437200E+02
 11
-2.73574428E+01
 21
1.10437200E+02
  0
LINE
  8
0
 62
7
 10
-3.18474428E+01
 20
1.16437200E+02
 11
-3.08574428E+01
 21
1.16437200E+02
  0
LINE
  8
0
 62
7
 10
-3.28974428E+01
 20
1.17437200E+02
 11
-3.08574428E+01
 21
1.17437200E+02
  0
LINE
  8
0
 62
7
 10
-3.08574428E+01
 20
1.17437200E+02
 11
-3.08574428E+01
 21
1.10437200E+02
  0
LINE
  8
0
 62
7
 10
2.16325572E+01
 20
1.17437200E+02
 11
2.16325572E+01
 21
1.10437200E+02
  0
LINE
  8
0
 62
7
 10
2.16325572E+01
 20
1.16437200E+02
 11
2.26325572E+01
 21
1.16437200E+02
  0
LINE
  8
0
 62
7
 10
2.16325572E+01
 20
1.17437200E+02
 11
2.36725572E+01
 21
1.17437200E+02
  0
LINE
  8
0
 62
7
 10
-2.63074428E+01
 20
1.16437200E+02
 11
-2.17774428E+01
 21
1.16437200E+02
  0
LINE
  8
0
 62
7
 10
-2.73574428E+01
 20
1.17437200E+02
 11
-2.14974428E+01
 21
1.17437200E+02
  0
LINE
  8
0
 62
7
 10
-2.63074428E+01
 20
1.16437200E+02
 11
-2.63074428E+01
 21
1.09437200E+02
  0
LINE
  8
0
 62
7
 10
-2.73574428E+01
 20
1.17437200E+02
 11
-2.73574428E+01
 21
1.10437200E+02
  0
LINE
  8
0
 62
7
 10
1.81325572E+01
 20
1.17437200E+02
 11
1.81325572E+01
 21
1.10437200E+02
  0
LINE
  8
0
 62
7
 10
1.70925572E+01
 20
1.16437200E+02
 11
1.70925572E+01
 21
1.09437200E+02
  0
LINE
  8
0
 62
7
 10
1.81325572E+01
 20
1.10437200E+02
 11
2.16325572E+01
 21
1.10437200E+02
  0
LINE
  8
0
 62
7
 10
-2.14974428E+01
 20
1.10437200E+02
 11
-1.57174428E+01
 21
1.10437200E+02
  0
LINE
  8
0
 62
7
 10
-2.14974428E+01
 20
1.17437200E+02
 11
-2.14974428E+01
 21
1.10437200E+02
  0
LINE
  8
0
 62
7
 10
-2.17774428E+01
 20
1.16437200E+02
 11
-2.17774428E+01
 21
1.09437200E+02
  0
LINE
  8
0
 62
7
 10
1.22825572E+01
 20
1.17437200E+02
 11
1.22825572E+01
 21
1.10437200E+02
  0
LINE
  8
0
 62
7
 10
1.25625572E+01
 20
1.16437200E+02
 11
1.25625572E+01
 21
1.09437200E+02
  0
LINE
  8
0
 62
7
 10
5.73255717E+00
 20
1.16437200E+02
 11
5.73255717E+00
 21
1.09437200E+02
  0
LINE
  8
0
 62
7
 10
6.50255717E+00
 20
1.17437200E+02
 11
6.50255717E+00
 21
1.10437200E+02
  0
LINE
  8
0
 62
7
 10
-1.49574428E+01
 20
1.16437200E+02
 11
-1.49574428E+01
 21
1.09437200E+02
  0
LINE
  8
0
 62
7
 10
-1.57174428E+01
 20
1.17437200E+02
 11
-1.57174428E+01
 21
1.10437200E+02
  0
LINE
  8
0
 62
7
 10
-8.38744283E+00
 20
1.16437200E+02
 11
-8.38744283E+00
 21
1.09437200E+02
  0
LINE
  8
0
 62
7
 10
-8.27442829E-01
 20
1.16437200E+02
 11
-8.27442829E-01
 21
1.09437200E+02
  0
LINE
  8
0
 62
7
 10
-1.10744283E+00
 20
1.17437200E+02
 11
-1.10744283E+00
 21
1.10437200E+02
  0
LINE
  8
0
 62
7
 10
-8.10744283E+00
 20
1.17437200E+02
 11
-8.10744283E+00
 21
1.10437200E+02
  0
LINE
  8
0
 62
7
 10
1.25625572E+01
 20
1.16437200E+02
 11
1.70925572E+01
 21
1.16437200E+02
  0
LINE
  8
0
 62
7
 10
1.22825572E+01
 20
1.17437200E+02
 11
1.81325572E+01
 21
1.17437200E+02
  0
LINE
  8
0
 62
7
 10
-1.49574428E+01
 20
1.16437200E+02
 11
-8.38744283E+00
 21
1.16437200E+02
  0
LINE
  8
0
 62
7
 10
-1.57174428E+01
 20
1.17437200E+02
 11
-8.10744283E+00
 21
1.17437200E+02
  0
LINE
  8
0
 62
7
 10
-8.27442829E-01
 20
1.16437200E+02
 11
5.73255717E+00
 21
1.16437200E+02
  0
LINE
  8
0
 62
7
 10
-1.10744283E+00
 20
1.17437200E+02
 11
6.50255717E+00
 21
1.17437200E+02
  0
LINE
  8
0
 62
7
 10
6.50255717E+00
 20
1.10437200E+02
 11
1.22825572E+01
 21
1.10437200E+02
  0
LINE
  8
0
 62
7
 10
-8.10744283E+00
 20
1.10437200E+02
 11
-1.10744283E+00
 21
1.10437200E+02
  0
LINE
  8
0
 62
7
 10
-3.31074428E+01
 20
1.10437200E+02
 11
-3.28974428E+01
 21
1.10437200E+02
  0
LINE
  8
0
 62
7
 10
2.38925572E+01
 20
1.10437200E+02
 11
2.28925572E+01
 21
1.09437200E+02
  0
LINE
  8
0
 62
7
 10
-3.31074428E+01
 20
1.10437200E+02
 11
-3.21074428E+01
 21
1.09437200E+02
  0
LINE
  8
0
 62
7
 10
-3.21074428E+01
 20
1.09437200E+02
 11
2.28925572E+01
 21
1.09437200E+02
  0
LINE
  8
0
 62
7
 10
2.38925572E+01
 20
1.19437200E+02
 11
2.38925572E+01
 21
1.10437200E+02
  0
LINE
  8
0
 62
7
 10
-3.31074428E+01
 20
1.19437200E+02
 11
-3.31074428E+01
 21
1.10437200E+02
  0
LINE
  8
0
 62
7
 10
-3.31074428E+01
 20
1.19437200E+02
 11
2.38925572E+01
 21
1.19437200E+02
  0
LINE
  8
0
 62
7
 10
1.81325572E+01
 20
1.10437200E+02
 11
1.70925572E+01
 21
1.09437200E+02
  0
LINE
  8
0
 62
7
 10
1.39025572E+01
 20
1.83437200E+02
 11
1.49825572E+01
 21
1.82437200E+02
  0
LINE
  8
0
 62
7
 10
-2.42074428E+01
 20
1.82437200E+02
 11
-2.31174428E+01
 21
1.83437200E+02
  0
LINE
  8
0
 62
7
 10
-6.07442829E-01
 20
6.03072004E+01
 11
3.02557171E-01
 21
8.62672004E+01
  0
LINE
  8
0
 62
7
 10
1.22525572E+01
 20
6.03072004E+01
 11
1.31625572E+01
 21
8.62672004E+01
  0
LINE
  8
0
 62
7
 10
1.39625572E+01
 20
5.96272004E+01
 11
1.48625572E+01
 21
8.55872004E+01
  0
LINE
  8
0
 62
7
 10
1.52425572E+01
 20
6.03072004E+01
 11
1.61525572E+01
 21
8.62672004E+01
  0
LINE
  8
0
 62
7
 10
1.48625572E+01
 20
8.55872004E+01
 11
1.31425572E+01
 21
8.55872004E+01
  0
LINE
  8
0
 62
7
 10
1.22525572E+01
 20
6.03072004E+01
 11
1.15525572E+01
 21
5.96272004E+01
  0
LINE
  8
0
 62
7
 10
1.22525572E+01
 20
6.03072004E+01
 11
6.60255717E+00
 21
6.03072004E+01
  0
LINE
  8
0
 62
7
 10
1.15525572E+01
 20
5.96272004E+01
 11
5.38255717E+00
 21
5.96272004E+01
  0
LINE
  8
0
 62
7
 10
4.47255717E+00
 20
8.55872004E+01
 11
6.62557171E-01
 21
8.55872004E+01
  0
LINE
  8
0
 62
7
 10
5.69255717E+00
 20
8.62672004E+01
 11
3.02557171E-01
 21
8.62672004E+01
  0
LINE
  8
0
 62
7
 10
-2.47442829E-01
 20
5.96272004E+01
 11
6.62557171E-01
 21
8.55872004E+01
  0
LINE
  8
0
 62
7
 10
6.60255717E+00
 20
6.03072004E+01
 11
5.69255717E+00
 21
8.62672004E+01
  0
LINE
  8
0
 62
7
 10
1.44625572E+01
 20
5.96272004E+01
 11
1.39625572E+01
 21
5.96272004E+01
  0
LINE
  8
0
 62
7
 10
1.56425572E+01
 20
6.03072004E+01
 11
1.52425572E+01
 21
6.03072004E+01
  0
LINE
  8
0
 62
7
 10
1.61525572E+01
 20
8.62672004E+01
 11
1.31625572E+01
 21
8.62672004E+01
  0
LINE
  8
0
 62
7
 10
-2.47442829E-01
 20
5.96272004E+01
 11
-6.07442829E-01
 21
6.03072004E+01
  0
LINE
  8
0
 62
7
 10
6.62557171E-01
 20
8.55872004E+01
 11
3.02557171E-01
 21
8.62672004E+01
  0
LINE
  8
0
 62
7
 10
6.60255717E+00
 20
6.03072004E+01
 11
5.38255717E+00
 21
5.96272004E+01
  0
LINE
  8
0
 62
7
 10
5.38255717E+00
 20
5.96272004E+01
 11
4.47255717E+00
 21
8.55872004E+01
  0
LINE
  8
0
 62
7
 10
4.47255717E+00
 20
8.55872004E+01
 11
5.69255717E+00
 21
8.62672004E+01
  0
LINE
  8
0
 62
7
 10
1.48625572E+01
 20
8.55872004E+01
 11
1.61525572E+01
 21
8.62672004E+01
  0
LINE
  8
0
 62
7
 10
1.52425572E+01
 20
6.03072004E+01
 11
1.39625572E+01
 21
5.96272004E+01
  0
LINE
  8
0
 62
7
 10
-2.44574428E+01
 20
6.03072004E+01
 11
-2.31774428E+01
 21
5.96272004E+01
  0
LINE
  8
0
 62
7
 10
-2.40774428E+01
 20
8.55872004E+01
 11
-2.53674428E+01
 21
8.62672004E+01
  0
LINE
  8
0
 62
7
 10
-1.58174428E+01
 20
6.03072004E+01
 11
-1.45974428E+01
 21
5.96272004E+01
  0
LINE
  8
0
 62
7
 10
-1.36874428E+01
 20
8.55872004E+01
 11
-1.49074428E+01
 21
8.62672004E+01
  0
LINE
  8
0
 62
7
 10
-9.87744283E+00
 20
8.55872004E+01
 11
-9.51744283E+00
 21
8.62672004E+01
  0
LINE
  8
0
 62
7
 10
-8.97744283E+00
 20
5.96272004E+01
 11
-8.60744283E+00
 21
6.03072004E+01
  0
LINE
  8
0
 62
7
 10
-1.45974428E+01
 20
5.96272004E+01
 11
-1.36874428E+01
 21
8.55872004E+01
  0
LINE
  8
0
 62
7
 10
-1.58174428E+01
 20
6.03072004E+01
 11
-1.49074428E+01
 21
8.62672004E+01
  0
LINE
  8
0
 62
7
 10
-8.97744283E+00
 20
5.96272004E+01
 11
-9.87744283E+00
 21
8.55872004E+01
  0
LINE
  8
0
 62
7
 10
-8.60744283E+00
 20
6.03072004E+01
 11
-9.51744283E+00
 21
8.62672004E+01
  0
LINE
  8
0
 62
7
 10
-2.14774428E+01
 20
6.03072004E+01
 11
-2.23774428E+01
 21
8.62672004E+01
  0
LINE
  8
0
 62
7
 10
-2.31774428E+01
 20
5.96272004E+01
 11
-2.40774428E+01
 21
8.55872004E+01
  0
LINE
  8
0
 62
7
 10
-2.44574428E+01
 20
6.03072004E+01
 11
-2.53674428E+01
 21
8.62672004E+01
  0
LINE
  8
0
 62
7
 10
-2.40774428E+01
 20
8.55872004E+01
 11
-2.23574428E+01
 21
8.55872004E+01
  0
LINE
  8
0
 62
7
 10
-2.14774428E+01
 20
6.03072004E+01
 11
-2.07674428E+01
 21
5.96272004E+01
  0
LINE
  8
0
 62
7
 10
-2.14774428E+01
 20
6.03072004E+01
 11
-1.58174428E+01
 21
6.03072004E+01
  0
LINE
  8
0
 62
7
 10
-2.07674428E+01
 20
5.96272004E+01
 11
-1.45974428E+01
 21
5.96272004E+01
  0
LINE
  8
0
 62
7
 10
-1.36874428E+01
 20
8.55872004E+01
 11
-9.87744283E+00
 21
8.55872004E+01
  0
LINE
  8
0
 62
7
 10
-1.49074428E+01
 20
8.62672004E+01
 11
-9.51744283E+00
 21
8.62672004E+01
  0
LINE
  8
0
 62
7
 10
-8.97744283E+00
 20
5.96272004E+01
 11
-2.47442829E-01
 21
5.96272004E+01
  0
LINE
  8
0
 62
7
 10
-8.60744283E+00
 20
6.03072004E+01
 11
-6.07442829E-01
 21
6.03072004E+01
  0
LINE
  8
0
 62
7
 10
-2.36774428E+01
 20
5.96272004E+01
 11
-2.31774428E+01
 21
5.96272004E+01
  0
LINE
  8
0
 62
7
 10
-2.48574428E+01
 20
6.03072004E+01
 11
-2.44574428E+01
 21
6.03072004E+01
  0
LINE
  8
0
 62
7
 10
-2.53674428E+01
 20
8.62672004E+01
 11
-2.23774428E+01
 21
8.62672004E+01
  0
LINE
  8
0
 62
7
 10
-2.58674428E+01
 20
8.91072004E+01
 11
1.66425572E+01
 21
8.91072004E+01
  0
LINE
  8
0
 62
7
 10
1.61625572E+01
 20
8.95872004E+01
 11
1.66425572E+01
 21
8.91072004E+01
  0
LINE
  8
0
 62
7
 10
-2.53774428E+01
 20
8.95872004E+01
 11
-2.58674428E+01
 21
8.91072004E+01
  0
LINE
  8
0
 62
7
 10
-2.48574428E+01
 20
6.03072004E+01
 11
-2.58674428E+01
 21
8.91072004E+01
  0
LINE
  8
0
 62
7
 10
1.56425572E+01
 20
6.03072004E+01
 11
1.66425572E+01
 21
8.91072004E+01
  0
LINE
  8
0
 62
7
 10
1.44225572E+01
 20
5.85472004E+01
 11
1.44625572E+01
 21
5.96272004E+01
  0
LINE
  8
0
 62
7
 10
-2.36374428E+01
 20
5.85472004E+01
 11
-2.36774428E+01
 21
5.96272004E+01
  0
LINE
  8
0
 62
7
 10
1.44625572E+01
 20
5.96272004E+01
 11
1.56425572E+01
 21
6.03072004E+01
  0
LINE
  8
0
 62
7
 10
-2.36774428E+01
 20
5.96272004E+01
 11
-2.48574428E+01
 21
6.03072004E+01
  0
LINE
  8
0
 62
7
 10
-2.53774428E+01
 20
8.95872004E+01
 11
1.61625572E+01
 21
8.95872004E+01
  0
LINE
  8
0
 62
7
 10
-2.26474428E+01
 20
5.75872004E+01
 11
1.34225572E+01
 21
5.75872004E+01
  0
LINE
  8
0
 62
7
 10
1.39025572E+01
 20
1.76437200E+02
 11
1.49825572E+01
 21
1.75857200E+02
  0
LINE
  8
0
 62
7
 10
6.42255717E+00
 20
1.82437200E+02
 11
5.44255717E+00
 21
1.83437200E+02
  0
LINE
  8
0
 62
7
 10
5.44255717E+00
 20
1.76437200E+02
 11
6.42255717E+00
 21
1.75857200E+02
  0
LINE
  8
0
 62
7
 10
-6.07442829E-01
 20
1.75857200E+02
 11
-3.17442829E-01
 21
1.76437200E+02
  0
LINE
  8
0
 62
7
 10
-6.07442829E-01
 20
1.82437200E+02
 11
-3.17442829E-01
 21
1.83437200E+02
  0
LINE
  8
0
 62
7
 10
-8.89744283E+00
 20
1.76437200E+02
 11
-8.60744283E+00
 21
1.75857200E+02
  0
LINE
  8
0
 62
7
 10
-8.89744283E+00
 20
1.83437200E+02
 11
-8.60744283E+00
 21
1.82437200E+02
  0
LINE
  8
0
 62
7
 10
-1.56374428E+01
 20
1.82437200E+02
 11
-1.46574428E+01
 21
1.83437200E+02
  0
LINE
  8
0
 62
7
 10
-1.46574428E+01
 20
1.76437200E+02
 11
-1.56374428E+01
 21
1.75857200E+02
  0
LINE
  8
0
 62
7
 10
-2.31174428E+01
 20
1.76437200E+02
 11
-2.42074428E+01
 21
1.75857200E+02
  0
LINE
  8
0
 62
7
 10
-2.42074428E+01
 20
1.82437200E+02
 11
-2.42074428E+01
 21
1.75857200E+02
  0
LINE
  8
0
 62
7
 10
1.49825572E+01
 20
1.82437200E+02
 11
1.49825572E+01
 21
1.75857200E+02
  0
LINE
  8
0
 62
7
 10
-2.31174428E+01
 20
1.83437200E+02
 11
-2.31174428E+01
 21
1.76437200E+02
  0
LINE
  8
0
 62
7
 10
1.39025572E+01
 20
1.83437200E+02
 11
1.39025572E+01
 21
1.76437200E+02
  0
LINE
  8
0
 62
7
 10
1.15125572E+01
 20
1.83437200E+02
 11
1.20725572E+01
 21
1.82437200E+02
  0
LINE
  8
0
 62
7
 10
-2.12974428E+01
 20
1.82437200E+02
 11
-2.07274428E+01
 21
1.83437200E+02
  0
LINE
  8
0
 62
7
 10
-2.12974428E+01
 20
1.82437200E+02
 11
-1.56374428E+01
 21
1.82437200E+02
  0
LINE
  8
0
 62
7
 10
1.49825572E+01
 20
1.82437200E+02
 11
1.53925572E+01
 21
1.82437200E+02
  0
LINE
  8
0
 62
7
 10
-2.12974428E+01
 20
1.82437200E+02
 11
-2.12974428E+01
 21
1.75857200E+02
  0
LINE
  8
0
 62
7
 10
1.20725572E+01
 20
1.82437200E+02
 11
1.20725572E+01
 21
1.75857200E+02
  0
LINE
  8
0
 62
7
 10
1.20725572E+01
 20
1.75857200E+02
 11
1.49825572E+01
 21
1.75857200E+02
  0
LINE
  8
0
 62
7
 10
-1.56374428E+01
 20
1.75857200E+02
 11
-8.60744283E+00
 21
1.75857200E+02
  0
LINE
  8
0
 62
7
 10
6.42255717E+00
 20
1.82437200E+02
 11
6.42255717E+00
 21
1.75857200E+02
  0
LINE
  8
0
 62
7
 10
-1.56374428E+01
 20
1.82437200E+02
 11
-1.56374428E+01
 21
1.75857200E+02
  0
LINE
  8
0
 62
7
 10
1.20725572E+01
 20
1.76437200E+02
 11
1.39025572E+01
 21
1.76437200E+02
  0
LINE
  8
0
 62
7
 10
-1.46574428E+01
 20
1.76437200E+02
 11
-8.89744283E+00
 21
1.76437200E+02
  0
LINE
  8
0
 62
7
 10
5.44255717E+00
 20
1.83437200E+02
 11
5.44255717E+00
 21
1.76437200E+02
  0
LINE
  8
0
 62
7
 10
-1.46574428E+01
 20
1.83437200E+02
 11
-1.46574428E+01
 21
1.76437200E+02
  0
LINE
  8
0
 62
7
 10
-6.07442829E-01
 20
1.75857200E+02
 11
6.42255717E+00
 21
1.75857200E+02
  0
LINE
  8
0
 62
7
 10
-3.17442829E-01
 20
1.76437200E+02
 11
5.44255717E+00
 21
1.76437200E+02
  0
LINE
  8
0
 62
7
 10
6.42255717E+00
 20
1.82437200E+02
 11
1.20725572E+01
 21
1.82437200E+02
  0
LINE
  8
0
 62
7
 10
-8.60744283E+00
 20
1.82437200E+02
 11
-6.07442829E-01
 21
1.82437200E+02
  0
LINE
  8
0
 62
7
 10
-2.46074428E+01
 20
1.82437200E+02
 11
-2.42074428E+01
 21
1.82437200E+02
  0
LINE
  8
0
 62
7
 10
-8.89744283E+00
 20
1.83437200E+02
 11
-8.89744283E+00
 21
1.76437200E+02
  0
LINE
  8
0
 62
7
 10
-3.17442829E-01
 20
1.83437200E+02
 11
-3.17442829E-01
 21
1.76437200E+02
  0
LINE
  8
0
 62
7
 10
-6.07442829E-01
 20
1.82437200E+02
 11
-6.07442829E-01
 21
1.75857200E+02
  0
LINE
  8
0
 62
7
 10
-8.60744283E+00
 20
1.82437200E+02
 11
-8.60744283E+00
 21
1.75857200E+02
  0
LINE
  8
0
 62
7
 10
-2.42074428E+01
 20
1.75857200E+02
 11
-2.12974428E+01
 21
1.75857200E+02
  0
LINE
  8
0
 62
7
 10
-2.31174428E+01
 20
1.76437200E+02
 11
-2.12974428E+01
 21
1.76437200E+02
  0
LINE
  8
0
 62
7
 10
1.53925572E+01
 20
1.82437200E+02
 11
1.43925572E+01
 21
1.83437200E+02
  0
LINE
  8
0
 62
7
 10
-2.46074428E+01
 20
1.82437200E+02
 11
-2.36074428E+01
 21
1.83437200E+02
  0
LINE
  8
0
 62
7
 10
-2.46074428E+01
 20
1.82437200E+02
 11
-2.46074428E+01
 21
1.73437200E+02
  0
LINE
  8
0
 62
7
 10
1.53925572E+01
 20
1.82437200E+02
 11
1.53925572E+01
 21
1.73437200E+02
  0
LINE
  8
0
 62
7
 10
-2.36074428E+01
 20
1.83437200E+02
 11
1.43925572E+01
 21
1.83437200E+02
  0
LINE
  8
0
  6
CENTER
 62
2
 10
-1.36074428E+01
 20
1.50437200E+02
 11
4.39255717E+00
 21
1.50437200E+02
  0
LINE
  8
0
 62
7
 10
2.18925572E+01
 20
1.57437200E+02
 11
2.03925572E+01
 21
1.57437200E+02
  0
LINE
  8
0
 62
7
 10
2.28925572E+01
 20
1.56437200E+02
 11
2.18925572E+01
 21
1.57437200E+02
  0
LINE
  8
0
 62
7
 10
2.28925572E+01
 20
1.38437200E+02
 11
2.18925572E+01
 21
1.37437200E+02
  0
LINE
  8
0
 62
7
 10
2.18925572E+01
 20
1.37437200E+02
 11
2.03925572E+01
 21
1.37437200E+02
  0
LINE
  8
0
 62
7
 10
2.28925572E+01
 20
1.56437200E+02
 11
2.28925572E+01
 21
1.38437200E+02
  0
LINE
  8
0
 62
7
 10
2.18925572E+01
 20
1.57437200E+02
 11
2.18925572E+01
 21
1.37437200E+02
  0
LINE
  8
0
 62
7
 10
-3.21074428E+01
 20
1.38437200E+02
 11
-3.11074428E+01
 21
1.37437200E+02
  0
LINE
  8
0
 62
7
 10
-3.11074428E+01
 20
1.37437200E+02
 11
-2.96074428E+01
 21
1.37437200E+02
  0
LINE
  8
0
 62
7
 10
-3.11074428E+01
 20
1.57437200E+02
 11
-3.11074428E+01
 21
1.37437200E+02
  0
LINE
  8
0
 62
7
 10
-3.21074428E+01
 20
1.56437200E+02
 11
-3.11074428E+01
 21
1.57437200E+02
  0
LINE
  8
0
 62
7
 10
-3.11074428E+01
 20
1.57437200E+02
 11
-2.96074428E+01
 21
1.57437200E+02
  0
LINE
  8
0
 62
7
 10
-3.21074428E+01
 20
1.56437200E+02
 11
-3.21074428E+01
 21
1.38437200E+02
  0
LINE
  8
0
 62
7
 10
2.43925572E+01
 20
1.39437200E+02
 11
2.28925572E+01
 21
1.39437200E+02
  0
LINE
  8
0
 62
7
 10
-3.36074428E+01
 20
1.39437200E+02
 11
-3.21074428E+01
 21
1.39437200E+02
  0
LINE
  8
0
 62
7
 10
-3.36074428E+01
 20
1.39437200E+02
 11
-3.26074428E+01
 21
1.40437200E+02
  0
LINE
  8
0
 62
7
 10
2.43925572E+01
 20
1.39437200E+02
 11
2.33925572E+01
 21
1.40437200E+02
  0
LINE
  8
0
 62
7
 10
2.28925572E+01
 20
1.40437200E+02
 11
2.33925572E+01
 21
1.40437200E+02
  0
LINE
  8
0
 62
7
 10
-3.26074428E+01
 20
1.40437200E+02
 11
-3.21074428E+01
 21
1.40437200E+02
  0
LINE
  8
0
 62
7
 10
1.88925572E+01
 20
1.72437200E+02
 11
1.88925572E+01
 21
1.22437200E+02
  0
LINE
  8
0
 62
7
 10
-2.81074428E+01
 20
1.22437200E+02
 11
-2.81074428E+01
 21
1.72437200E+02
  0
LINE
  8
0
 62
7
 10
-2.96074428E+01
 20
1.23937200E+02
 11
2.03925572E+01
 21
1.23937200E+02
  0
LINE
  8
0
 62
7
 10
-2.96074428E+01
 20
1.70937200E+02
 11
-2.81074428E+01
 21
1.72437200E+02
  0
LINE
  8
0
 62
7
 10
1.88925572E+01
 20
1.72437200E+02
 11
2.03925572E+01
 21
1.70937200E+02
  0
LINE
  8
0
 62
7
 10
2.03925572E+01
 20
1.23937200E+02
 11
1.88925572E+01
 21
1.22437200E+02
  0
LINE
  8
0
 62
7
 10
-2.96074428E+01
 20
1.23937200E+02
 11
-2.81074428E+01
 21
1.22437200E+02
  0
LINE
  8
0
 62
7
 10
-3.36074428E+01
 20
1.21437200E+02
 11
2.43925572E+01
 21
1.21437200E+02
  0
LINE
  8
0
 62
7
 10
2.43925572E+01
 20
1.21437200E+02
 11
2.33925572E+01
 21
1.20437200E+02
  0
LINE
  8
0
 62
7
 10
-3.36074428E+01
 20
1.21437200E+02
 11
-3.26074428E+01
 21
1.20437200E+02
  0
LINE
  8
0
 62
7
 10
-3.36074428E+01
 20
1.39437200E+02
 11
-3.36074428E+01
 21
1.21437200E+02
  0
LINE
  8
0
 62
7
 10
2.43925572E+01
 20
1.39437200E+02
 11
2.43925572E+01
 21
1.21437200E+02
  0
LINE
  8
0
 62
7
 10
-2.43574428E+01
 20
1.73437200E+02
 11
-2.43574428E+01
 21
1.72437200E+02
  0
LINE
  8
0
 62
7
 10
1.51425572E+01
 20
1.73437200E+02
 11
1.51425572E+01
 21
1.72437200E+02
  0
LINE
  8
0
 62
7
 10
-2.96074428E+01
 20
1.70937200E+02
 11
-2.96074428E+01
 21
1.23937200E+02
  0
LINE
  8
0
 62
7
 10
2.03925572E+01
 20
1.70937200E+02
 11
2.03925572E+01
 21
1.23937200E+02
  0
LINE
  8
0
 62
7
 10
-3.26074428E+01
 20
1.20437200E+02
 11
2.33925572E+01
 21
1.20437200E+02
  0
LINE
  8
0
 62
7
 10
-2.81074428E+01
 20
1.22437200E+02
 11
1.88925572E+01
 21
1.22437200E+02
  0
LINE
  8
0
 62
7
 10
-2.46074428E+01
 20
1.73437200E+02
 11
1.53925572E+01
 21
1.73437200E+02
  0
LINE
  8
0
 62
7
 10
-3.95474428E+01
 20
-5.42799635E-01
 11
-3.81774428E+01
 21
-3.97827996E+01
  0
LINE
  8
0
 62
7
 10
-5.16074428E+01
 20
-4.14527996E+01
 11
-5.16074428E+01
 21
-1.45279963E+00
  0
LINE
  8
0
 62
7
 10
-5.16074428E+01
 20
-4.14527996E+01
 11
-5.26074428E+01
 21
-4.04527996E+01
  0
LINE
  8
0
 62
7
 10
-5.26074428E+01
 20
-2.45279963E+00
 11
-5.16074428E+01
 21
-1.45279963E+00
  0
LINE
  8
0
  6
CENTER
 62
2
 10
-5.66074428E+01
 20
-2.14527996E+01
 11
-3.48174428E+01
 21
-2.14527996E+01
  0
LINE
  8
0
 62
7
 10
-5.16074428E+01
 20
-1.45279963E+00
 11
-4.63374428E+01
 21
-1.45279963E+00
  0
LINE
  8
0
 62
7
 10
-5.16074428E+01
 20
-4.14527996E+01
 11
-3.78474428E+01
 21
-4.14527996E+01
  0
LINE
  8
0
 62
7
 10
-5.26074428E+01
 20
-2.45279963E+00
 11
-5.26074428E+01
 21
-4.04527996E+01
  0
LINE
  8
0
 62
7
 10
-3.66774428E+01
 20
-4.22827996E+01
 11
-2.14974428E+01
 21
-5.10427996E+01
  0
LINE
  8
0
 62
7
 10
2.74625572E+01
 20
-4.22827996E+01
 11
1.22825572E+01
 21
-5.10427996E+01
  0
LINE
  8
0
 62
7
 10
3.03325572E+01
 20
-5.42799635E-01
 11
2.89625572E+01
 21
-3.97827996E+01
  0
LINE
  8
0
 62
7
 10
2.63925572E+01
 20
-4.14527996E+01
 11
-3.56074428E+01
 21
-4.14527996E+01
  0
LINE
  8
0
 62
7
 10
2.78925572E+01
 20
1.11720037E+00
 11
-3.71074428E+01
 21
1.11720037E+00
  0
LINE
  8
0
 62
7
 10
-5.10274428E+01
 20
7.70720037E+00
 11
-4.10474428E+01
 21
1.94720037E+00
  0
LINE
  8
0
 62
7
 10
4.18125572E+01
 20
7.70720037E+00
 11
3.18325572E+01
 21
1.94720037E+00
  0
LINE
  8
0
 62
7
 10
4.63225572E+01
 20
9.55072004E+01
 11
4.33025572E+01
 21
1.02072004E+01
  0
LINE
  8
0
 62
7
 10
4.03925572E+01
 20
8.54720037E+00
 11
-4.96074428E+01
 21
8.54720037E+00
  0
LINE
  8
0
 62
7
 10
1.07825572E+01
 20
-5.14527996E+01
 11
-1.99974428E+01
 21
-5.14527996E+01
  0
LINE
  8
0
 62
7
 10
5.03925572E+01
 20
9.74372004E+01
 11
1.40625572E+01
 21
9.74372004E+01
  0
LINE
  8
0
  6
CENTER
 62
2
 10
4.03925572E+01
 20
1.26437200E+02
 11
4.03925572E+01
 21
1.09837200E+02
  0
LINE
  8
0
 62
7
 10
3.33925572E+01
 20
1.13837200E+02
 11
4.83925572E+01
 21
1.13837200E+02
  0
LINE
  8
0
 62
7
 10
3.28925572E+01
 20
1.20437200E+02
 11
3.28925572E+01
 21
1.14337200E+02
  0
LINE
  8
0
 62
7
 10
5.03925572E+01
 20
1.20437200E+02
 11
5.03925572E+01
 21
9.74372004E+01
  0
LINE
  8
0
 62
7
 10
-5.96074428E+01
 20
1.07437200E+02
 11
5.03925572E+01
 21
1.07437200E+02
  0
LINE
  8
0
 62
4
 10
-1.23574428E+01
 20
-5.96527996E+01
 11
3.14255717E+00
 21
-5.96527996E+01
  0
LINE
  8
0
 62
4
 10
-1.26874428E+01
 20
-5.74527996E+01
 11
3.46255717E+00
 21
-5.74527996E+01
  0
LINE
  8
0
 62
4
 10
3.46255717E+00
 20
-5.74527996E+01
 11
2.96255717E+00
 21
-5.79527996E+01
  0
LINE
  8
0
 62
4
 10
-1.26874428E+01
 20
-5.74527996E+01
 11
-1.21874428E+01
 21
-5.79527996E+01
  0
LINE
  8
0
 62
4
 10
1.39255717E+00
 20
-5.79527996E+01
 11
1.39255717E+00
 21
-5.91527996E+01
  0
LINE
  8
0
 62
4
 10
-1.06074428E+01
 20
-5.79527996E+01
 11
-1.06074428E+01
 21
-5.91527996E+01
  0
LINE
  8
0
 62
4
 10
2.64255717E+00
 20
-5.91527996E+01
 11
3.14255717E+00
 21
-5.96527996E+01
  0
LINE
  8
0
 62
4
 10
-1.23574428E+01
 20
-5.96527996E+01
 11
-1.18574428E+01
 21
-5.91527996E+01
  0
LINE
  8
0
 62
4
 10
-1.18574428E+01
 20
-5.91527996E+01
 11
2.64255717E+00
 21
-5.91527996E+01
  0
LINE
  8
0
 62
4
 10
-1.26874428E+01
 20
-5.14527996E+01
 11
-1.26874428E+01
 21
-5.74527996E+01
  0
LINE
  8
0
 62
4
 10
3.46255717E+00
 20
-5.14527996E+01
 11
3.46255717E+00
 21
-5.74527996E+01
  0
LINE
  8
0
 62
4
 10
-1.21874428E+01
 20
-5.79527996E+01
 11
2.96255717E+00
 21
-5.79527996E+01
  0
LINE
  8
0
 62
7
 10
-2.96074428E+01
 20
1.70937200E+02
 11
2.03925572E+01
 21
1.70937200E+02
  0
LINE
  8
0
 62
7
 10
-2.81074428E+01
 20
1.72437200E+02
 11
1.88925572E+01
 21
1.72437200E+02
  0
LINE
  8
0
 62
7
 10
4.03925572E+01
 20
1.70437200E+02
 11
4.03925572E+01
 21
1.24437200E+02
  0
LINE
  8
0
 62
4
 10
-1.16174428E+01
 20
-6.24327996E+01
 11
-1.10474428E+01
 21
-6.22127996E+01
  0
LINE
  8
0
 62
4
 10
-8.92744283E+00
 20
-7.16527996E+01
 11
-8.26744283E+00
 21
-7.21527996E+01
  0
LINE
  8
0
 62
4
 10
-2.97442829E-01
 20
-7.16527996E+01
 11
-9.47442829E-01
 21
-7.21527996E+01
  0
LINE
  8
0
 62
4
 10
-9.47442829E-01
 20
-6.24427996E+01
 11
-2.87442829E-01
 21
-6.21527996E+01
  0
LINE
  8
0
 62
4
 10
-8.92744283E+00
 20
-6.21527996E+01
 11
-8.26744283E+00
 21
-6.24327996E+01
  0
LINE
  8
0
 62
4
 10
-6.10744283E+00
 20
-7.16527996E+01
 11
-6.44744283E+00
 21
-7.21527996E+01
  0
LINE
  8
0
 62
4
 10
-3.10744283E+00
 20
-7.16527996E+01
 11
-2.76744283E+00
 21
-7.21527996E+01
  0
LINE
  8
0
 62
4
 10
-3.10744283E+00
 20
-6.21527996E+01
 11
-2.76744283E+00
 21
-6.24327996E+01
  0
LINE
  8
0
 62
4
 10
-6.44744283E+00
 20
-6.24327996E+01
 11
-6.10744283E+00
 21
-6.21527996E+01
  0
LINE
  8
0
 62
4
 10
2.99255717E+00
 20
-6.21527996E+01
 11
2.99255717E+00
 21
-7.16527996E+01
  0
LINE
  8
0
 62
4
 10
-1.22074428E+01
 20
-6.21527996E+01
 11
-1.22074428E+01
 21
-7.16527996E+01
  0
LINE
  8
0
 62
4
 10
2.40255717E+00
 20
-6.24327996E+01
 11
2.40255717E+00
 21
-7.21527996E+01
  0
LINE
  8
0
 62
4
 10
-1.16174428E+01
 20
-6.24327996E+01
 11
-1.16174428E+01
 21
-7.21527996E+01
  0
LINE
  8
0
 62
4
 10
1.83255717E+00
 20
-6.21527996E+01
 11
1.83255717E+00
 21
-7.21527996E+01
  0
LINE
  8
0
 62
4
 10
-1.10474428E+01
 20
-6.21527996E+01
 11
-1.10474428E+01
 21
-7.21527996E+01
  0
LINE
  8
0
 62
4
 10
2.40255717E+00
 20
-7.21527996E+01
 11
2.64255717E+00
 21
-7.21527996E+01
  0
LINE
  8
0
 62
4
 10
2.99255717E+00
 20
-7.16527996E+01
 11
3.14255717E+00
 21
-7.16527996E+01
  0
LINE
  8
0
 62
4
 10
-1.10474428E+01
 20
-7.21527996E+01
 11
-8.26744283E+00
 21
-7.21527996E+01
  0
LINE
  8
0
 62
4
 10
-1.10474428E+01
 20
-7.16527996E+01
 11
-8.92744283E+00
 21
-7.16527996E+01
  0
LINE
  8
0
 62
4
 10
-8.26744283E+00
 20
-6.24327996E+01
 11
-6.44744283E+00
 21
-6.24327996E+01
  0
LINE
  8
0
 62
4
 10
-8.92744283E+00
 20
-6.21527996E+01
 11
-6.10744283E+00
 21
-6.21527996E+01
  0
LINE
  8
0
 62
4
 10
2.40255717E+00
 20
-6.24327996E+01
 11
2.99255717E+00
 21
-6.24327996E+01
  0
LINE
  8
0
 62
4
 10
1.83255717E+00
 20
-6.21527996E+01
 11
2.99255717E+00
 21
-6.21527996E+01
  0
LINE
  8
0
 62
4
 10
-2.97442829E-01
 20
-6.21527996E+01
 11
-2.97442829E-01
 21
-7.16527996E+01
  0
LINE
  8
0
 62
4
 10
-8.92744283E+00
 20
-6.21527996E+01
 11
-8.92744283E+00
 21
-7.16527996E+01
  0
LINE
  8
0
 62
4
 10
-8.26744283E+00
 20
-6.24327996E+01
 11
-8.26744283E+00
 21
-7.21527996E+01
  0
LINE
  8
0
 62
4
 10
-9.47442829E-01
 20
-6.24327996E+01
 11
-9.47442829E-01
 21
-7.21527996E+01
  0
LINE
  8
0
 62
4
 10
-9.47442829E-01
 20
-7.21527996E+01
 11
1.83255717E+00
 21
-7.21527996E+01
  0
LINE
  8
0
 62
4
 10
-6.44744283E+00
 20
-7.21527996E+01
 11
-2.76744283E+00
 21
-7.21527996E+01
  0
LINE
  8
0
 62
4
 10
-6.44744283E+00
 20
-6.24327996E+01
 11
-6.44744283E+00
 21
-7.21527996E+01
  0
LINE
  8
0
 62
4
 10
-2.76744283E+00
 20
-6.24327996E+01
 11
-2.76744283E+00
 21
-7.21527996E+01
  0
LINE
  8
0
 62
4
 10
-1.18574428E+01
 20
-7.21527996E+01
 11
-1.16174428E+01
 21
-7.21527996E+01
  0
LINE
  8
0
 62
4
 10
-2.97442829E-01
 20
-7.16527996E+01
 11
1.83255717E+00
 21
-7.16527996E+01
  0
LINE
  8
0
 62
4
 10
-6.10744283E+00
 20
-7.16527996E+01
 11
-3.10744283E+00
 21
-7.16527996E+01
  0
LINE
  8
0
 62
4
 10
-2.76744283E+00
 20
-6.24327996E+01
 11
-9.47442829E-01
 21
-6.24327996E+01
  0
LINE
  8
0
 62
4
 10
-3.10744283E+00
 20
-6.21527996E+01
 11
-2.97442829E-01
 21
-6.21527996E+01
  0
LINE
  8
0
 62
4
 10
-3.10744283E+00
 20
-6.21527996E+01
 11
-3.10744283E+00
 21
-7.16527996E+01
  0
LINE
  8
0
 62
4
 10
-6.10744283E+00
 20
-6.21527996E+01
 11
-6.10744283E+00
 21
-7.16527996E+01
  0
LINE
  8
0
 62
4
 10
-1.23574428E+01
 20
-7.16527996E+01
 11
-1.22074428E+01
 21
-7.16527996E+01
  0
LINE
  8
0
 62
4
 10
-1.22074428E+01
 20
-6.24327996E+01
 11
-1.16174428E+01
 21
-6.24327996E+01
  0
LINE
  8
0
 62
4
 10
-1.22074428E+01
 20
-6.21527996E+01
 11
-1.10474428E+01
 21
-6.21527996E+01
  0
LINE
  8
0
 62
4
 10
2.14255717E+00
 20
-7.26527996E+01
 11
3.14255717E+00
 21
-7.16527996E+01
  0
LINE
  8
0
 62
4
 10
-1.23574428E+01
 20
-7.16527996E+01
 11
-1.13574428E+01
 21
-7.26527996E+01
  0
LINE
  8
0
 62
4
 10
-1.13574428E+01
 20
-7.26527996E+01
 11
2.14255717E+00
 21
-7.26527996E+01
  0
LINE
  8
0
 62
4
 10
-1.22074428E+01
 20
-7.16527996E+01
 11
-1.16174428E+01
 21
-7.21527996E+01
  0
LINE
  8
0
 62
4
 10
2.99255717E+00
 20
-7.16527996E+01
 11
2.40255717E+00
 21
-7.21527996E+01
  0
LINE
  8
0
 62
4
 10
1.83255717E+00
 20
-6.22127996E+01
 11
2.40255717E+00
 21
-6.24327996E+01
  0
LINE
  8
0
  6
CENTER
 62
6
 10
3.04017937E+02
 20
1.85416679E+02
 11
3.04017937E+02
 21
1.59416679E+02
  0
LINE
  8
0
  6
CENTER
 62
6
 10
2.34017937E+02
 20
2.18416679E+02
 11
2.34017937E+02
 21
1.59416679E+02
  0
ARC
  8
0
 62
4
 10
2.96283602E+02
 20
1.93662344E+02
 40
1.04943365E+01
 50
3.59969071E+02
 51
9.00309290E+01
  0
ARC
  8
0
 62
4
 10
2.96283601E+02
 20
1.93662343E+02
 40
4.99433920E+00
 50
3.59935022E+02
 51
9.00649782E+01
  0
ARC
  8
0
 62
4
 10
3.08278029E+02
 20
1.75916768E+02
 40
2.50012629E+00
 50
2.33129654E+02
 51
2.93075491E+02
  0
ARC
  8
0
 62
4
 10
3.04027937E+02
 20
1.81229118E+02
 40
7.81244297E+00
 50
2.49390150E+02
 51
2.90609851E+02
  0
ARC
  8
0
 62
4
 10
2.99777885E+02
 20
1.75916444E+02
 40
2.49984293E+00
 50
2.46920763E+02
 51
3.06874092E+02
  0
ARC
  8
0
 62
4
 10
3.08259803E+02
 20
1.79914445E+02
 40
2.49095711E+00
 50
6.63778453E+01
 51
1.26505355E+02
  0
ARC
  8
0
 62
4
 10
2.99796108E+02
 20
1.79914765E+02
 40
2.49067771E+00
 50
5.34909248E+01
 51
1.13625875E+02
  0
ARC
  8
0
 62
4
 10
3.04027937E+02
 20
1.74604210E+02
 40
7.81247154E+00
 50
6.93902287E+01
 51
1.10609772E+02
  0
ARC
  8
0
 62
4
 10
3.10088704E+02
 20
1.65838307E+02
 40
3.57184051E+00
 50
6.42951511E+01
 51
1.24649109E+02
  0
ARC
  8
0
 62
4
 10
3.04017937E+02
 20
1.56041888E+02
 40
1.33602583E+01
 50
7.23988295E+01
 51
1.07601170E+02
  0
ARC
  8
0
 62
4
 10
2.97955903E+02
 20
1.65839392E+02
 40
3.56598922E+00
 50
5.54564085E+01
 51
1.15549288E+02
  0
ARC
  8
0
 62
4
 10
2.21519674E+02
 20
1.86458415E+02
 40
2.18055625E-02
 50
1.84567156E+02
 51
2.65432843E+02
  0
CIRCLE
  8
0
 62
4
 10
2.34029330E+02
 20
1.91416679E+02
 40
1.75000012E+00
  0
CIRCLE
  8
0
 62
4
 10
2.34029330E+02
 20
1.91416679E+02
 40
1.50000000E+00
  0
CIRCLE
  8
0
 62
4
 10
2.34029330E+02
 20
1.91416679E+02
 40
1.45000000E+01
  0
CIRCLE
  8
0
 62
4
 10
2.34029330E+02
 20
1.91416679E+02
 40
2.05000000E+01
  0
CIRCLE
  8
0
 62
4
 10
2.34029330E+02
 20
1.91416679E+02
 40
2.20000000E+01
  0
LINE
  8
0
 62
4
 10
2.27277937E+02
 20
1.66416679E+02
 11
2.40777937E+02
 21
1.66416679E+02
  0
LINE
  8
0
 62
4
 10
2.27277937E+02
 20
1.68416679E+02
 11
2.27277937E+02
 21
1.66416679E+02
  0
LINE
  8
0
 62
4
 10
2.40777937E+02
 20
1.68416679E+02
 11
2.40777937E+02
 21
1.66416679E+02
  0
LINE
  8
0
 62
4
 10
2.25517937E+02
 20
1.68416679E+02
 11
2.42517937E+02
 21
1.68416679E+02
  0
LINE
  8
0
 62
4
 10
2.25517937E+02
 20
1.71116679E+02
 11
2.25517937E+02
 21
1.68416679E+02
  0
LINE
  8
0
 62
4
 10
2.42517937E+02
 20
1.71116679E+02
 11
2.42517937E+02
 21
1.68416679E+02
  0
LINE
  8
0
 62
4
 10
2.54797937E+02
 20
1.98656679E+02
 11
2.96277937E+02
 21
1.98656679E+02
  0
LINE
  8
0
 62
4
 10
2.51957937E+02
 20
2.04156679E+02
 11
2.96277937E+02
 21
2.04156679E+02
  0
LINE
  8
0
 62
4
 10
3.06777937E+02
 20
1.93656679E+02
 11
3.06777937E+02
 21
1.82416679E+02
  0
LINE
  8
0
 62
4
 10
3.01277937E+02
 20
1.93656679E+02
 11
3.01277937E+02
 21
1.82416679E+02
  0
LINE
  8
0
 62
4
 10
3.09777937E+02
 20
1.73916679E+02
 11
3.08897937E+02
 21
1.73416679E+02
  0
LINE
  8
0
 62
4
 10
3.08897937E+02
 20
1.73416679E+02
 11
2.99137937E+02
 21
1.73416679E+02
  0
LINE
  8
0
 62
4
 10
2.98277937E+02
 20
1.73916679E+02
 11
2.99137937E+02
 21
1.73416679E+02
  0
LINE
  8
0
 62
4
 10
3.09777937E+02
 20
1.81916679E+02
 11
3.08897937E+02
 21
1.82416679E+02
  0
LINE
  8
0
 62
4
 10
2.98277937E+02
 20
1.81916679E+02
 11
2.99137937E+02
 21
1.82416679E+02
  0
LINE
  8
0
 62
4
 10
3.01277937E+02
 20
1.81916679E+02
 11
3.01277937E+02
 21
1.73916679E+02
  0
LINE
  8
0
 62
4
 10
3.06777937E+02
 20
1.81916679E+02
 11
3.06777937E+02
 21
1.73916679E+02
  0
LINE
  8
0
 62
4
 10
3.09777937E+02
 20
1.81916679E+02
 11
3.09777937E+02
 21
1.73916679E+02
  0
LINE
  8
0
 62
4
 10
2.98277937E+02
 20
1.81916679E+02
 11
2.98277937E+02
 21
1.73916679E+02
  0
LINE
  8
0
 62
4
 10
3.08897937E+02
 20
1.82416679E+02
 11
2.99137937E+02
 21
1.82416679E+02
  0
LINE
  8
0
 62
4
 10
3.00517937E+02
 20
1.73416679E+02
 11
3.00517937E+02
 21
1.69416679E+02
  0
LINE
  8
0
 62
4
 10
3.07517937E+02
 20
1.73416679E+02
 11
3.07517937E+02
 21
1.69416679E+02
  0
LINE
  8
0
 62
4
 10
3.12097937E+02
 20
1.68776679E+02
 11
3.12097937E+02
 21
1.64416679E+02
  0
LINE
  8
0
 62
4
 10
3.11017937E+02
 20
1.69416679E+02
 11
3.12097937E+02
 21
1.68776679E+02
  0
LINE
  8
0
 62
4
 10
3.08057937E+02
 20
1.68776679E+02
 11
3.08057937E+02
 21
1.64416679E+02
  0
LINE
  8
0
 62
4
 10
2.99977937E+02
 20
1.68776679E+02
 11
2.99977937E+02
 21
1.64416679E+02
  0
LINE
  8
0
 62
4
 10
3.12097937E+02
 20
1.64416679E+02
 11
2.95937937E+02
 21
1.64416679E+02
  0
LINE
  8
0
 62
4
 10
2.95937937E+02
 20
1.68776679E+02
 11
2.95937937E+02
 21
1.64416679E+02
  0
LINE
  8
0
 62
4
 10
2.97017937E+02
 20
1.69416679E+02
 11
2.95937937E+02
 21
1.68776679E+02
  0
LINE
  8
0
 62
4
 10
3.11017937E+02
 20
1.69416679E+02
 11
2.97017937E+02
 21
1.69416679E+02
  0
LINE
  8
0
 62
4
 10
3.10597937E+02
 20
1.64416679E+02
 11
3.10597937E+02
 21
1.63416679E+02
  0
LINE
  8
0
 62
4
 10
2.97437937E+02
 20
1.64416679E+02
 11
2.97437937E+02
 21
1.63416679E+02
  0
LINE
  8
0
 62
4
 10
2.35757937E+02
 20
1.91616679E+02
 11
2.41497937E+02
 21
1.93716679E+02
  0
LINE
  8
0
 62
4
 10
2.35437937E+02
 20
1.92436679E+02
 11
2.41017937E+02
 21
1.94816679E+02
  0
LINE
  8
0
 62
4
 10
2.41017937E+02
 20
1.94816679E+02
 11
2.41497937E+02
 21
1.93716679E+02
  0
LINE
  8
0
 62
4
 10
2.21497937E+02
 20
1.86456679E+02
 11
2.32297937E+02
 21
1.91076679E+02
  0
LINE
  8
0
 62
4
 10
2.21517937E+02
 20
1.86436679E+02
 11
2.32557937E+02
 21
1.90456679E+02
  0
LINE
  8
0
  6
CENTER
 62
6
 10
2.06517937E+02
 20
1.91416679E+02
 11
2.61517937E+02
 21
1.91416679E+02
  0
LINE
  8
0
 62
4
 10
2.40697937E+02
 20
1.66416679E+02
 11
2.40597937E+02
 21
1.63416679E+02
  0
LINE
  8
0
 62
6
 10
2.39737937E+02
 20
1.66416679E+02
 11
2.39737937E+02
 21
1.63416679E+02
  0
LINE
  8
0
 62
6
 10
2.28297937E+02
 20
1.66416679E+02
 11
2.28297937E+02
 21
1.63416679E+02
  0
LINE
  8
0
 62
4
 10
2.27357937E+02
 20
1.66416679E+02
 11
2.27437937E+02
 21
1.63416679E+02
  0
LINE
  8
0
 62
4
 10
2.77097937E+02
 20
-2.14527996E+01
 11
2.77097937E+02
 21
-2.63527996E+01
  0
LINE
  8
0
 62
4
 10
2.60937937E+02
 20
-2.14527996E+01
 11
2.60937937E+02
 21
-2.63527996E+01
  0
LINE
  8
0
 62
4
 10
2.71877937E+02
 20
-4.29527996E+01
 11
2.71877937E+02
 21
-4.48527996E+01
  0
LINE
  8
0
 62
4
 10
2.72277937E+02
 20
-4.48527996E+01
 11
2.71817937E+02
 21
-4.74527996E+01
  0
LINE
  8
0
 62
4
 10
2.72277937E+02
 20
-4.74527996E+01
 11
2.71817937E+02
 21
-5.00527996E+01
  0
LINE
  8
0
 62
4
 10
2.66237937E+02
 20
-5.00527996E+01
 11
2.71817937E+02
 21
-5.00527996E+01
  0
LINE
  8
0
 62
4
 10
2.65777937E+02
 20
-4.74527996E+01
 11
2.66237937E+02
 21
-5.00527996E+01
  0
LINE
  8
0
 62
4
 10
2.65777937E+02
 20
-4.74527996E+01
 11
2.72277937E+02
 21
-4.74527996E+01
  0
LINE
  8
0
 62
4
 10
2.65777937E+02
 20
-4.48527996E+01
 11
2.66237937E+02
 21
-4.74527996E+01
  0
LINE
  8
0
 62
4
 10
2.65777937E+02
 20
-4.48527996E+01
 11
2.72277937E+02
 21
-4.48527996E+01
  0
LINE
  8
0
 62
4
 10
2.66177937E+02
 20
-4.29527996E+01
 11
2.66177937E+02
 21
-4.48527996E+01
  0
LINE
  8
0
 62
4
 10
2.76617937E+02
 20
-4.05527996E+01
 11
2.76037937E+02
 21
-4.10527996E+01
  0
LINE
  8
0
 62
4
 10
2.61417937E+02
 20
-4.05527996E+01
 11
2.62017937E+02
 21
-4.10527996E+01
  0
LINE
  8
0
 62
4
 10
2.75457937E+02
 20
-3.11327996E+01
 11
2.76037937E+02
 21
-3.13527996E+01
  0
LINE
  8
0
 62
4
 10
2.62017937E+02
 20
-3.13527996E+01
 11
2.62577937E+02
 21
-3.11327996E+01
  0
LINE
  8
0
 62
4
 10
2.64697937E+02
 20
-4.05527996E+01
 11
2.65357937E+02
 21
-4.10527996E+01
  0
LINE
  8
0
 62
4
 10
2.73337937E+02
 20
-4.05527996E+01
 11
2.72677937E+02
 21
-4.10527996E+01
  0
LINE
  8
0
 62
4
 10
2.72677937E+02
 20
-3.13527996E+01
 11
2.73337937E+02
 21
-3.10527996E+01
  0
LINE
  8
0
 62
4
 10
2.64697937E+02
 20
-3.10527996E+01
 11
2.65357937E+02
 21
-3.13527996E+01
  0
LINE
  8
0
 62
4
 10
2.67517937E+02
 20
-4.05527996E+01
 11
2.67177937E+02
 21
-4.10527996E+01
  0
LINE
  8
0
 62
4
 10
2.70517937E+02
 20
-4.05527996E+01
 11
2.70857937E+02
 21
-4.10527996E+01
  0
LINE
  8
0
 62
4
 10
2.70517937E+02
 20
-3.10527996E+01
 11
2.70857937E+02
 21
-3.13527996E+01
  0
LINE
  8
0
 62
4
 10
2.67177937E+02
 20
-3.13527996E+01
 11
2.67517937E+02
 21
-3.10527996E+01
  0
LINE
  8
0
 62
4
 10
2.76617937E+02
 20
-3.10527996E+01
 11
2.76617937E+02
 21
-4.05527996E+01
  0
LINE
  8
0
 62
4
 10
2.61417937E+02
 20
-3.10527996E+01
 11
2.61417937E+02
 21
-4.05527996E+01
  0
LINE
  8
0
 62
4
 10
2.76037937E+02
 20
-3.13527996E+01
 11
2.76037937E+02
 21
-4.10527996E+01
  0
LINE
  8
0
 62
4
 10
2.62017937E+02
 20
-3.13527996E+01
 11
2.62017937E+02
 21
-4.10527996E+01
  0
LINE
  8
0
 62
4
 10
2.75457937E+02
 20
-3.10527996E+01
 11
2.75457937E+02
 21
-4.10527996E+01
  0
LINE
  8
0
 62
4
 10
2.62577937E+02
 20
-3.10527996E+01
 11
2.62577937E+02
 21
-4.10527996E+01
  0
LINE
  8
0
 62
4
 10
2.76037937E+02
 20
-4.10527996E+01
 11
2.76277937E+02
 21
-4.10527996E+01
  0
LINE
  8
0
 62
4
 10
2.76617937E+02
 20
-4.05527996E+01
 11
2.76777937E+02
 21
-4.05527996E+01
  0
LINE
  8
0
 62
4
 10
2.62577937E+02
 20
-4.10527996E+01
 11
2.65357937E+02
 21
-4.10527996E+01
  0
LINE
  8
0
 62
4
 10
2.62577937E+02
 20
-4.05527996E+01
 11
2.64697937E+02
 21
-4.05527996E+01
  0
LINE
  8
0
 62
4
 10
2.65357937E+02
 20
-3.13527996E+01
 11
2.67177937E+02
 21
-3.13527996E+01
  0
LINE
  8
0
 62
4
 10
2.64697937E+02
 20
-3.10527996E+01
 11
2.67517937E+02
 21
-3.10527996E+01
  0
LINE
  8
0
 62
4
 10
2.76037937E+02
 20
-3.13527996E+01
 11
2.76617937E+02
 21
-3.13527996E+01
  0
LINE
  8
0
 62
4
 10
2.75457937E+02
 20
-3.10527996E+01
 11
2.76617937E+02
 21
-3.10527996E+01
  0
LINE
  8
0
 62
4
 10
2.73337937E+02
 20
-3.10527996E+01
 11
2.73337937E+02
 21
-4.05527996E+01
  0
LINE
  8
0
 62
4
 10
2.64697937E+02
 20
-3.10527996E+01
 11
2.64697937E+02
 21
-4.05527996E+01
  0
LINE
  8
0
 62
4
 10
2.65357937E+02
 20
-3.13527996E+01
 11
2.65357937E+02
 21
-4.10527996E+01
  0
LINE
  8
0
 62
4
 10
2.72677937E+02
 20
-3.13527996E+01
 11
2.72677937E+02
 21
-4.10527996E+01
  0
LINE
  8
0
 62
4
 10
2.72677937E+02
 20
-4.10527996E+01
 11
2.75457937E+02
 21
-4.10527996E+01
  0
LINE
  8
0
 62
4
 10
2.67177937E+02
 20
-4.10527996E+01
 11
2.70857937E+02
 21
-4.10527996E+01
  0
LINE
  8
0
 62
4
 10
2.67177937E+02
 20
-3.13527996E+01
 11
2.67177937E+02
 21
-4.10527996E+01
  0
LINE
  8
0
 62
4
 10
2.70857937E+02
 20
-3.13527996E+01
 11
2.70857937E+02
 21
-4.10527996E+01
  0
LINE
  8
0
 62
4
 10
2.61777937E+02
 20
-4.10527996E+01
 11
2.62017937E+02
 21
-4.10527996E+01
  0
LINE
  8
0
 62
4
 10
2.73337937E+02
 20
-4.05527996E+01
 11
2.75457937E+02
 21
-4.05527996E+01
  0
LINE
  8
0
 62
4
 10
2.67517937E+02
 20
-4.05527996E+01
 11
2.70517937E+02
 21
-4.05527996E+01
  0
LINE
  8
0
 62
4
 10
2.70857937E+02
 20
-3.13527996E+01
 11
2.72677937E+02
 21
-3.13527996E+01
  0
LINE
  8
0
 62
4
 10
2.70517937E+02
 20
-3.10527996E+01
 11
2.73337937E+02
 21
-3.10527996E+01
  0
LINE
  8
0
 62
4
 10
2.70517937E+02
 20
-3.10527996E+01
 11
2.70517937E+02
 21
-4.05527996E+01
  0
LINE
  8
0
 62
4
 10
2.67517937E+02
 20
-3.10527996E+01
 11
2.67517937E+02
 21
-4.05527996E+01
  0
LINE
  8
0
 62
4
 10
2.61277937E+02
 20
-4.05527996E+01
 11
2.61417937E+02
 21
-4.05527996E+01
  0
LINE
  8
0
 62
4
 10
2.61417937E+02
 20
-3.13527996E+01
 11
2.62017937E+02
 21
-3.13527996E+01
  0
LINE
  8
0
 62
4
 10
2.62517937E+02
 20
-4.24527996E+01
 11
2.75517937E+02
 21
-4.24527996E+01
  0
LINE
  8
0
 62
4
 10
2.75517937E+02
 20
-4.24527996E+01
 11
2.75017937E+02
 21
-4.29527996E+01
  0
LINE
  8
0
 62
4
 10
2.62517937E+02
 20
-4.24527996E+01
 11
2.63017937E+02
 21
-4.29527996E+01
  0
LINE
  8
0
 62
4
 10
2.75517937E+02
 20
-4.15527996E+01
 11
2.75517937E+02
 21
-4.24527996E+01
  0
LINE
  8
0
 62
4
 10
2.62517937E+02
 20
-4.15527996E+01
 11
2.62517937E+02
 21
-4.24527996E+01
  0
LINE
  8
0
 62
4
 10
2.63017937E+02
 20
-4.29527996E+01
 11
2.75017937E+02
 21
-4.29527996E+01
  0
LINE
  8
0
 62
4
 10
2.61277937E+02
 20
-2.85527996E+01
 11
2.76777937E+02
 21
-2.85527996E+01
  0
LINE
  8
0
 62
4
 10
2.60937937E+02
 20
-2.63527996E+01
 11
2.77097937E+02
 21
-2.63527996E+01
  0
LINE
  8
0
 62
4
 10
2.77097937E+02
 20
-2.63527996E+01
 11
2.76597937E+02
 21
-2.68527996E+01
  0
LINE
  8
0
 62
4
 10
2.60937937E+02
 20
-2.63527996E+01
 11
2.61437937E+02
 21
-2.68527996E+01
  0
LINE
  8
0
 62
4
 10
2.75017937E+02
 20
-2.68527996E+01
 11
2.75017937E+02
 21
-2.80527996E+01
  0
LINE
  8
0
 62
4
 10
2.63017937E+02
 20
-2.68527996E+01
 11
2.63017937E+02
 21
-2.80527996E+01
  0
LINE
  8
0
 62
4
 10
2.76277937E+02
 20
-2.80527996E+01
 11
2.76777937E+02
 21
-2.85527996E+01
  0
LINE
  8
0
 62
4
 10
2.61277937E+02
 20
-2.85527996E+01
 11
2.61777937E+02
 21
-2.80527996E+01
  0
LINE
  8
0
 62
4
 10
2.61777937E+02
 20
-2.80527996E+01
 11
2.76277937E+02
 21
-2.80527996E+01
  0
LINE
  8
0
 62
4
 10
2.61417937E+02
 20
-3.10527996E+01
 11
2.62577937E+02
 21
-3.10527996E+01
  0
LINE
  8
0
 62
4
 10
2.75777937E+02
 20
-4.15527996E+01
 11
2.76777937E+02
 21
-4.05527996E+01
  0
LINE
  8
0
 62
4
 10
2.61277937E+02
 20
-4.05527996E+01
 11
2.62277937E+02
 21
-4.15527996E+01
  0
LINE
  8
0
 62
4
 10
2.76777937E+02
 20
-2.85527996E+01
 11
2.76777937E+02
 21
-4.05527996E+01
  0
LINE
  8
0
 62
4
 10
2.61277937E+02
 20
-2.85527996E+01
 11
2.61277937E+02
 21
-4.05527996E+01
  0
LINE
  8
0
 62
4
 10
2.62277937E+02
 20
-4.15527996E+01
 11
2.75777937E+02
 21
-4.15527996E+01
  0
LINE
  8
0
 62
4
 10
2.61437937E+02
 20
-2.68527996E+01
 11
2.76597937E+02
 21
-2.68527996E+01
  0
LINE
  8
0
 62
4
 10
-2.66000000E+02
 20
-1.58333333E+02
 11
-3.08500000E+02
 21
-1.58333333E+02
  0
LINE
  8
0
 62
4
 10
-3.13500000E+02
 20
-1.63333333E+02
 11
-3.13500000E+02
 21
-2.05833333E+02
  0
ARC
  8
0
 62
4
 10
-3.08498581E+02
 20
-1.63334753E+02
 40
5.00141954E+00
 50
9.00162596E+01
 51
1.79983740E+02
  0
CIRCLE
  8
0
 62
4
 10
-2.87250000E+02
 20
-1.84583333E+02
 40
2.25000000E+01
  0
LINE
  8
0
  6
CENTER
 62
6
 10
-2.67250000E+02
 20
-1.61083333E+02
 11
-2.67250000E+02
 21
-1.68083333E+02
  0
LINE
  8
0
  6
CENTER
 62
2
 10
-2.87250000E+02
 20
-1.53333333E+02
 11
-2.87250000E+02
 21
-2.15833333E+02
  0
LINE
  8
0
  6
CENTER
 62
2
 10
-2.36750000E+02
 20
-1.84583333E+02
 11
-3.59250000E+02
 21
-1.84583333E+02
  0
LINE
  8
0
  6
CENTER
 62
6
 10
-3.10750000E+02
 20
-1.64583333E+02
 11
-3.03750000E+02
 21
-1.64583333E+02
  0
LINE
  8
0
  6
CENTER
 62
6
 10
-3.07250000E+02
 20
-1.61083333E+02
 11
-3.07250000E+02
 21
-1.68083333E+02
  0
LINE
  8
0
  6
CENTER
 62
6
 10
-2.70750000E+02
 20
-1.64583333E+02
 11
-2.63750000E+02
 21
-1.64583333E+02
  0
LINE
  8
0
  6
CENTER
 62
6
 10
-3.10750000E+02
 20
-2.04583333E+02
 11
-3.03750000E+02
 21
-2.04583333E+02
  0
ARC
  8
0
 62
4
 10
-2.87250000E+02
 20
-1.84583333E+02
 40
2.49244846E+00
 50
2.29027967E+02
 51
3.59000266E+02
  0
LINE
  8
0
  6
CENTER
 62
6
 10
-3.07250000E+02
 20
-2.01083333E+02
 11
-3.07250000E+02
 21
-2.08083333E+02
  0
CIRCLE
  8
0
 62
4
 10
-3.07255767E+02
 20
-2.04591928E+02
 40
2.25000000E+00
  0
CIRCLE
  8
0
 62
6
 10
-3.07255767E+02
 20
-2.04591928E+02
 40
2.00000000E+00
  0
CIRCLE
  8
0
 62
4
 10
-3.07255767E+02
 20
-2.04591928E+02
 40
1.62099934E+00
  0
CIRCLE
  8
0
 62
4
 10
-2.67255767E+02
 20
-1.64591928E+02
 40
2.25000000E+00
  0
CIRCLE
  8
0
 62
6
 10
-2.67255767E+02
 20
-1.64591928E+02
 40
2.00000000E+00
  0
CIRCLE
  8
0
 62
4
 10
-2.67255767E+02
 20
-1.64591928E+02
 40
1.62099934E+00
  0
CIRCLE
  8
0
 62
4
 10
-3.07255767E+02
 20
-1.64591928E+02
 40
2.25000000E+00
  0
CIRCLE
  8
0
 62
4
 10
-2.87250000E+02
 20
-1.84583333E+02
 40
1.99999993E+00
  0
ARC
  8
0
 62
4
 10
-2.87250000E+02
 20
-1.84583333E+02
 40
3.49676556E+00
 50
2.21827547E+02
 51
6.17427376E+00
  0
LINE
  8
0
 62
4
 10
-2.85749599E+02
 20
-1.82593083E+02
 11
-2.80850053E+02
 21
-1.79983325E+02
  0
LINE
  8
0
 62
4
 10
-2.80850053E+02
 20
-1.79983325E+02
 11
-2.79610053E+02
 21
-1.80863325E+02
  0
LINE
  8
0
 62
4
 10
-2.79610053E+02
 20
-1.80863325E+02
 11
-2.79680053E+02
 21
-1.82373325E+02
  0
LINE
  8
0
 62
4
 10
-2.84757931E+02
 20
-1.84626821E+02
 11
-2.79680053E+02
 21
-1.82373325E+02
  0
LINE
  8
0
 62
4
 10
-3.01725095E+02
 20
-1.83314429E+02
 11
-2.90745890E+02
 21
-1.85255779E+02
  0
LINE
  8
0
 62
4
 10
-3.02840052E+02
 20
-1.92683324E+02
 11
-2.88884275E+02
 21
-1.86465206E+02
  0
LINE
  8
0
 62
4
 10
-3.03230052E+02
 20
-1.91883324E+02
 11
-2.89739571E+02
 21
-1.84703068E+02
  0
LINE
  8
0
 62
4
 10
-3.01604742E+02
 20
-1.82335359E+02
 11
-2.90420395E+02
 21
-1.83108218E+02
  0
ARC
  8
0
 62
4
 10
-2.87250000E+02
 20
-1.84583333E+02
 40
2.49244846E+00
 50
5.29882500E+01
 51
1.82753499E+02
  0
ARC
  8
0
 62
4
 10
-3.03027317E+02
 20
-1.92279554E+02
 40
4.45083167E-01
 50
1.17096987E+02
 51
2.94881480E+02
  0
ARC
  8
0
 62
4
 10
-3.01643284E+02
 20
-1.82827553E+02
 40
4.93700744E-01
 50
8.55225138E+01
 51
2.60461526E+02
  0
ARC
  8
0
 62
4
 10
-2.87250000E+02
 20
-1.84583333E+02
 40
3.49676556E+00
 50
4.52784072E+01
 51
1.55048472E+02
  0
LINE
  8
0
 62
4
 10
-2.61000000E+02
 20
-1.63333333E+02
 11
-2.61000000E+02
 21
-2.05833333E+02
  0
ARC
  8
0
 62
4
 10
-2.66007181E+02
 20
-1.63340514E+02
 40
5.00718614E+00
 50
8.21699710E-02
 51
8.99178300E+01
  0
LINE
  8
0
 62
4
 10
-2.66000000E+02
 20
-2.10833333E+02
 11
-3.08500000E+02
 21
-2.10833333E+02
  0
ARC
  8
0
 62
4
 10
-2.65998591E+02
 20
-2.05834742E+02
 40
4.99859117E+00
 50
2.69983849E+02
 51
1.61508248E-02
  0
ARC
  8
0
 62
4
 10
-3.08507181E+02
 20
-2.05840514E+02
 40
4.99282458E+00
 50
1.79917598E+02
 51
2.70082402E+02
  0
ARC
  8
0
 62
4
 10
-1.86262206E+02
 20
-1.60335540E+02
 40
2.00220760E+00
 50
6.31384341E-02
 51
8.99368614E+01
  0
LINE
  8
0
 62
4
 10
-1.87260000E+02
 20
-1.58333333E+02
 11
-1.87260000E+02
 21
-2.10833333E+02
  0
LINE
  8
0
 62
4
 10
-2.19250000E+02
 20
-1.61333333E+02
 11
-2.19250000E+02
 21
-2.07833333E+02
  0
LINE
  8
0
 62
4
 10
-2.16260000E+02
 20
-1.58333333E+02
 11
-1.86260000E+02
 21
-1.58333333E+02
  0
ARC
  8
0
 62
4
 10
-2.16248563E+02
 20
-1.61334749E+02
 40
3.00143714E+00
 50
9.02183229E+01
 51
1.79972981E+02
  0
LINE
  8
0
 62
4
 10
-1.75760000E+02
 20
-1.77583333E+02
 11
-1.84260000E+02
 21
-1.77583333E+02
  0
LINE
  8
0
 62
4
 10
-1.84260000E+02
 20
-1.60333333E+02
 11
-1.84260000E+02
 21
-2.08833333E+02
  0
LINE
  8
0
 62
6
 10
-1.73760000E+02
 20
-1.78763333E+02
 11
-1.75310000E+02
 21
-1.77863333E+02
  0
LINE
  8
0
 62
4
 10
-1.73760000E+02
 20
-1.77903333E+02
 11
-1.73760000E+02
 21
-1.91273333E+02
  0
LINE
  8
0
 62
4
 10
-1.69760000E+02
 20
-1.78013333E+02
 11
-1.75760000E+02
 21
-1.77853333E+02
  0
LINE
  8
0
 62
6
 10
-1.69760000E+02
 20
-1.78863333E+02
 11
-1.73760000E+02
 21
-1.78753333E+02
  0
LINE
  8
0
 62
4
 10
-1.75760000E+02
 20
-1.77583333E+02
 11
-1.75760000E+02
 21
-1.91583333E+02
  0
LINE
  8
0
 62
4
 10
-1.75760000E+02
 20
-1.91583333E+02
 11
-1.84260000E+02
 21
-1.91583333E+02
  0
LINE
  8
0
 62
6
 10
-1.73760000E+02
 20
-1.90413333E+02
 11
-1.75310000E+02
 21
-1.91313333E+02
  0
LINE
  8
0
 62
4
 10
-1.69760000E+02
 20
-1.91163333E+02
 11
-1.75760000E+02
 21
-1.91323333E+02
  0
LINE
  8
0
 62
6
 10
-1.69760000E+02
 20
-1.90313333E+02
 11
-1.73760000E+02
 21
-1.90413333E+02
  0
LINE
  8
0
 62
4
 10
-2.16260000E+02
 20
-2.10833333E+02
 11
-1.86260000E+02
 21
-2.10833333E+02
  0
LINE
  8
0
  6
PHANTOM
 62
6
 10
-2.03660000E+02
 20
-2.18833333E+02
 11
-2.03660000E+02
 21
-2.41333333E+02
  0
LINE
  8
0
  6
PHANTOM
 62
6
 10
-1.88860000E+02
 20
-2.18833333E+02
 11
-1.88860000E+02
 21
-2.41333333E+02
  0
LINE
  8
0
  6
PHANTOM
 62
6
 10
-1.89360000E+02
 20
-2.41833333E+02
 11
-2.03160000E+02
 21
-2.41833333E+02
  0
LINE
  8
0
  6
PHANTOM
 62
6
 10
-1.99060000E+02
 20
-2.43013333E+02
 11
-1.99060000E+02
 21
-2.42333333E+02
  0
LINE
  8
0
  6
PHANTOM
 62
6
 10
-1.93460000E+02
 20
-2.43013333E+02
 11
-1.93460000E+02
 21
-2.42333333E+02
  0
LINE
  8
0
  6
PHANTOM
 62
6
 10
-1.99510000E+02
 20
-2.42333333E+02
 11
-1.93010000E+02
 21
-2.42333333E+02
  0
LINE
  8
0
  6
PHANTOM
 62
6
 10
-1.99510000E+02
 20
-2.42333333E+02
 11
-1.99510000E+02
 21
-2.41833333E+02
  0
LINE
  8
0
  6
PHANTOM
 62
6
 10
-1.93010000E+02
 20
-2.42333333E+02
 11
-1.93010000E+02
 21
-2.41833333E+02
  0
LINE
  8
0
  6
PHANTOM
 62
6
 10
-2.03660000E+02
 20
-2.19333333E+02
 11
-1.88860000E+02
 21
-2.19333333E+02
  0
LINE
  8
0
  6
PHANTOM
 62
6
 10
-2.04260000E+02
 20
-2.10833333E+02
 11
-2.04260000E+02
 21
-2.18833333E+02
  0
LINE
  8
0
  6
PHANTOM
 62
6
 10
-2.04260000E+02
 20
-2.18833333E+02
 11
-1.88260000E+02
 21
-2.18833333E+02
  0
LINE
  8
0
  6
PHANTOM
 62
6
 10
-2.04260000E+02
 20
-2.11833333E+02
 11
-1.88260000E+02
 21
-2.11833333E+02
  0
LINE
  8
0
  6
PHANTOM
 62
6
 10
-1.95260000E+02
 20
-2.11833333E+02
 11
-1.95260000E+02
 21
-2.23573333E+02
  0
LINE
  8
0
  6
PHANTOM
 62
6
 10
-1.97260000E+02
 20
-2.11833333E+02
 11
-1.97260000E+02
 21
-2.24103333E+02
  0
LINE
  8
0
 62
6
 10
-1.99760000E+02
 20
-2.24773333E+02
 11
-1.92760000E+02
 21
-2.22903333E+02
  0
LINE
  8
0
 62
6
 10
-1.99760000E+02
 20
-2.25813333E+02
 11
-1.92760000E+02
 21
-2.23933333E+02
  0
LINE
  8
0
  6
PHANTOM
 62
6
 10
-1.97260000E+02
 20
-2.31833333E+02
 11
-1.95260000E+02
 21
-2.31833333E+02
  0
LINE
  8
0
  6
PHANTOM
 62
6
 10
-1.95260000E+02
 20
-2.24603333E+02
 11
-1.95260000E+02
 21
-2.31833333E+02
  0
LINE
  8
0
  6
PHANTOM
 62
6
 10
-1.97260000E+02
 20
-2.25143333E+02
 11
-1.97260000E+02
 21
-2.31833333E+02
  0
LINE
  8
0
  6
PHANTOM
 62
6
 10
-1.96760000E+02
 20
-2.36833333E+02
 11
-1.95760000E+02
 21
-2.36833333E+02
  0
LINE
  8
0
  6
PHANTOM
 62
6
 10
-1.95760000E+02
 20
-2.31833333E+02
 11
-1.95760000E+02
 21
-2.36833333E+02
  0
LINE
  8
0
  6
PHANTOM
 62
6
 10
-1.96760000E+02
 20
-2.31833333E+02
 11
-1.96760000E+02
 21
-2.36833333E+02
  0
LINE
  8
0
  6
PHANTOM
 62
6
 10
-1.98760000E+02
 20
-2.11833333E+02
 11
-1.98760000E+02
 21
-2.24503333E+02
  0
LINE
  8
0
  6
PHANTOM
 62
6
 10
-1.93760000E+02
 20
-2.11833333E+02
 11
-1.93760000E+02
 21
-2.23163333E+02
  0
LINE
  8
0
  6
PHANTOM
 62
6
 10
-1.99710000E+02
 20
-2.30423333E+02
 11
-1.98290000E+02
 21
-2.31833333E+02
  0
LINE
  8
0
  6
PHANTOM
 62
6
 10
-2.02890000E+02
 20
-2.34303333E+02
 11
-2.02180000E+02
 21
-2.35013333E+02
  0
LINE
  8
0
  6
PHANTOM
 62
6
 10
-2.02180000E+02
 20
-2.35013333E+02
 11
-1.98650000E+02
 21
-2.31483333E+02
  0
LINE
  8
0
  6
PHANTOM
 62
6
 10
-2.02890000E+02
 20
-2.34303333E+02
 11
-1.99350000E+02
 21
-2.30773333E+02
  0
LINE
  8
0
  6
PHANTOM
 62
6
 10
-1.92810000E+02
 20
-2.30423333E+02
 11
-1.94230000E+02
 21
-2.31833333E+02
  0
LINE
  8
0
  6
PHANTOM
 62
6
 10
-1.89630000E+02
 20
-2.34303333E+02
 11
-1.93170000E+02
 21
-2.30773333E+02
  0
LINE
  8
0
  6
PHANTOM
 62
6
 10
-1.90340000E+02
 20
-2.35013333E+02
 11
-1.93870000E+02
 21
-2.31483333E+02
  0
LINE
  8
0
  6
PHANTOM
 62
6
 10
-1.98760000E+02
 20
-2.25543333E+02
 11
-1.98760000E+02
 21
-2.27833333E+02
  0
LINE
  8
0
  6
PHANTOM
 62
6
 10
-1.93760000E+02
 20
-2.24203333E+02
 11
-1.93760000E+02
 21
-2.27833333E+02
  0
LINE
  8
0
  6
PHANTOM
 62
6
 10
-1.88260000E+02
 20
-2.10833333E+02
 11
-1.88260000E+02
 21
-2.18833333E+02
  0
LINE
  8
0
  6
PHANTOM
 62
6
 10
-1.89630000E+02
 20
-2.34303333E+02
 11
-1.90340000E+02
 21
-2.35013333E+02
  0
ARC
  8
0
 62
4
 10
-2.16257182E+02
 20
-2.07840508E+02
 40
2.99282688E+00
 50
1.79862650E+02
 51
2.69946046E+02
  0
ARC
  8
0
  6
PHANTOM
 62
6
 10
-1.89353594E+02
 20
-2.41339740E+02
 40
4.93635207E-01
 50
2.69256398E+02
 51
7.43601729E-01
  0
ARC
  8
0
  6
PHANTOM
 62
6
 10
-2.03162137E+02
 20
-2.41335470E+02
 40
4.97868033E-01
 50
1.79754120E+02
 51
2.70245880E+02
  0
ARC
  8
0
  6
PHANTOM
 62
6
 10
-1.96260000E+02
 20
-2.39241921E+02
 40
4.99863906E+00
 50
2.40519063E+02
 51
2.99480937E+02
  0
ARC
  8
0
  6
PHANTOM
 62
6
 10
-1.98390867E+02
 20
-2.43010738E+02
 40
6.69137587E-01
 50
1.80222196E+02
 51
2.40536056E+02
  0
ARC
  8
0
  6
PHANTOM
 62
6
 10
-1.94122825E+02
 20
-2.43014436E+02
 40
6.62825532E-01
 50
2.99146419E+02
 51
9.53290371E-02
  0
ARC
  8
0
  6
PHANTOM
 62
6
 10
-2.02754154E+02
 20
-2.27837524E+02
 40
3.99415607E+00
 50
3.19654279E+02
 51
6.01146723E-02
  0
ARC
  8
0
  6
PHANTOM
 62
6
 10
-2.02748967E+02
 20
-2.27831342E+02
 40
5.99152093E+00
 50
3.18091537E+02
 51
3.36365644E+02
  0
ARC
  8
0
  6
PHANTOM
 62
6
 10
-1.89758379E+02
 20
-2.27834785E+02
 40
4.00162085E+00
 50
1.79979211E+02
 51
2.20306395E+02
  0
ARC
  8
0
  6
PHANTOM
 62
6
 10
-1.89765037E+02
 20
-2.27827482E+02
 40
5.99856096E+00
 50
2.03645171E+02
 51
2.21897647E+02
  0
ARC
  8
0
 62
4
 10
-1.86253602E+02
 20
-2.08839731E+02
 40
1.99361251E+00
 50
2.69816130E+02
 51
1.83869682E-01
  0
LINE
  8
0
  6
CENTER
 62
2
 10
-1.42260000E+02
 20
-1.84583333E+02
 11
-2.36750000E+02
 21
-1.84583333E+02
  0
LINE
  8
0
  6
CENTER
 62
2
 10
-1.42260000E+02
 20
-1.40583333E+02
 11
-1.42260000E+02
 21
-2.36763333E+02
  0
LINE
  8
0
 62
7
 10
-3.99250000E+02
 20
-9.24166667E+01
 11
3.99799805E+02
 21
-9.24166667E+01
  0
TEXT
  8
0
 62
7
 10
-3.88350281E+02
 20
-1.05566667E+02
 40
6.30000019E+00
  1
PRESSURE GAUGE
 41
1.04477612E+00
  7
MONOTXT
  0
LINE
  8
0
 62
7
 10
1.49799805E+02
 20
2.76250000E+02
 11
1.49799805E+02
 21
-9.24166667E+01
  0
TEXT
  8
0
 62
7
 10
-3.95800283E+02
 20
2.68100000E+02
 40
6.30000019E+00
  1
F.R.L.LARGE FLOW SERIES
 41
1.05504587E+00
  7
MONOTXT
  0
LINE
  8
0
 62
7
 10
-3.99250000E+02
 20
2.56250000E+02
 11
-2.49250000E+02
 21
2.56250000E+02
  0
TEXT
  8
0
 62
7
 10
-3.58000282E+02
 20
2.58100000E+02
 40
6.30000019E+00
  1
CONBINATION
 41
1.00000000E+00
  7
MONOTXT
  0
LINE
  8
0
 62
7
 10
-2.49250000E+02
 20
2.76250000E+02
 11
-2.49250000E+02
 21
2.56250000E+02
  0
ARC
  8
0
 62
7
 10
2.99604557E+02
 20
-9.69677158E+00
 40
2.99491999E+00
 50
2.99909914E+02
 51
3.58162573E+02
  0
ARC
  8
0
 62
7
 10
2.84424590E+02
 20
-1.84652458E+01
 40
2.98756125E+00
 50
2.69872421E+02
 51
2.99990413E+02
  0
ARC
  8
0
 62
7
 10
2.53631472E+02
 20
-1.84645456E+01
 40
2.98826106E+00
 50
2.40013197E+02
 51
2.70123969E+02
  0
ARC
  8
0
 62
7
 10
2.38453367E+02
 20
-9.69554156E+00
 40
2.99700864E+00
 50
1.81859673E+02
 51
2.40067840E+02
  0
LINE
  8
0
 62
4
 10
2.71877937E+02
 20
-4.29527996E+01
 11
2.71877937E+02
 21
-4.48527996E+01
  0
LINE
  8
0
 62
4
 10
2.72277937E+02
 20
-4.48527996E+01
 11
2.71817937E+02
 21
-4.74527996E+01
  0
LINE
  8
0
 62
4
 10
2.72277937E+02
 20
-4.74527996E+01
 11
2.71817937E+02
 21
-5.00527996E+01
  0
LINE
  8
0
 62
4
 10
2.66237937E+02
 20
-5.00527996E+01
 11
2.71817937E+02
 21
-5.00527996E+01
  0
LINE
  8
0
 62
4
 10
2.65777937E+02
 20
-4.74527996E+01
 11
2.66237937E+02
 21
-5.00527996E+01
  0
LINE
  8
0
 62
4
 10
2.65777937E+02
 20
-4.74527996E+01
 11
2.72277937E+02
 21
-4.74527996E+01
  0
LINE
  8
0
 62
4
 10
2.65777937E+02
 20
-4.48527996E+01
 11
2.66237937E+02
 21
-4.74527996E+01
  0
LINE
  8
0
 62
4
 10
2.65777937E+02
 20
-4.48527996E+01
 11
2.72277937E+02
 21
-4.48527996E+01
  0
LINE
  8
0
 62
4
 10
2.66177937E+02
 20
-4.29527996E+01
 11
2.66177937E+02
 21
-4.48527996E+01
  0
LINE
  8
0
  6
CENTER
 62
2
 10
2.69017937E+02
 20
1.38272004E+01
 11
2.69017937E+02
 21
-5.41727996E+01
  0
LINE
  8
0
  6
CENTER
 62
2
 10
2.05017937E+02
 20
1.38416679E+02
 11
3.33017937E+02
 21
1.38416679E+02
  0
LINE
  8
0
  6
CENTER
 62
2
 10
2.69017937E+02
 20
1.68416679E+02
 11
2.69017937E+02
 21
1.23416679E+02
  0
LINE
  8
0
 62
4
 10
2.76617937E+02
 20
-4.05527996E+01
 11
2.76037937E+02
 21
-4.10527996E+01
  0
LINE
  8
0
 62
4
 10
2.61417937E+02
 20
-4.05527996E+01
 11
2.62017937E+02
 21
-4.10527996E+01
  0
LINE
  8
0
 62
4
 10
2.75457937E+02
 20
-3.11327996E+01
 11
2.76037937E+02
 21
-3.13527996E+01
  0
LINE
  8
0
 62
4
 10
2.62017937E+02
 20
-3.13527996E+01
 11
2.62577937E+02
 21
-3.11327996E+01
  0
LINE
  8
0
 62
4
 10
2.64697937E+02
 20
-4.05527996E+01
 11
2.65357937E+02
 21
-4.10527996E+01
  0
LINE
  8
0
 62
4
 10
2.73337937E+02
 20
-4.05527996E+01
 11
2.72677937E+02
 21
-4.10527996E+01
  0
LINE
  8
0
 62
4
 10
2.72677937E+02
 20
-3.13527996E+01
 11
2.73337937E+02
 21
-3.10527996E+01
  0
LINE
  8
0
 62
4
 10
2.64697937E+02
 20
-3.10527996E+01
 11
2.65357937E+02
 21
-3.13527996E+01
  0
LINE
  8
0
 62
4
 10
2.67517937E+02
 20
-4.05527996E+01
 11
2.67177937E+02
 21
-4.10527996E+01
  0
LINE
  8
0
 62
4
 10
2.70517937E+02
 20
-4.05527996E+01
 11
2.70857937E+02
 21
-4.10527996E+01
  0
LINE
  8
0
 62
4
 10
2.70517937E+02
 20
-3.10527996E+01
 11
2.70857937E+02
 21
-3.13527996E+01
  0
LINE
  8
0
 62
4
 10
2.67177937E+02
 20
-3.13527996E+01
 11
2.67517937E+02
 21
-3.10527996E+01
  0
LINE
  8
0
 62
4
 10
2.76617937E+02
 20
-3.10527996E+01
 11
2.76617937E+02
 21
-4.05527996E+01
  0
LINE
  8
0
 62
4
 10
2.61417937E+02
 20
-3.10527996E+01
 11
2.61417937E+02
 21
-4.05527996E+01
  0
LINE
  8
0
 62
4
 10
2.76037937E+02
 20
-3.13527996E+01
 11
2.76037937E+02
 21
-4.10527996E+01
  0
LINE
  8
0
 62
4
 10
2.62017937E+02
 20
-3.13527996E+01
 11
2.62017937E+02
 21
-4.10527996E+01
  0
LINE
  8
0
 62
4
 10
2.75457937E+02
 20
-3.10527996E+01
 11
2.75457937E+02
 21
-4.10527996E+01
  0
LINE
  8
0
 62
4
 10
2.62577937E+02
 20
-3.10527996E+01
 11
2.62577937E+02
 21
-4.10527996E+01
  0
LINE
  8
0
 62
4
 10
2.76037937E+02
 20
-4.10527996E+01
 11
2.76277937E+02
 21
-4.10527996E+01
  0
LINE
  8
0
 62
4
 10
2.76617937E+02
 20
-4.05527996E+01
 11
2.76777937E+02
 21
-4.05527996E+01
  0
LINE
  8
0
 62
4
 10
2.62577937E+02
 20
-4.10527996E+01
 11
2.65357937E+02
 21
-4.10527996E+01
  0
LINE
  8
0
 62
4
 10
2.62577937E+02
 20
-4.05527996E+01
 11
2.64697937E+02
 21
-4.05527996E+01
  0
LINE
  8
0
 62
4
 10
2.65357937E+02
 20
-3.13527996E+01
 11
2.67177937E+02
 21
-3.13527996E+01
  0
LINE
  8
0
 62
4
 10
2.64697937E+02
 20
-3.10527996E+01
 11
2.67517937E+02
 21
-3.10527996E+01
  0
LINE
  8
0
 62
4
 10
2.76037937E+02
 20
-3.13527996E+01
 11
2.76617937E+02
 21
-3.13527996E+01
  0
LINE
  8
0
 62
4
 10
2.75457937E+02
 20
-3.10527996E+01
 11
2.76617937E+02
 21
-3.10527996E+01
  0
LINE
  8
0
 62
4
 10
2.73337937E+02
 20
-3.10527996E+01
 11
2.73337937E+02
 21
-4.05527996E+01
  0
LINE
  8
0
 62
4
 10
2.64697937E+02
 20
-3.10527996E+01
 11
2.64697937E+02
 21
-4.05527996E+01
  0
LINE
  8
0
 62
4
 10
2.65357937E+02
 20
-3.13527996E+01
 11
2.65357937E+02
 21
-4.10527996E+01
  0
LINE
  8
0
 62
4
 10
2.72677937E+02
 20
-3.13527996E+01
 11
2.72677937E+02
 21
-4.10527996E+01
  0
LINE
  8
0
 62
4
 10
2.72677937E+02
 20
-4.10527996E+01
 11
2.75457937E+02
 21
-4.10527996E+01
  0
LINE
  8
0
 62
4
 10
2.67177937E+02
 20
-4.10527996E+01
 11
2.70857937E+02
 21
-4.10527996E+01
  0
LINE
  8
0
 62
4
 10
2.67177937E+02
 20
-3.13527996E+01
 11
2.67177937E+02
 21
-4.10527996E+01
  0
LINE
  8
0
 62
4
 10
2.70857937E+02
 20
-3.13527996E+01
 11
2.70857937E+02
 21
-4.10527996E+01
  0
LINE
  8
0
 62
4
 10
2.61777937E+02
 20
-4.10527996E+01
 11
2.62017937E+02
 21
-4.10527996E+01
  0
LINE
  8
0
 62
4
 10
2.73337937E+02
 20
-4.05527996E+01
 11
2.75457937E+02
 21
-4.05527996E+01
  0
LINE
  8
0
 62
4
 10
2.67517937E+02
 20
-4.05527996E+01
 11
2.70517937E+02
 21
-4.05527996E+01
  0
LINE
  8
0
 62
4
 10
2.70857937E+02
 20
-3.13527996E+01
 11
2.72677937E+02
 21
-3.13527996E+01
  0
LINE
  8
0
 62
4
 10
2.70517937E+02
 20
-3.10527996E+01
 11
2.73337937E+02
 21
-3.10527996E+01
  0
LINE
  8
0
 62
4
 10
2.70517937E+02
 20
-3.10527996E+01
 11
2.70517937E+02
 21
-4.05527996E+01
  0
LINE
  8
0
 62
4
 10
2.67517937E+02
 20
-3.10527996E+01
 11
2.67517937E+02
 21
-4.05527996E+01
  0
LINE
  8
0
 62
4
 10
2.61277937E+02
 20
-4.05527996E+01
 11
2.61417937E+02
 21
-4.05527996E+01
  0
LINE
  8
0
 62
4
 10
2.61417937E+02
 20
-3.13527996E+01
 11
2.62017937E+02
 21
-3.13527996E+01
  0
LINE
  8
0
 62
4
 10
2.62517937E+02
 20
-4.24527996E+01
 11
2.75517937E+02
 21
-4.24527996E+01
  0
LINE
  8
0
 62
4
 10
2.75517937E+02
 20
-4.24527996E+01
 11
2.75017937E+02
 21
-4.29527996E+01
  0
LINE
  8
0
 62
4
 10
2.62517937E+02
 20
-4.24527996E+01
 11
2.63017937E+02
 21
-4.29527996E+01
  0
LINE
  8
0
 62
4
 10
2.75517937E+02
 20
-4.15527996E+01
 11
2.75517937E+02
 21
-4.24527996E+01
  0
LINE
  8
0
 62
4
 10
2.62517937E+02
 20
-4.15527996E+01
 11
2.62517937E+02
 21
-4.24527996E+01
  0
LINE
  8
0
 62
4
 10
2.63017937E+02
 20
-4.29527996E+01
 11
2.75017937E+02
 21
-4.29527996E+01
  0
LINE
  8
0
 62
4
 10
2.61277937E+02
 20
-2.85527996E+01
 11
2.76777937E+02
 21
-2.85527996E+01
  0
LINE
  8
0
 62
4
 10
2.60937937E+02
 20
-2.63527996E+01
 11
2.77097937E+02
 21
-2.63527996E+01
  0
LINE
  8
0
 62
4
 10
2.77097937E+02
 20
-2.63527996E+01
 11
2.76597937E+02
 21
-2.68527996E+01
  0
LINE
  8
0
 62
4
 10
2.60937937E+02
 20
-2.63527996E+01
 11
2.61437937E+02
 21
-2.68527996E+01
  0
LINE
  8
0
 62
4
 10
2.75017937E+02
 20
-2.68527996E+01
 11
2.75017937E+02
 21
-2.80527996E+01
  0
LINE
  8
0
 62
4
 10
2.63017937E+02
 20
-2.68527996E+01
 11
2.63017937E+02
 21
-2.80527996E+01
  0
LINE
  8
0
 62
4
 10
2.76277937E+02
 20
-2.80527996E+01
 11
2.76777937E+02
 21
-2.85527996E+01
  0
LINE
  8
0
 62
4
 10
2.61277937E+02
 20
-2.85527996E+01
 11
2.61777937E+02
 21
-2.80527996E+01
  0
LINE
  8
0
 62
4
 10
2.61777937E+02
 20
-2.80527996E+01
 11
2.76277937E+02
 21
-2.80527996E+01
  0
LINE
  8
0
 62
4
 10
2.61417937E+02
 20
-3.10527996E+01
 11
2.62577937E+02
 21
-3.10527996E+01
  0
LINE
  8
0
 62
4
 10
2.75777937E+02
 20
-4.15527996E+01
 11
2.76777937E+02
 21
-4.05527996E+01
  0
LINE
  8
0
 62
4
 10
2.61277937E+02
 20
-4.05527996E+01
 11
2.62277937E+02
 21
-4.15527996E+01
  0
LINE
  8
0
 62
4
 10
2.76777937E+02
 20
-2.85527996E+01
 11
2.76777937E+02
 21
-4.05527996E+01
  0
LINE
  8
0
 62
4
 10
2.61277937E+02
 20
-2.85527996E+01
 11
2.61277937E+02
 21
-4.05527996E+01
  0
LINE
  8
0
 62
4
 10
2.62277937E+02
 20
-4.15527996E+01
 11
2.75777937E+02
 21
-4.15527996E+01
  0
LINE
  8
0
 62
4
 10
2.60937937E+02
 20
-2.14527996E+01
 11
2.60937937E+02
 21
-2.63527996E+01
  0
LINE
  8
0
 62
4
 10
2.77097937E+02
 20
-2.14527996E+01
 11
2.77097937E+02
 21
-2.63527996E+01
  0
LINE
  8
0
 62
4
 10
2.61437937E+02
 20
-2.68527996E+01
 11
2.76597937E+02
 21
-2.68527996E+01
  0
LINE
  8
0
 62
7
 10
3.27517937E+02
 20
1.63416679E+02
 11
3.27517937E+02
 21
1.23416679E+02
  0
LINE
  8
0
 62
7
 10
2.10517937E+02
 20
1.63416679E+02
 11
2.10517937E+02
 21
1.23416679E+02
  0
LINE
  8
0
 62
7
 10
3.01097937E+02
 20
-1.22927996E+01
 11
2.85917937E+02
 21
-2.10527996E+01
  0
LINE
  8
0
 62
7
 10
2.36957937E+02
 20
-1.22927996E+01
 11
2.52137937E+02
 21
-2.10527996E+01
  0
LINE
  8
0
 62
7
 10
3.03417937E+02
 20
1.37272004E+01
 11
3.02597937E+02
 21
-9.79279963E+00
  0
LINE
  8
0
 62
7
 10
2.34637937E+02
 20
1.37272004E+01
 11
2.35457937E+02
 21
-9.79279963E+00
  0
LINE
  8
0
 62
7
 10
2.38017937E+02
 20
-1.14527996E+01
 11
3.00017937E+02
 21
-1.14527996E+01
  0
LINE
  8
0
 62
7
 10
2.53637937E+02
 20
-2.14527996E+01
 11
2.84417937E+02
 21
-2.14527996E+01
  0
LINE
  8
0
 62
7
 10
2.30017937E+02
 20
1.53416679E+02
 11
2.29137937E+02
 21
1.52576679E+02
  0
LINE
  8
0
 62
7
 10
2.16017937E+02
 20
1.53416679E+02
 11
2.16897937E+02
 21
1.52576679E+02
  0
LINE
  8
0
 62
7
 10
2.16897937E+02
 20
1.24256679E+02
 11
2.16017937E+02
 21
1.23416679E+02
  0
LINE
  8
0
 62
7
 10
2.30017937E+02
 20
1.23416679E+02
 11
2.29137937E+02
 21
1.24256679E+02
  0
LINE
  8
0
 62
7
 10
2.29137937E+02
 20
1.24256679E+02
 11
2.16897937E+02
 21
1.24256679E+02
  0
LINE
  8
0
 62
7
 10
2.29137937E+02
 20
1.52576679E+02
 11
2.16897937E+02
 21
1.52576679E+02
  0
LINE
  8
0
 62
7
 10
2.16897937E+02
 20
1.52576679E+02
 11
2.16897937E+02
 21
1.24256679E+02
  0
LINE
  8
0
 62
7
 10
2.29137937E+02
 20
1.52576679E+02
 11
2.29137937E+02
 21
1.24256679E+02
  0
LINE
  8
0
 62
7
 10
2.30017937E+02
 20
1.23416679E+02
 11
2.16017937E+02
 21
1.23416679E+02
  0
LINE
  8
0
 62
7
 10
2.30017937E+02
 20
1.53416679E+02
 11
2.16017937E+02
 21
1.53416679E+02
  0
LINE
  8
0
 62
7
 10
2.30017937E+02
 20
1.53416679E+02
 11
2.30017937E+02
 21
1.23416679E+02
  0
LINE
  8
0
 62
7
 10
2.16017937E+02
 20
1.53416679E+02
 11
2.16017937E+02
 21
1.23416679E+02
  0
LINE
  8
0
 62
7
 10
3.08017937E+02
 20
1.53416679E+02
 11
3.08897937E+02
 21
1.52576679E+02
  0
LINE
  8
0
 62
7
 10
3.22017937E+02
 20
1.53416679E+02
 11
3.21137937E+02
 21
1.52576679E+02
  0
LINE
  8
0
 62
7
 10
3.21137937E+02
 20
1.24256679E+02
 11
3.22017937E+02
 21
1.23416679E+02
  0
LINE
  8
0
 62
7
 10
3.08017937E+02
 20
1.23416679E+02
 11
3.08897937E+02
 21
1.24256679E+02
  0
LINE
  8
0
 62
7
 10
3.08897937E+02
 20
1.24256679E+02
 11
3.21137937E+02
 21
1.24256679E+02
  0
LINE
  8
0
 62
7
 10
3.08897937E+02
 20
1.52576679E+02
 11
3.21137937E+02
 21
1.52576679E+02
  0
LINE
  8
0
 62
7
 10
3.21137937E+02
 20
1.52576679E+02
 11
3.21137937E+02
 21
1.24256679E+02
  0
LINE
  8
0
 62
7
 10
3.08897937E+02
 20
1.52576679E+02
 11
3.08897937E+02
 21
1.24256679E+02
  0
LINE
  8
0
 62
7
 10
3.08017937E+02
 20
1.23416679E+02
 11
3.22017937E+02
 21
1.23416679E+02
  0
LINE
  8
0
 62
7
 10
3.08017937E+02
 20
1.53416679E+02
 11
3.22017937E+02
 21
1.53416679E+02
  0
LINE
  8
0
 62
7
 10
2.33197937E+02
 20
1.58916679E+02
 11
3.04857937E+02
 21
1.58916679E+02
  0
LINE
  8
0
 62
7
 10
3.04857937E+02
 20
1.58916679E+02
 11
3.03237937E+02
 21
1.60416679E+02
  0
LINE
  8
0
 62
7
 10
2.33197937E+02
 20
1.58916679E+02
 11
2.34797937E+02
 21
1.60416679E+02
  0
LINE
  8
0
 62
7
 10
3.06097937E+02
 20
1.23416679E+02
 11
3.04857937E+02
 21
1.58916679E+02
  0
LINE
  8
0
 62
7
 10
2.31957937E+02
 20
1.23416679E+02
 11
2.33197937E+02
 21
1.58916679E+02
  0
LINE
  8
0
 62
7
 10
3.08017937E+02
 20
1.53416679E+02
 11
3.08017937E+02
 21
1.23416679E+02
  0
LINE
  8
0
 62
7
 10
3.22017937E+02
 20
1.53416679E+02
 11
3.22017937E+02
 21
1.23416679E+02
  0
LINE
  8
0
 62
7
 10
2.34797937E+02
 20
1.60416679E+02
 11
3.03237937E+02
 21
1.60416679E+02
  0
LINE
  8
0
 62
7
 10
2.09017937E+02
 20
1.61916679E+02
 11
3.29017937E+02
 21
1.61916679E+02
  0
LINE
  8
0
 62
7
 10
3.27517937E+02
 20
1.63416679E+02
 11
3.29017937E+02
 21
1.61916679E+02
  0
LINE
  8
0
 62
7
 10
2.09017937E+02
 20
1.61916679E+02
 11
2.10517937E+02
 21
1.63416679E+02
  0
LINE
  8
0
 62
7
 10
2.09017937E+02
 20
1.61916679E+02
 11
2.09017937E+02
 21
1.23416679E+02
  0
LINE
  8
0
 62
7
 10
3.29017937E+02
 20
1.61916679E+02
 11
3.29017937E+02
 21
1.23416679E+02
  0
LINE
  8
0
 62
7
 10
2.10517937E+02
 20
1.63416679E+02
 11
3.27517937E+02
 21
1.63416679E+02
  0
TEXT
  8
0
 62
7
 10
2.59862847E+02
 20
2.28268011E+02
 40
6.30000019E+00
  1
-DU
 41
1.00000000E+00
  7
MONOTXT
  0
TEXT
  8
0
 62
7
 10
2.96366626E+02
 20
-5.09798615E+01
 40
6.30000019E+00
  1
-F1,-A
 41
1.00000000E+00
  7
MONOTXT
  0
LINE
  8
0
  6
CENTER
 62
2
 10
-3.04250000E+02
 20
-1.40583333E+02
 11
-3.04250000E+02
 21
-2.33533333E+02
  0
LINE
  8
0
  6
PHANTOM
 62
6
 10
-2.03660000E+02
 20
-2.19333333E+02
 11
-1.88860000E+02
 21
-2.19333333E+02
  0
LINE
  8
0
  6
PHANTOM
 62
6
 10
-2.04260000E+02
 20
-2.10833333E+02
 11
-2.04260000E+02
 21
-2.18833333E+02
  0
LINE
  8
0
  6
PHANTOM
 62
6
 10
-2.04260000E+02
 20
-2.18833333E+02
 11
-1.88260000E+02
 21
-2.18833333E+02
  0
LINE
  8
0
  6
PHANTOM
 62
6
 10
-2.04260000E+02
 20
-2.11833333E+02
 11
-1.88260000E+02
 21
-2.11833333E+02
  0
LINE
  8
0
  6
PHANTOM
 62
6
 10
-1.95260000E+02
 20
-2.11833333E+02
 11
-1.95260000E+02
 21
-2.23573333E+02
  0
LINE
  8
0
  6
PHANTOM
 62
6
 10
-1.97260000E+02
 20
-2.11833333E+02
 11
-1.97260000E+02
 21
-2.24103333E+02
  0
LINE
  8
0
 62
6
 10
-1.99760000E+02
 20
-2.24773333E+02
 11
-1.92760000E+02
 21
-2.22903333E+02
  0
LINE
  8
0
 62
6
 10
-1.99760000E+02
 20
-2.25813333E+02
 11
-1.92760000E+02
 21
-2.23933333E+02
  0
LINE
  8
0
  6
PHANTOM
 62
6
 10
-1.97260000E+02
 20
-2.31833333E+02
 11
-1.95260000E+02
 21
-2.31833333E+02
  0
LINE
  8
0
  6
PHANTOM
 62
6
 10
-1.95260000E+02
 20
-2.24603333E+02
 11
-1.95260000E+02
 21
-2.31833333E+02
  0
LINE
  8
0
  6
PHANTOM
 62
6
 10
-1.97260000E+02
 20
-2.25143333E+02
 11
-1.97260000E+02
 21
-2.31833333E+02
  0
LINE
  8
0
  6
PHANTOM
 62
6
 10
-1.96760000E+02
 20
-2.36833333E+02
 11
-1.95760000E+02
 21
-2.36833333E+02
  0
LINE
  8
0
  6
PHANTOM
 62
6
 10
-1.95760000E+02
 20
-2.31833333E+02
 11
-1.95760000E+02
 21
-2.36833333E+02
  0
LINE
  8
0
  6
PHANTOM
 62
6
 10
-1.96760000E+02
 20
-2.31833333E+02
 11
-1.96760000E+02
 21
-2.36833333E+02
  0
LINE
  8
0
  6
PHANTOM
 62
6
 10
-1.98760000E+02
 20
-2.11833333E+02
 11
-1.98760000E+02
 21
-2.24503333E+02
  0
LINE
  8
0
  6
PHANTOM
 62
6
 10
-1.93760000E+02
 20
-2.11833333E+02
 11
-1.93760000E+02
 21
-2.23163333E+02
  0
LINE
  8
0
  6
PHANTOM
 62
6
 10
-1.99710000E+02
 20
-2.30423333E+02
 11
-1.98290000E+02
 21
-2.31833333E+02
  0
LINE
  8
0
  6
PHANTOM
 62
6
 10
-2.02890000E+02
 20
-2.34303333E+02
 11
-2.02180000E+02
 21
-2.35013333E+02
  0
LINE
  8
0
  6
PHANTOM
 62
6
 10
-2.02180000E+02
 20
-2.35013333E+02
 11
-1.98650000E+02
 21
-2.31483333E+02
  0
LINE
  8
0
  6
PHANTOM
 62
6
 10
-2.02890000E+02
 20
-2.34303333E+02
 11
-1.99350000E+02
 21
-2.30773333E+02
  0
LINE
  8
0
  6
PHANTOM
 62
6
 10
-1.92810000E+02
 20
-2.30423333E+02
 11
-1.94230000E+02
 21
-2.31833333E+02
  0
LINE
  8
0
  6
PHANTOM
 62
6
 10
-1.89630000E+02
 20
-2.34303333E+02
 11
-1.93170000E+02
 21
-2.30773333E+02
  0
LINE
  8
0
  6
PHANTOM
 62
6
 10
-1.90340000E+02
 20
-2.35013333E+02
 11
-1.93870000E+02
 21
-2.31483333E+02
  0
LINE
  8
0
  6
PHANTOM
 62
6
 10
-1.98760000E+02
 20
-2.25543333E+02
 11
-1.98760000E+02
 21
-2.27833333E+02
  0
LINE
  8
0
  6
PHANTOM
 62
6
 10
-1.93760000E+02
 20
-2.24203333E+02
 11
-1.93760000E+02
 21
-2.27833333E+02
  0
LINE
  8
0
 62
7
 10
-2.81510000E+02
 20
-2.21583333E+02
 11
-2.82550000E+02
 21
-2.22583333E+02
  0
LINE
  8
0
 62
7
 10
-2.54250000E+02
 20
-1.61083333E+02
 11
-2.54250000E+02
 21
-2.08083333E+02
  0
LINE
  8
0
 62
7
 10
-3.52750000E+02
 20
-1.59583333E+02
 11
-3.11810000E+02
 21
-1.59583333E+02
  0
LINE
  8
0
 62
7
 10
-3.54250000E+02
 20
-1.61083333E+02
 11
-3.52750000E+02
 21
-1.59583333E+02
  0
LINE
  8
0
 62
7
 10
-2.54250000E+02
 20
-1.61083333E+02
 11
-2.55750000E+02
 21
-1.59583333E+02
  0
LINE
  8
0
 62
7
 10
-3.54250000E+02
 20
-1.61083333E+02
 11
-3.12970000E+02
 21
-1.61083333E+02
  0
LINE
  8
0
 62
7
 10
-3.24000000E+02
 20
-1.58583333E+02
 11
-3.24000000E+02
 21
-1.59583333E+02
  0
LINE
  8
0
 62
7
 10
-3.49250000E+02
 20
-1.58583333E+02
 11
-3.49250000E+02
 21
-1.59583333E+02
  0
LINE
  8
0
 62
7
 10
-3.38250000E+02
 20
-1.58583333E+02
 11
-3.38250000E+02
 21
-1.59583333E+02
  0
LINE
  8
0
 62
7
 10
-3.49250000E+02
 20
-1.58583333E+02
 11
-3.38250000E+02
 21
-1.58583333E+02
  0
LINE
  8
0
 62
7
 10
-3.52750000E+02
 20
-2.09583333E+02
 11
-3.20450000E+02
 21
-2.09583333E+02
  0
LINE
  8
0
 62
7
 10
-3.32250000E+02
 20
-2.11583333E+02
 11
-2.76250000E+02
 21
-2.11583333E+02
  0
LINE
  8
0
 62
7
 10
-3.54250000E+02
 20
-2.08083333E+02
 11
-3.52750000E+02
 21
-2.09583333E+02
  0
LINE
  8
0
 62
7
 10
-2.55750000E+02
 20
-2.09583333E+02
 11
-2.54250000E+02
 21
-2.08083333E+02
  0
LINE
  8
0
 62
7
 10
-3.54250000E+02
 20
-2.08083333E+02
 11
-3.18950000E+02
 21
-2.08083333E+02
  0
LINE
  8
0
 62
7
 10
-3.49250000E+02
 20
-2.10583333E+02
 11
-3.38250000E+02
 21
-2.10583333E+02
  0
LINE
  8
0
 62
7
 10
-3.49250000E+02
 20
-2.10583333E+02
 11
-3.49250000E+02
 21
-2.09583333E+02
  0
LINE
  8
0
 62
7
 10
-3.38250000E+02
 20
-2.10583333E+02
 11
-3.38250000E+02
 21
-2.09583333E+02
  0
LINE
  8
0
 62
7
 10
-3.33250000E+02
 20
-2.09583333E+02
 11
-3.33250000E+02
 21
-2.10583333E+02
  0
LINE
  8
0
 62
7
 10
-3.33250000E+02
 20
-2.10583333E+02
 11
-3.32250000E+02
 21
-2.11583333E+02
  0
LINE
  8
0
 62
7
 10
-2.76250000E+02
 20
-2.11583333E+02
 11
-2.75500000E+02
 21
-2.10833333E+02
  0
LINE
  8
0
 62
7
 10
-3.33250000E+02
 20
-2.10583333E+02
 11
-3.10060000E+02
 21
-2.10583333E+02
  0
LINE
  8
0
 62
7
 10
-3.18950000E+02
 20
-2.08083333E+02
 11
-3.18950000E+02
 21
-1.92583333E+02
  0
LINE
  8
0
 62
7
 10
-3.18950000E+02
 20
-2.08083333E+02
 11
-3.20450000E+02
 21
-2.09583333E+02
  0
LINE
  8
0
 62
7
 10
-3.17950000E+02
 20
-1.91583333E+02
 11
-3.18950000E+02
 21
-1.92583333E+02
  0
LINE
  8
0
 62
7
 10
-3.33250000E+02
 20
-1.69583333E+02
 11
-3.33250000E+02
 21
-1.99583333E+02
  0
LINE
  8
0
 62
7
 10
-3.54250000E+02
 20
-1.61083333E+02
 11
-3.54250000E+02
 21
-2.08083333E+02
  0
LINE
  8
0
 62
7
 10
-3.52750000E+02
 20
-2.09583333E+02
 11
-3.52750000E+02
 21
-1.59583333E+02
  0
LINE
  8
0
 62
7
 10
-3.47250000E+02
 20
-1.69583333E+02
 11
-3.33250000E+02
 21
-1.69583333E+02
  0
LINE
  8
0
 62
7
 10
-3.47250000E+02
 20
-1.99583333E+02
 11
-3.33250000E+02
 21
-1.99583333E+02
  0
LINE
  8
0
 62
7
 10
-3.34130000E+02
 20
-1.70203333E+02
 11
-3.34130000E+02
 21
-1.98973333E+02
  0
LINE
  8
0
 62
7
 10
-3.46370000E+02
 20
-1.70203333E+02
 11
-3.34130000E+02
 21
-1.70203333E+02
  0
LINE
  8
0
 62
7
 10
-3.46370000E+02
 20
-1.98973333E+02
 11
-3.34130000E+02
 21
-1.98973333E+02
  0
LINE
  8
0
 62
7
 10
-3.34130000E+02
 20
-1.98973333E+02
 11
-3.33250000E+02
 21
-1.99583333E+02
  0
LINE
  8
0
 62
7
 10
-3.33250000E+02
 20
-1.69583333E+02
 11
-3.34130000E+02
 21
-1.70203333E+02
  0
LINE
  8
0
 62
7
 10
-3.24250000E+02
 20
-1.58583333E+02
 11
-3.10060000E+02
 21
-1.58583333E+02
  0
LINE
  8
0
 62
7
 10
-2.93220000E+02
 20
-1.49583333E+02
 11
-2.94200000E+02
 21
-1.48583333E+02
  0
LINE
  8
0
 62
7
 10
-2.85740000E+02
 20
-1.55583333E+02
 11
-2.84660000E+02
 21
-1.56163333E+02
  0
LINE
  8
0
 62
7
 10
-3.00250000E+02
 20
-1.56163333E+02
 11
-2.99960000E+02
 21
-1.55583333E+02
  0
LINE
  8
0
 62
7
 10
-2.94200000E+02
 20
-1.55583333E+02
 11
-2.93220000E+02
 21
-1.56163333E+02
  0
LINE
  8
0
 62
7
 10
-3.23250000E+02
 20
-1.48583333E+02
 11
-2.85250000E+02
 21
-1.48583333E+02
  0
LINE
  8
0
 62
7
 10
-2.84250000E+02
 20
-1.49583333E+02
 11
-2.84250000E+02
 21
-1.58333333E+02
  0
LINE
  8
0
 62
7
 10
-3.24250000E+02
 20
-1.49583333E+02
 11
-3.24250000E+02
 21
-1.58583333E+02
  0
LINE
  8
0
 62
7
 10
-3.24250000E+02
 20
-1.49583333E+02
 11
-3.23250000E+02
 21
-1.48583333E+02
  0
LINE
  8
0
 62
7
 10
-2.84250000E+02
 20
-1.49583333E+02
 11
-2.85250000E+02
 21
-1.48583333E+02
  0
LINE
  8
0
 62
7
 10
-3.22760000E+02
 20
-1.55583333E+02
 11
-3.20940000E+02
 21
-1.55583333E+02
  0
LINE
  8
0
 62
7
 10
-3.23850000E+02
 20
-1.56163333E+02
 11
-3.20940000E+02
 21
-1.56163333E+02
  0
LINE
  8
0
 62
7
 10
-3.08250000E+02
 20
-1.49583333E+02
 11
-3.08250000E+02
 21
-1.56163333E+02
  0
LINE
  8
0
 62
7
 10
-3.00250000E+02
 20
-1.49583333E+02
 11
-3.00250000E+02
 21
-1.56163333E+02
  0
LINE
  8
0
 62
7
 10
-2.99960000E+02
 20
-1.48583333E+02
 11
-2.99960000E+02
 21
-1.55583333E+02
  0
LINE
  8
0
 62
7
 10
-3.08540000E+02
 20
-1.48583333E+02
 11
-3.08540000E+02
 21
-1.55583333E+02
  0
LINE
  8
0
 62
7
 10
-3.24250000E+02
 20
-1.49583333E+02
 11
-3.23850000E+02
 21
-1.49583333E+02
  0
LINE
  8
0
 62
7
 10
-3.08250000E+02
 20
-1.49583333E+02
 11
-3.00250000E+02
 21
-1.49583333E+02
  0
LINE
  8
0
 62
7
 10
-2.93220000E+02
 20
-1.49583333E+02
 11
-2.87570000E+02
 21
-1.49583333E+02
  0
LINE
  8
0
 62
7
 10
-2.99960000E+02
 20
-1.55583333E+02
 11
-2.94200000E+02
 21
-1.55583333E+02
  0
LINE
  8
0
 62
7
 10
-3.00250000E+02
 20
-1.56163333E+02
 11
-2.93220000E+02
 21
-1.56163333E+02
  0
LINE
  8
0
 62
7
 10
-3.14300000E+02
 20
-1.48583333E+02
 11
-3.14300000E+02
 21
-1.55583333E+02
  0
LINE
  8
0
 62
7
 10
-2.94200000E+02
 20
-1.48583333E+02
 11
-2.94200000E+02
 21
-1.55583333E+02
  0
LINE
  8
0
 62
7
 10
-3.14300000E+02
 20
-1.55583333E+02
 11
-3.08540000E+02
 21
-1.55583333E+02
  0
LINE
  8
0
 62
7
 10
-2.87570000E+02
 20
-1.55583333E+02
 11
-2.85740000E+02
 21
-1.55583333E+02
  0
LINE
  8
0
 62
7
 10
-3.15280000E+02
 20
-1.49583333E+02
 11
-3.15280000E+02
 21
-1.56163333E+02
  0
LINE
  8
0
 62
7
 10
-2.93220000E+02
 20
-1.49583333E+02
 11
-2.93220000E+02
 21
-1.56163333E+02
  0
LINE
  8
0
 62
7
 10
-3.15280000E+02
 20
-1.56163333E+02
 11
-3.08250000E+02
 21
-1.56163333E+02
  0
LINE
  8
0
 62
7
 10
-2.87570000E+02
 20
-1.56163333E+02
 11
-2.84660000E+02
 21
-1.56163333E+02
  0
LINE
  8
0
 62
7
 10
-2.87570000E+02
 20
-1.49583333E+02
 11
-2.87570000E+02
 21
-1.56163333E+02
  0
LINE
  8
0
 62
7
 10
-3.20940000E+02
 20
-1.49583333E+02
 11
-3.20940000E+02
 21
-1.56163333E+02
  0
LINE
  8
0
 62
7
 10
-2.84660000E+02
 20
-1.49583333E+02
 11
-2.84250000E+02
 21
-1.49583333E+02
  0
LINE
  8
0
 62
7
 10
-3.20940000E+02
 20
-1.49583333E+02
 11
-3.15280000E+02
 21
-1.49583333E+02
  0
LINE
  8
0
 62
7
 10
-3.20940000E+02
 20
-1.49583333E+02
 11
-3.20370000E+02
 21
-1.48583333E+02
  0
LINE
  8
0
 62
7
 10
-2.88130000E+02
 20
-1.48583333E+02
 11
-2.87570000E+02
 21
-1.49583333E+02
  0
LINE
  8
0
 62
7
 10
-2.85740000E+02
 20
-1.48583333E+02
 11
-2.85740000E+02
 21
-1.55583333E+02
  0
LINE
  8
0
 62
7
 10
-3.22760000E+02
 20
-1.48583333E+02
 11
-3.22760000E+02
 21
-1.55583333E+02
  0
LINE
  8
0
 62
7
 10
-2.84660000E+02
 20
-1.49583333E+02
 11
-2.84660000E+02
 21
-1.56163333E+02
  0
LINE
  8
0
 62
7
 10
-3.23850000E+02
 20
-1.49583333E+02
 11
-3.23850000E+02
 21
-1.56163333E+02
  0
LINE
  8
0
 62
7
 10
-3.22760000E+02
 20
-1.55583333E+02
 11
-3.23850000E+02
 21
-1.56163333E+02
  0
LINE
  8
0
 62
7
 10
-3.14300000E+02
 20
-1.55583333E+02
 11
-3.15280000E+02
 21
-1.56163333E+02
  0
LINE
  8
0
 62
7
 10
-3.15280000E+02
 20
-1.49583333E+02
 11
-3.14300000E+02
 21
-1.48583333E+02
  0
LINE
  8
0
 62
7
 10
-3.08540000E+02
 20
-1.48583333E+02
 11
-3.08250000E+02
 21
-1.49583333E+02
  0
LINE
  8
0
 62
7
 10
-3.08540000E+02
 20
-1.55583333E+02
 11
-3.08250000E+02
 21
-1.56163333E+02
  0
LINE
  8
0
 62
7
 10
-3.00250000E+02
 20
-1.49583333E+02
 11
-2.99960000E+02
 21
-1.48583333E+02
  0
LINE
  8
0
 62
7
 10
-2.84660000E+02
 20
-1.49583333E+02
 11
-2.85740000E+02
 21
-1.48583333E+02
  0
LINE
  8
0
 62
7
 10
-3.23850000E+02
 20
-1.49583333E+02
 11
-3.22760000E+02
 21
-1.48583333E+02
  0
LINE
  8
0
 62
7
 10
-3.32750000E+02
 20
-2.12583333E+02
 11
-2.75750000E+02
 21
-2.12583333E+02
  0
LINE
  8
0
 62
7
 10
-3.32750000E+02
 20
-2.12583333E+02
 11
-3.32750000E+02
 21
-2.21583333E+02
  0
LINE
  8
0
 62
7
 10
-2.75750000E+02
 20
-2.12583333E+02
 11
-2.75750000E+02
 21
-2.21583333E+02
  0
LINE
  8
0
 62
7
 10
-3.14740000E+02
 20
-2.12583333E+02
 11
-3.14740000E+02
 21
-2.21583333E+02
  0
LINE
  8
0
 62
7
 10
-2.93760000E+02
 20
-2.12583333E+02
 11
-2.93760000E+02
 21
-2.21583333E+02
  0
LINE
  8
0
 62
2
 10
-3.14740000E+02
 20
-2.12583333E+02
 11
-2.93760000E+02
 21
-2.21583333E+02
  0
LINE
  8
0
 62
2
 10
-2.93760000E+02
 20
-2.12583333E+02
 11
-3.14740000E+02
 21
-2.21583333E+02
  0
LINE
  8
0
 62
7
 10
-3.26750000E+02
 20
-2.11583333E+02
 11
-3.26750000E+02
 21
-2.12583333E+02
  0
LINE
  8
0
 62
2
 10
-3.25750000E+02
 20
-2.11583333E+02
 11
-3.25750000E+02
 21
-2.12583333E+02
  0
LINE
  8
0
 62
2
 10
-2.82750000E+02
 20
-2.11583333E+02
 11
-2.82750000E+02
 21
-2.12583333E+02
  0
LINE
  8
0
 62
7
 10
-2.81750000E+02
 20
-2.11583333E+02
 11
-2.81750000E+02
 21
-2.12583333E+02
  0
LINE
  8
0
 62
7
 10
-2.55750000E+02
 20
-2.09583333E+02
 11
-2.55750000E+02
 21
-1.59583333E+02
  0
LINE
  8
0
 62
7
 10
-3.31750000E+02
 20
-2.22583333E+02
 11
-2.76750000E+02
 21
-2.22583333E+02
  0
LINE
  8
0
 62
7
 10
-3.32750000E+02
 20
-2.21583333E+02
 11
-3.31750000E+02
 21
-2.22583333E+02
  0
LINE
  8
0
 62
7
 10
-2.75750000E+02
 20
-2.21583333E+02
 11
-2.76750000E+02
 21
-2.22583333E+02
  0
LINE
  8
0
 62
7
 10
-3.32750000E+02
 20
-2.21583333E+02
 11
-3.32540000E+02
 21
-2.21583333E+02
  0
LINE
  8
0
 62
7
 10
-2.93760000E+02
 20
-2.21583333E+02
 11
-2.87360000E+02
 21
-2.21583333E+02
  0
LINE
  8
0
 62
7
 10
-2.87360000E+02
 20
-2.14583333E+02
 11
-2.81510000E+02
 21
-2.14583333E+02
  0
LINE
  8
0
 62
7
 10
-2.87080000E+02
 20
-2.15583333E+02
 11
-2.82550000E+02
 21
-2.15583333E+02
  0
LINE
  8
0
 62
7
 10
-2.87080000E+02
 20
-2.15583333E+02
 11
-2.87080000E+02
 21
-2.22583333E+02
  0
LINE
  8
0
 62
7
 10
-2.87360000E+02
 20
-2.14583333E+02
 11
-2.87360000E+02
 21
-2.21583333E+02
  0
LINE
  8
0
 62
7
 10
-3.21430000E+02
 20
-2.15583333E+02
 11
-3.21430000E+02
 21
-2.22583333E+02
  0
LINE
  8
0
 62
7
 10
-3.21140000E+02
 20
-2.14583333E+02
 11
-3.21140000E+02
 21
-2.21583333E+02
  0
LINE
  8
0
 62
7
 10
-3.21140000E+02
 20
-2.21583333E+02
 11
-3.14740000E+02
 21
-2.21583333E+02
  0
LINE
  8
0
 62
7
 10
-2.81510000E+02
 20
-2.21583333E+02
 11
-2.78010000E+02
 21
-2.21583333E+02
  0
LINE
  8
0
 62
7
 10
-2.82550000E+02
 20
-2.15583333E+02
 11
-2.82550000E+02
 21
-2.22583333E+02
  0
LINE
  8
0
 62
7
 10
-2.81510000E+02
 20
-2.14583333E+02
 11
-2.81510000E+02
 21
-2.21583333E+02
  0
LINE
  8
0
 62
7
 10
-3.27000000E+02
 20
-2.14583333E+02
 11
-3.27000000E+02
 21
-2.21583333E+02
  0
LINE
  8
0
 62
7
 10
-3.25950000E+02
 20
-2.15583333E+02
 11
-3.25950000E+02
 21
-2.22583333E+02
  0
LINE
  8
0
 62
7
 10
-3.27000000E+02
 20
-2.14583333E+02
 11
-3.21140000E+02
 21
-2.14583333E+02
  0
LINE
  8
0
 62
7
 10
-3.25950000E+02
 20
-2.15583333E+02
 11
-3.21430000E+02
 21
-2.15583333E+02
  0
LINE
  8
0
 62
7
 10
-2.78010000E+02
 20
-2.14583333E+02
 11
-2.75970000E+02
 21
-2.14583333E+02
  0
LINE
  8
0
 62
7
 10
-2.78010000E+02
 20
-2.15583333E+02
 11
-2.77010000E+02
 21
-2.15583333E+02
  0
LINE
  8
0
 62
7
 10
-2.78010000E+02
 20
-2.14583333E+02
 11
-2.78010000E+02
 21
-2.21583333E+02
  0
LINE
  8
0
 62
7
 10
-3.30500000E+02
 20
-2.14583333E+02
 11
-3.30500000E+02
 21
-2.21583333E+02
  0
LINE
  8
0
 62
7
 10
-3.32540000E+02
 20
-2.14583333E+02
 11
-3.30500000E+02
 21
-2.14583333E+02
  0
LINE
  8
0
 62
7
 10
-3.31490000E+02
 20
-2.15583333E+02
 11
-3.30500000E+02
 21
-2.15583333E+02
  0
LINE
  8
0
 62
7
 10
-3.30500000E+02
 20
-2.21583333E+02
 11
-3.27000000E+02
 21
-2.21583333E+02
  0
LINE
  8
0
 62
7
 10
-2.75970000E+02
 20
-2.21583333E+02
 11
-2.75750000E+02
 21
-2.21583333E+02
  0
LINE
  8
0
 62
7
 10
-3.30500000E+02
 20
-2.21583333E+02
 11
-3.29730000E+02
 21
-2.22583333E+02
  0
LINE
  8
0
 62
7
 10
-2.78010000E+02
 20
-2.21583333E+02
 11
-2.78770000E+02
 21
-2.22583333E+02
  0
LINE
  8
0
 62
7
 10
-2.77010000E+02
 20
-2.15583333E+02
 11
-2.77010000E+02
 21
-2.22583333E+02
  0
LINE
  8
0
 62
7
 10
-2.75970000E+02
 20
-2.14583333E+02
 11
-2.75970000E+02
 21
-2.21583333E+02
  0
LINE
  8
0
 62
7
 10
-3.31490000E+02
 20
-2.15583333E+02
 11
-3.31490000E+02
 21
-2.22583333E+02
  0
LINE
  8
0
 62
7
 10
-3.32540000E+02
 20
-2.14583333E+02
 11
-3.32540000E+02
 21
-2.21583333E+02
  0
LINE
  8
0
 62
7
 10
-3.32540000E+02
 20
-2.21583333E+02
 11
-3.31490000E+02
 21
-2.22583333E+02
  0
LINE
  8
0
 62
7
 10
-3.32540000E+02
 20
-2.14583333E+02
 11
-3.31490000E+02
 21
-2.15583333E+02
  0
LINE
  8
0
 62
7
 10
-2.77010000E+02
 20
-2.22583333E+02
 11
-2.75970000E+02
 21
-2.21583333E+02
  0
LINE
  8
0
 62
7
 10
-2.77010000E+02
 20
-2.15583333E+02
 11
-2.75970000E+02
 21
-2.14583333E+02
  0
LINE
  8
0
 62
7
 10
-3.27000000E+02
 20
-2.21583333E+02
 11
-3.25950000E+02
 21
-2.22583333E+02
  0
LINE
  8
0
 62
7
 10
-3.25950000E+02
 20
-2.15583333E+02
 11
-3.27000000E+02
 21
-2.14583333E+02
  0
LINE
  8
0
 62
7
 10
-3.21430000E+02
 20
-2.15583333E+02
 11
-3.21140000E+02
 21
-2.14583333E+02
  0
LINE
  8
0
 62
7
 10
-3.21430000E+02
 20
-2.22583333E+02
 11
-3.21150000E+02
 21
-2.21583333E+02
  0
LINE
  8
0
 62
7
 10
-2.87080000E+02
 20
-2.15583333E+02
 11
-2.87360000E+02
 21
-2.14583333E+02
  0
LINE
  8
0
 62
7
 10
-2.87080000E+02
 20
-2.22583333E+02
 11
-2.87360000E+02
 21
-2.21583333E+02
  0
LINE
  8
0
 62
7
 10
-2.82550000E+02
 20
-2.15583333E+02
 11
-2.81510000E+02
 21
-2.14583333E+02
  0
LINE
  8
0
 62
7
 10
-3.17950000E+02
 20
-1.91583333E+02
 11
-3.13500000E+02
 21
-1.91583333E+02
  0
LINE
  8
0
 62
7
 10
-3.18950000E+02
 20
-1.92583333E+02
 11
-3.13500000E+02
 21
-1.92583333E+02
  0
LINE
  8
0
 62
7
 10
-2.62690000E+02
 20
-1.59583333E+02
 11
-2.55750000E+02
 21
-1.59583333E+02
  0
LINE
  8
0
 62
7
 10
-2.61540000E+02
 20
-1.61083333E+02
 11
-2.54250000E+02
 21
-1.61083333E+02
  0
LINE
  8
0
 62
7
 10
-2.62690000E+02
 20
-2.09583333E+02
 11
-2.55750000E+02
 21
-2.09583333E+02
  0
LINE
  8
0
 62
7
 10
-2.61540000E+02
 20
-2.08083333E+02
 11
-2.54250000E+02
 21
-2.08083333E+02
  0
LINE
  8
0
 62
7
 10
-3.47250000E+02
 20
-1.69583333E+02
 11
-3.46370000E+02
 21
-1.70203333E+02
  0
LINE
  8
0
 62
7
 10
-3.46370000E+02
 20
-1.70203333E+02
 11
-3.46370000E+02
 21
-1.98973333E+02
  0
LINE
  8
0
 62
7
 10
-3.47250000E+02
 20
-1.69583333E+02
 11
-3.47250000E+02
 21
-1.99583333E+02
  0
LINE
  8
0
 62
7
 10
-3.46370000E+02
 20
-1.98973333E+02
 11
-3.47250000E+02
 21
-1.99583333E+02
  0
LINE
  8
0
 62
7
 10
-1.97260000E+02
 20
-2.24583333E+02
 11
-1.42260000E+02
 21
-2.24583333E+02
  0
LINE
  8
0
 62
7
 10
-1.63760000E+02
 20
-2.23583333E+02
 11
-1.42260000E+02
 21
-2.23583333E+02
  0
LINE
  8
0
  6
PHANTOM
 62
6
 10
-1.88260000E+02
 20
-2.10833333E+02
 11
-1.88260000E+02
 21
-2.18833333E+02
  0
LINE
  8
0
  6
PHANTOM
 62
6
 10
-1.89630000E+02
 20
-2.34303333E+02
 11
-1.90340000E+02
 21
-2.35013333E+02
  0
LINE
  8
0
 62
7
 10
-1.62260000E+02
 20
-1.58583333E+02
 11
-1.42260000E+02
 21
-1.58583333E+02
  0
LINE
  8
0
 62
7
 10
-1.65760000E+02
 20
-1.59583333E+02
 11
-1.42260000E+02
 21
-1.59583333E+02
  0
LINE
  8
0
 62
7
 10
-1.65760000E+02
 20
-2.09583333E+02
 11
-1.42260000E+02
 21
-2.09583333E+02
  0
LINE
  8
0
 62
7
 10
-1.70260000E+02
 20
-2.11583333E+02
 11
-1.42260000E+02
 21
-2.11583333E+02
  0
LINE
  8
0
 62
7
 10
-1.67260000E+02
 20
-1.61083333E+02
 11
-1.67260000E+02
 21
-2.08083333E+02
  0
LINE
  8
0
 62
7
 10
-1.62010000E+02
 20
-1.58583333E+02
 11
-1.62010000E+02
 21
-1.59583333E+02
  0
LINE
  8
0
 62
7
 10
-1.71260000E+02
 20
-1.92583333E+02
 11
-1.71260000E+02
 21
-2.10583333E+02
  0
LINE
  8
0
 62
7
 10
-1.71260000E+02
 20
-2.10583333E+02
 11
-1.70260000E+02
 21
-2.11583333E+02
  0
LINE
  8
0
 62
7
 10
-1.71260000E+02
 20
-2.10583333E+02
 11
-1.42260000E+02
 21
-2.10583333E+02
  0
LINE
  8
0
 62
7
 10
-1.67260000E+02
 20
-2.08083333E+02
 11
-1.65760000E+02
 21
-2.09583333E+02
  0
LINE
  8
0
 62
7
 10
-1.67260000E+02
 20
-1.61083333E+02
 11
-1.65760000E+02
 21
-1.59583333E+02
  0
LINE
  8
0
 62
7
 10
-1.67260000E+02
 20
-2.08083333E+02
 11
-1.42260000E+02
 21
-2.08083333E+02
  0
LINE
  8
0
 62
7
 10
-1.67260000E+02
 20
-1.61083333E+02
 11
-1.42260000E+02
 21
-1.61083333E+02
  0
LINE
  8
0
 62
7
 10
-1.65760000E+02
 20
-2.09583333E+02
 11
-1.65760000E+02
 21
-1.59583333E+02
  0
LINE
  8
0
 62
7
 10
-1.70260000E+02
 20
-1.91583333E+02
 11
-1.69760000E+02
 21
-1.91583333E+02
  0
LINE
  8
0
 62
7
 10
-1.71260000E+02
 20
-1.92583333E+02
 11
-1.70260000E+02
 21
-1.91583333E+02
  0
LINE
  8
0
 62
7
 10
-1.71260000E+02
 20
-1.92583333E+02
 11
-1.69760000E+02
 21
-1.92583333E+02
  0
LINE
  8
0
 62
7
 10
-1.69760000E+02
 20
-1.75583333E+02
 11
-1.69760000E+02
 21
-1.93583333E+02
  0
LINE
  8
0
 62
7
 10
-1.68760000E+02
 20
-1.74583333E+02
 11
-1.67260000E+02
 21
-1.74583333E+02
  0
LINE
  8
0
 62
7
 10
-1.69760000E+02
 20
-1.75583333E+02
 11
-1.68760000E+02
 21
-1.74583333E+02
  0
LINE
  8
0
 62
7
 10
-1.68760000E+02
 20
-1.74583333E+02
 11
-1.68760000E+02
 21
-1.94583333E+02
  0
LINE
  8
0
 62
7
 10
-1.68760000E+02
 20
-1.94583333E+02
 11
-1.67260000E+02
 21
-1.94583333E+02
  0
LINE
  8
0
 62
7
 10
-1.69760000E+02
 20
-1.93583333E+02
 11
-1.68760000E+02
 21
-1.94583333E+02
  0
LINE
  8
0
  6
CENTER
 62
2
 10
-1.51260000E+02
 20
-1.81583333E+02
 11
-1.42260000E+02
 21
-1.81583333E+02
  0
LINE
  8
0
 62
7
 10
-1.61260000E+02
 20
-1.48583333E+02
 11
-1.42260000E+02
 21
-1.48583333E+02
  0
LINE
  8
0
 62
7
 10
-1.62260000E+02
 20
-1.49583333E+02
 11
-1.62260000E+02
 21
-1.58583333E+02
  0
LINE
  8
0
 62
7
 10
-1.62260000E+02
 20
-1.49583333E+02
 11
-1.61260000E+02
 21
-1.48583333E+02
  0
LINE
  8
0
 62
7
 10
-1.60770000E+02
 20
-1.55583333E+02
 11
-1.58950000E+02
 21
-1.55583333E+02
  0
LINE
  8
0
 62
7
 10
-1.61860000E+02
 20
-1.56163333E+02
 11
-1.58950000E+02
 21
-1.56163333E+02
  0
LINE
  8
0
 62
7
 10
-1.46260000E+02
 20
-1.49583333E+02
 11
-1.46260000E+02
 21
-1.56163333E+02
  0
LINE
  8
0
 62
7
 10
-1.46550000E+02
 20
-1.48583333E+02
 11
-1.46550000E+02
 21
-1.55583333E+02
  0
LINE
  8
0
 62
7
 10
-1.62260000E+02
 20
-1.49583333E+02
 11
-1.61860000E+02
 21
-1.49583333E+02
  0
LINE
  8
0
 62
7
 10
-1.46260000E+02
 20
-1.49583333E+02
 11
-1.42260000E+02
 21
-1.49583333E+02
  0
LINE
  8
0
 62
7
 10
-1.52310000E+02
 20
-1.48583333E+02
 11
-1.52310000E+02
 21
-1.55583333E+02
  0
LINE
  8
0
 62
7
 10
-1.52310000E+02
 20
-1.55583333E+02
 11
-1.46550000E+02
 21
-1.55583333E+02
  0
LINE
  8
0
 62
7
 10
-1.53290000E+02
 20
-1.49583333E+02
 11
-1.53290000E+02
 21
-1.56163333E+02
  0
LINE
  8
0
 62
7
 10
-1.53290000E+02
 20
-1.56163333E+02
 11
-1.46260000E+02
 21
-1.56163333E+02
  0
LINE
  8
0
 62
7
 10
-1.58950000E+02
 20
-1.49583333E+02
 11
-1.58950000E+02
 21
-1.56163333E+02
  0
LINE
  8
0
 62
7
 10
-1.58950000E+02
 20
-1.49583333E+02
 11
-1.53290000E+02
 21
-1.49583333E+02
  0
LINE
  8
0
 62
7
 10
-1.58950000E+02
 20
-1.49583333E+02
 11
-1.58380000E+02
 21
-1.48583333E+02
  0
LINE
  8
0
 62
7
 10
-1.60770000E+02
 20
-1.48583333E+02
 11
-1.60770000E+02
 21
-1.55583333E+02
  0
LINE
  8
0
 62
7
 10
-1.61860000E+02
 20
-1.49583333E+02
 11
-1.61860000E+02
 21
-1.56163333E+02
  0
LINE
  8
0
 62
7
 10
-1.60770000E+02
 20
-1.55583333E+02
 11
-1.61860000E+02
 21
-1.56163333E+02
  0
LINE
  8
0
 62
7
 10
-1.52310000E+02
 20
-1.55583333E+02
 11
-1.53290000E+02
 21
-1.56163333E+02
  0
LINE
  8
0
 62
7
 10
-1.53290000E+02
 20
-1.49583333E+02
 11
-1.52310000E+02
 21
-1.48583333E+02
  0
LINE
  8
0
 62
7
 10
-1.46550000E+02
 20
-1.48583333E+02
 11
-1.46260000E+02
 21
-1.49583333E+02
  0
LINE
  8
0
 62
7
 10
-1.46550000E+02
 20
-1.55583333E+02
 11
-1.46260000E+02
 21
-1.56163333E+02
  0
LINE
  8
0
 62
7
 10
-1.61860000E+02
 20
-1.49583333E+02
 11
-1.60770000E+02
 21
-1.48583333E+02
  0
LINE
  8
0
 62
7
 10
-1.70760000E+02
 20
-2.12583333E+02
 11
-1.42260000E+02
 21
-2.12583333E+02
  0
LINE
  8
0
 62
7
 10
-1.70760000E+02
 20
-2.12583333E+02
 11
-1.70760000E+02
 21
-2.21583333E+02
  0
LINE
  8
0
 62
7
 10
-1.69760000E+02
 20
-2.22583333E+02
 11
-1.42260000E+02
 21
-2.22583333E+02
  0
LINE
  8
0
 62
7
 10
-1.70760000E+02
 20
-2.21583333E+02
 11
-1.69760000E+02
 21
-2.22583333E+02
  0
LINE
  8
0
 62
7
 10
-1.70760000E+02
 20
-2.21583333E+02
 11
-1.70540000E+02
 21
-2.21583333E+02
  0
LINE
  8
0
 62
7
 10
-1.45760000E+02
 20
-2.21583333E+02
 11
-1.42260000E+02
 21
-2.21583333E+02
  0
LINE
  8
0
 62
7
 10
-1.53370000E+02
 20
-2.14583333E+02
 11
-1.45760000E+02
 21
-2.14583333E+02
  0
LINE
  8
0
 62
7
 10
-1.52610000E+02
 20
-2.15583333E+02
 11
-1.46040000E+02
 21
-2.15583333E+02
  0
LINE
  8
0
 62
7
 10
-1.45760000E+02
 20
-2.14583333E+02
 11
-1.45760000E+02
 21
-2.21583333E+02
  0
LINE
  8
0
 62
7
 10
-1.46040000E+02
 20
-2.15583333E+02
 11
-1.46040000E+02
 21
-2.22583333E+02
  0
LINE
  8
0
 62
7
 10
-1.53370000E+02
 20
-2.14583333E+02
 11
-1.53370000E+02
 21
-2.21583333E+02
  0
LINE
  8
0
 62
7
 10
-1.52610000E+02
 20
-2.15583333E+02
 11
-1.52610000E+02
 21
-2.22583333E+02
  0
LINE
  8
0
 62
7
 10
-1.59430000E+02
 20
-2.15583333E+02
 11
-1.59430000E+02
 21
-2.22583333E+02
  0
LINE
  8
0
 62
7
 10
-1.59150000E+02
 20
-2.14583333E+02
 11
-1.59150000E+02
 21
-2.21583333E+02
  0
LINE
  8
0
 62
7
 10
-1.59150000E+02
 20
-2.21583333E+02
 11
-1.53370000E+02
 21
-2.21583333E+02
  0
LINE
  8
0
 62
7
 10
-1.65010000E+02
 20
-2.14583333E+02
 11
-1.65010000E+02
 21
-2.21583333E+02
  0
LINE
  8
0
 62
7
 10
-1.63960000E+02
 20
-2.15583333E+02
 11
-1.63960000E+02
 21
-2.22583333E+02
  0
LINE
  8
0
 62
7
 10
-1.65010000E+02
 20
-2.14583333E+02
 11
-1.59150000E+02
 21
-2.14583333E+02
  0
LINE
  8
0
 62
7
 10
-1.63960000E+02
 20
-2.15583333E+02
 11
-1.59430000E+02
 21
-2.15583333E+02
  0
LINE
  8
0
 62
7
 10
-1.68510000E+02
 20
-2.14583333E+02
 11
-1.68510000E+02
 21
-2.21583333E+02
  0
LINE
  8
0
 62
7
 10
-1.70540000E+02
 20
-2.14583333E+02
 11
-1.68510000E+02
 21
-2.14583333E+02
  0
LINE
  8
0
 62
7
 10
-1.69500000E+02
 20
-2.15583333E+02
 11
-1.68510000E+02
 21
-2.15583333E+02
  0
LINE
  8
0
 62
7
 10
-1.68510000E+02
 20
-2.21583333E+02
 11
-1.65010000E+02
 21
-2.21583333E+02
  0
LINE
  8
0
 62
7
 10
-1.68510000E+02
 20
-2.21583333E+02
 11
-1.67740000E+02
 21
-2.22583333E+02
  0
LINE
  8
0
 62
7
 10
-1.69500000E+02
 20
-2.15583333E+02
 11
-1.69500000E+02
 21
-2.22583333E+02
  0
LINE
  8
0
 62
7
 10
-1.70540000E+02
 20
-2.14583333E+02
 11
-1.70540000E+02
 21
-2.21583333E+02
  0
LINE
  8
0
 62
7
 10
-1.70540000E+02
 20
-2.21583333E+02
 11
-1.69500000E+02
 21
-2.22583333E+02
  0
LINE
  8
0
 62
7
 10
-1.70540000E+02
 20
-2.14583333E+02
 11
-1.69500000E+02
 21
-2.15583333E+02
  0
LINE
  8
0
 62
7
 10
-1.65000000E+02
 20
-2.21583333E+02
 11
-1.63960000E+02
 21
-2.22583333E+02
  0
LINE
  8
0
 62
7
 10
-1.63960000E+02
 20
-2.15583333E+02
 11
-1.65000000E+02
 21
-2.14583333E+02
  0
LINE
  8
0
 62
7
 10
-1.59430000E+02
 20
-2.15583333E+02
 11
-1.59150000E+02
 21
-2.14583333E+02
  0
LINE
  8
0
 62
7
 10
-1.59430000E+02
 20
-2.22583333E+02
 11
-1.59150000E+02
 21
-2.21583333E+02
  0
LINE
  8
0
 62
7
 10
-1.53370000E+02
 20
-2.21583333E+02
 11
-1.52610000E+02
 21
-2.22583333E+02
  0
LINE
  8
0
 62
7
 10
-1.53370000E+02
 20
-2.14583333E+02
 11
-1.52610000E+02
 21
-2.15583333E+02
  0
LINE
  8
0
 62
7
 10
-1.46040000E+02
 20
-2.15583333E+02
 11
-1.45760000E+02
 21
-2.14583333E+02
  0
LINE
  8
0
 62
7
 10
-1.45760000E+02
 20
-2.21583333E+02
 11
-1.46040000E+02
 21
-2.22583333E+02
  0
LINE
  8
0
 62
2
 10
-1.63760000E+02
 20
-2.11583333E+02
 11
-1.63760000E+02
 21
-2.12583333E+02
  0
LINE
  8
0
 62
7
 10
-1.63760000E+02
 20
-2.23583333E+02
 11
-1.62030000E+02
 21
-2.24583333E+02
  0
LINE
  8
0
 62
7
 10
-1.63760000E+02
 20
-2.22583333E+02
 11
-1.63760000E+02
 21
-2.23583333E+02
  0
LINE
  8
0
 62
7
 10
-1.64760000E+02
 20
-2.11583333E+02
 11
-1.64760000E+02
 21
-2.12583333E+02
  0
LINE
  8
0
 62
7
 10
-1.97260000E+02
 20
-2.11583333E+02
 11
-1.97260000E+02
 21
-2.34753333E+02
  0
LINE
  8
0
 62
7
 10
-1.79760000E+02
 20
-2.11583333E+02
 11
-1.79760000E+02
 21
-2.17683333E+02
  0
LINE
  8
0
 62
7
 10
-1.95260000E+02
 20
-2.18183333E+02
 11
-1.80260000E+02
 21
-2.18183333E+02
  0
LINE
  8
0
  6
CENTER
 62
2
 10
-1.87260000E+02
 20
-2.05583333E+02
 11
-1.87260000E+02
 21
-2.22183333E+02
  0
LINE
  8
0
 62
7
 10
-1.84410000E+02
 20
-2.09583333E+02
 11
-1.71260000E+02
 21
-2.09583333E+02
  0
LINE
  8
0
 62
7
 10
-1.60960000E+02
 20
-2.34583333E+02
 11
-1.72730000E+02
 21
-2.34583333E+02
  0
LINE
  8
0
 62
7
 10
-1.74760000E+02
 20
-1.67083333E+02
 11
-1.74760000E+02
 21
-1.77873333E+02
  0
LINE
  8
0
 62
7
 10
-1.69260000E+02
 20
-1.61583333E+02
 11
-1.67260000E+02
 21
-1.61583333E+02
  0
LINE
  8
0
 62
7
 10
-1.74760000E+02
 20
-1.67083333E+02
 11
-1.69260000E+02
 21
-1.61583333E+02
  0
LINE
  8
0
 62
7
 10
-1.74760000E+02
 20
-2.02083333E+02
 11
-1.71260000E+02
 21
-2.05583333E+02
  0
LINE
  8
0
 62
7
 10
-1.69260000E+02
 20
-1.61583333E+02
 11
-1.69260000E+02
 21
-1.75083333E+02
  0
LINE
  8
0
 62
7
 10
-3.25750000E+02
 20
-2.23583333E+02
 11
-2.82750000E+02
 21
-2.23583333E+02
  0
LINE
  8
0
 62
7
 10
-2.82750000E+02
 20
-2.22583333E+02
 11
-2.82750000E+02
 21
-2.23583333E+02
  0
LINE
  8
0
 62
7
 10
-2.82750000E+02
 20
-2.23583333E+02
 11
-2.84480000E+02
 21
-2.24583333E+02
  0
LINE
  8
0
 62
7
 10
-3.24020000E+02
 20
-2.24583333E+02
 11
-2.84480000E+02
 21
-2.24583333E+02
  0
LINE
  8
0
 62
7
 10
-3.25750000E+02
 20
-2.22583333E+02
 11
-3.25750000E+02
 21
-2.23583333E+02
  0
LINE
  8
0
 62
7
 10
-3.25750000E+02
 20
-2.23583333E+02
 11
-3.24020000E+02
 21
-2.24583333E+02
  0
LINE
  8
0
 62
7
 10
-1.61310000E+02
 20
-2.24583333E+02
 11
-1.60820000E+02
 21
-2.38483333E+02
  0
LINE
  8
0
 62
7
 10
-1.54020000E+02
 20
-2.24583333E+02
 11
-1.54020000E+02
 21
-2.39443333E+02
  0
LINE
  8
0
 62
7
 10
-1.48180000E+02
 20
-2.24583333E+02
 11
-1.48180000E+02
 21
-2.38723333E+02
  0
LINE
  8
0
 62
7
 10
-2.98340000E+02
 20
-2.24583333E+02
 11
-2.98340000E+02
 21
-2.34703333E+02
  0
LINE
  8
0
 62
7
 10
-2.92490000E+02
 20
-2.24583333E+02
 11
-2.92490000E+02
 21
-2.35123333E+02
  0
LINE
  8
0
 62
7
 10
-2.85200000E+02
 20
-2.24583333E+02
 11
-2.85550000E+02
 21
-2.34623333E+02
  0
LINE
  8
0
 62
7
 10
-1.74760000E+02
 20
-1.91303333E+02
 11
-1.74760000E+02
 21
-2.02083333E+02
  0
LINE
  8
0
 62
7
 10
-1.93760000E+02
 20
-2.10833333E+02
 11
-1.93760000E+02
 21
-2.18183333E+02
  0
LINE
  8
0
 62
7
 10
-1.80760000E+02
 20
-2.10683333E+02
 11
-1.85500000E+02
 21
-2.10683333E+02
  0
LINE
  8
0
 62
7
 10
-1.80760000E+02
 20
-2.10683333E+02
 11
-1.81630000E+02
 21
-2.10183333E+02
  0
LINE
  8
0
 62
7
 10
-1.80760000E+02
 20
-2.10683333E+02
 11
-1.80760000E+02
 21
-2.18183333E+02
  0
LINE
  8
0
 62
7
 10
-3.23300000E+02
 20
-2.24583333E+02
 11
-3.23040000E+02
 21
-2.32133333E+02
  0
LINE
  8
0
 62
7
 10
-3.16020000E+02
 20
-2.24583333E+02
 11
-3.16020000E+02
 21
-2.31623333E+02
  0
LINE
  8
0
 62
7
 10
-3.10170000E+02
 20
-2.24583333E+02
 11
-3.10170000E+02
 21
-2.32263333E+02
  0
LINE
  8
0
 62
7
 10
-1.46590000E+02
 20
-1.76083333E+02
 11
-1.42260000E+02
 21
-1.76083333E+02
  0
LINE
  8
0
 62
7
 10
-1.46590000E+02
 20
-1.87083333E+02
 11
-1.42260000E+02
 21
-1.87083333E+02
  0
LINE
  8
0
 62
7
 10
-1.81630000E+02
 20
-2.10183333E+02
 11
-1.84780000E+02
 21
-2.10183333E+02
  0
LINE
  8
0
 62
7
 10
-1.70260000E+02
 20
-1.62583333E+02
 11
-1.84260000E+02
 21
-1.62583333E+02
  0
LINE
  8
0
 62
7
 10
-1.71760000E+02
 20
-1.64083333E+02
 11
-1.84260000E+02
 21
-1.64083333E+02
  0
ARC
  8
0
  6
PHANTOM
 62
6
 10
-2.02754154E+02
 20
-2.27837524E+02
 40
3.99415607E+00
 50
3.19654279E+02
 51
6.01146723E-02
  0
ARC
  8
0
  6
PHANTOM
 62
6
 10
-2.02748967E+02
 20
-2.27831342E+02
 40
5.99152093E+00
 50
3.18091537E+02
 51
3.36365644E+02
  0
ARC
  8
0
  6
PHANTOM
 62
6
 10
-1.89758379E+02
 20
-2.27834785E+02
 40
4.00162085E+00
 50
1.79979211E+02
 51
2.20306395E+02
  0
ARC
  8
0
  6
PHANTOM
 62
6
 10
-1.89765037E+02
 20
-2.27827482E+02
 40
5.99856096E+00
 50
2.03645171E+02
 51
2.21897647E+02
  0
ARC
  8
0
 62
7
 10
-3.04250000E+02
 20
-1.67091074E+02
 40
5.54927606E+01
 50
2.59103604E+02
 51
2.80896396E+02
  0
ARC
  8
0
 62
7
 10
-1.42260000E+02
 20
-1.84588333E+02
 40
1.20550007E+01
 50
9.00000002E+01
 51
2.70000000E+02
  0
ARC
  8
0
 62
2
 10
-1.42260000E+02
 20
-1.84588333E+02
 40
1.32250007E+01
 50
9.00000002E+01
 51
2.70000000E+02
  0
ARC
  8
0
 62
7
 10
-1.42260000E+02
 20
-1.84583333E+02
 40
2.10000004E+01
 50
9.00000002E+01
 51
2.70000000E+02
  0
ARC
  8
0
 62
7
 10
-1.42255763E+02
 20
-1.81583333E+02
 40
7.00254293E+00
 50
1.28239631E+02
 51
2.31760369E+02
  0
ARC
  8
0
 62
7
 10
-1.95253597E+02
 20
-2.20189737E+02
 40
2.00641340E+00
 50
9.01828516E+01
 51
1.79817148E+02
  0
ARC
  8
0
 62
7
 10
-1.95256228E+02
 20
-2.11594088E+02
 40
2.00380106E+00
 50
1.57687644E+02
 51
1.79692491E+02
  0
ARC
  8
0
 62
7
 10
-1.80253588E+02
 20
-2.17689746E+02
 40
4.93629316E-01
 50
2.69255696E+02
 51
7.44303528E-01
  0
ARC
  8
0
 62
7
 10
-1.77753600E+02
 20
-2.11589733E+02
 40
2.00641034E+00
 50
9.01827646E+01
 51
1.79817235E+02
  0
POLYLINE
  8
0
 62
2
 66
1
  0
VERTEX
  8
0
 62
2
 10
-3.23039705E+02
 20
-2.32131934E+02
  0
VERTEX
  8
0
 62
2
 10
-3.22192389E+02
 20
-2.32007751E+02
  0
VERTEX
  8
0
 62
2
 10
-3.21343964E+02
 20
-2.31899204E+02
  0
VERTEX
  8
0
 62
2
 10
-3.20494789E+02
 20
-2.31807125E+02
  0
VERTEX
  8
0
 62
2
 10
-3.19645228E+02
 20
-2.31732342E+02
  0
VERTEX
  8
0
 62
2
 10
-3.18795642E+02
 20
-2.31675686E+02
  0
VERTEX
  8
0
 62
2
 10
-3.17946393E+02
 20
-2.31637985E+02
  0
VERTEX
  8
0
 62
2
 10
-3.17097842E+02
 20
-2.31620069E+02
  0
VERTEX
  8
0
 62
2
 10
-3.16250352E+02
 20
-2.31622769E+02
  0
VERTEX
  8
0
 62
2
 10
-3.15404284E+02
 20
-2.31646914E+02
  0
VERTEX
  8
0
 62
2
 10
-3.14560000E+02
 20
-2.31693333E+02
  0
VERTEX
  8
0
 62
2
 10
-3.12763961E+02
 20
-2.31866268E+02
  0
VERTEX
  8
0
 62
2
 10
-3.10975707E+02
 20
-2.32124943E+02
  0
VERTEX
  8
0
 62
2
 10
-3.09193322E+02
 20
-2.32449630E+02
  0
VERTEX
  8
0
 62
2
 10
-3.07414889E+02
 20
-2.32820596E+02
  0
VERTEX
  8
0
 62
2
 10
-3.05638493E+02
 20
-2.33218110E+02
  0
VERTEX
  8
0
 62
2
 10
-3.03862218E+02
 20
-2.33622443E+02
  0
VERTEX
  8
0
 62
2
 10
-3.02084147E+02
 20
-2.34013862E+02
  0
VERTEX
  8
0
 62
2
 10
-3.00302365E+02
 20
-2.34372638E+02
  0
VERTEX
  8
0
 62
2
 10
-2.98514954E+02
 20
-2.34679039E+02
  0
VERTEX
  8
0
 62
2
 10
-2.96720000E+02
 20
-2.34913333E+02
  0
VERTEX
  8
0
 62
2
 10
-2.95610144E+02
 20
-2.35014140E+02
  0
VERTEX
  8
0
 62
2
 10
-2.94497217E+02
 20
-2.35081583E+02
  0
VERTEX
  8
0
 62
2
 10
-2.93381794E+02
 20
-2.35117303E+02
  0
VERTEX
  8
0
 62
2
 10
-2.92264452E+02
 20
-2.35122942E+02
  0
VERTEX
  8
0
 62
2
 10
-2.91145766E+02
 20
-2.35100140E+02
  0
VERTEX
  8
0
 62
2
 10
-2.90026312E+02
 20
-2.35050538E+02
  0
VERTEX
  8
0
 62
2
 10
-2.88906666E+02
 20
-2.34975778E+02
  0
VERTEX
  8
0
 62
2
 10
-2.87787404E+02
 20
-2.34877500E+02
  0
VERTEX
  8
0
 62
2
 10
-2.86669103E+02
 20
-2.34757346E+02
  0
VERTEX
  8
0
 62
2
 10
-2.85552337E+02
 20
-2.34616956E+02
  0
SEQEND
  8
0
  0
POLYLINE
  8
0
 62
2
 66
1
  0
VERTEX
  8
0
 62
2
 10
-1.97259949E+02
 20
-2.34753115E+02
  0
VERTEX
  8
0
 62
2
 10
-1.95796807E+02
 20
-2.34281801E+02
  0
VERTEX
  8
0
 62
2
 10
-1.94323662E+02
 20
-2.33848492E+02
  0
VERTEX
  8
0
 62
2
 10
-1.92842277E+02
 20
-2.33458715E+02
  0
VERTEX
  8
0
 62
2
 10
-1.91354415E+02
 20
-2.33117995E+02
  0
VERTEX
  8
0
 62
2
 10
-1.89861840E+02
 20
-2.32831859E+02
  0
VERTEX
  8
0
 62
2
 10
-1.88366316E+02
 20
-2.32605832E+02
  0
VERTEX
  8
0
 62
2
 10
-1.86869607E+02
 20
-2.32445440E+02
  0
VERTEX
  8
0
 62
2
 10
-1.85373475E+02
 20
-2.32356209E+02
  0
VERTEX
  8
0
 62
2
 10
-1.83879685E+02
 20
-2.32343665E+02
  0
VERTEX
  8
0
 62
2
 10
-1.82390000E+02
 20
-2.32413333E+02
  0
VERTEX
  8
0
 62
2
 10
-1.79432964E+02
 20
-2.32800281E+02
  0
VERTEX
  8
0
 62
2
 10
-1.76495175E+02
 20
-2.33460705E+02
  0
VERTEX
  8
0
 62
2
 10
-1.73572500E+02
 20
-2.34318307E+02
  0
VERTEX
  8
0
 62
2
 10
-1.70660810E+02
 20
-2.35296788E+02
  0
VERTEX
  8
0
 62
2
 10
-1.67755974E+02
 20
-2.36319846E+02
  0
VERTEX
  8
0
 62
2
 10
-1.64853859E+02
 20
-2.37311184E+02
  0
VERTEX
  8
0
 62
2
 10
-1.61950335E+02
 20
-2.38194501E+02
  0
VERTEX
  8
0
 62
2
 10
-1.59041272E+02
 20
-2.38893498E+02
  0
VERTEX
  8
0
 62
2
 10
-1.56122537E+02
 20
-2.39331875E+02
  0
VERTEX
  8
0
 62
2
 10
-1.53190000E+02
 20
-2.39433333E+02
  0
VERTEX
  8
0
 62
2
 10
-1.52087247E+02
 20
-2.39370252E+02
  0
VERTEX
  8
0
 62
2
 10
-1.50983316E+02
 20
-2.39252608E+02
  0
VERTEX
  8
0
 62
2
 10
-1.49879489E+02
 20
-2.39083916E+02
  0
VERTEX
  8
0
 62
2
 10
-1.48777046E+02
 20
-2.38867689E+02
  0
VERTEX
  8
0
 62
2
 10
-1.47677266E+02
 20
-2.38607439E+02
  0
VERTEX
  8
0
 62
2
 10
-1.46581430E+02
 20
-2.38306682E+02
  0
VERTEX
  8
0
 62
2
 10
-1.45490818E+02
 20
-2.37968929E+02
  0
VERTEX
  8
0
 62
2
 10
-1.44406711E+02
 20
-2.37597695E+02
  0
VERTEX
  8
0
 62
2
 10
-1.43330388E+02
 20
-2.37196492E+02
  0
VERTEX
  8
0
 62
2
 10
-1.42263131E+02
 20
-2.36768835E+02
  0
SEQEND
  8
0
  0
TEXT
  8
0
 62
7
 10
-3.85647724E+02
 20
1.51342875E+02
 40
6.30000019E+00
  1
IN
 41
1.00000000E+00
  7
MONOTXT
  0
TEXT
  8
0
 62
7
 10
-1.07517724E+02
 20
1.51342875E+02
 40
6.30000019E+00
  1
OUT
 41
1.00000000E+00
  7
MONOTXT
  0
TEXT
  8
0
 62
7
 10
-3.15800283E+02
 20
-2.67900000E+02
 40
6.30000019E+00
  1
-GS1A,-GS1B,-GS1C,-GS1D
 41
1.00000000E+00
  7
MONOTXT
  0
LINE
  8
0
 62
7
 10
2.79799927E+02
 20
-2.56750000E+02
 11
3.99799805E+02
 21
-2.56750000E+02
  0
LINE
  8
0
 62
7
 10
2.79799927E+02
 20
-2.56750000E+02
 11
2.79799927E+02
 21
-2.76750000E+02
  0
TEXT
  8
0
 62
7
 10
2.87585240E+02
 20
-2.71250000E+02
 40
9.00000000E+00
  1
KOGANEI CORP.
 41
1.04838710E+00
  7
MONOTXT
  0
TEXT
  8
0
 62
7
 10
3.15499645E+02
 20
2.63100000E+02
 40
6.30000019E+00
  1
Ver. 1.0
 41
1.08108108E+00
  7
MONOTXT
  0
LINE
  8
0
 62
7
 10
2.79799927E+02
 20
2.56250000E+02
 11
3.99799805E+02
 21
2.56250000E+02
  0
LINE
  8
0
 62
7
 10
2.79799927E+02
 20
2.76250000E+02
 11
2.79799927E+02
 21
2.56250000E+02
  0
TEXT
  8
0
 62
7
 10
-3.85600562E+02
 20
2.38100000E+02
 40
6.30000019E+00
  1
MODEL:CZ650-06-G1A
 41
1.00000000E+00
  7
MONOTXT
  0
LINE
  8
0
 62
7
 10
-3.99250000E+02
 20
-2.76750000E+02
 11
3.99799805E+02
 21
-2.76750000E+02
  0
LINE
  8
0
 62
7
 10
-3.99250000E+02
 20
2.76250000E+02
 11
3.99799805E+02
 21
2.76250000E+02
  0
LINE
  8
0
 62
7
 10
-3.99250000E+02
 20
2.76250000E+02
 11
-3.99250000E+02
 21
-2.76750000E+02
  0
LINE
  8
0
 62
7
 10
3.99799805E+02
 20
2.76250000E+02
 11
3.99799805E+02
 21
-2.76750000E+02
  0
ENDSEC
  0
EOF
