  0
SECTION
  2
HEADER
  9
$ACADVER
  1
AC1003
  9
$EXTMIN
 10
-3.99250000E+02
 20
-2.76750000E+02
  9
$EXTMAX
 10
3.99799805E+02
 20
2.76250000E+02
  9
$LIMMIN
 10
-3.99251000E+02
 20
-2.76751000E+02
  9
$LIMMAX
 10
3.99800805E+02
 20
2.76251000E+02
  9
$SNAPUNIT
 10
1
 20
1
  9
$SNAPBASE
 10
0
 20
0
  9
$GRIDMODE
 70
0
  9
$GRIDUNIT
 10
0
 20
0
  9
$LTSCALE
 40
1.33174967E+01
  9
$TEXTSIZE
 40
3.2
  9
$DIMTAD
 70
0
  9
$LUNITS
 70
2
  9
$LUPREC
 70
4
  9
$FILLETRAD
 40
0
  9
$AUNITS
 70
0
  9
$AUPREC
 70
0
  0
ENDSEC
  0
SECTION
  2
TABLES
  0
TABLE
  2
LTYPE
 70
2
  0
LTYPE
  2
CONTINUOUS
 70
64
  3
Solid-Line
 72
65
 73
0
 40
0
  0
LTYPE
  2
DASHED
 70
64
  3
DASHED
 72
65
 73
2
 40
.75
 49
.5
 49
-.25
  0
LTYPE
  2
HIDDEN
 70
64
  3
HIDDEN
 72
65
 73
2
 40
.375
 49
.25
 49
-.125
  0
LTYPE
  2
CENTER
 70
64
  3
CENTER
 72
65
 73
4
 40
2
 49
1.25
 49
-.25
 49
.25
 49
-.25
  0
LTYPE
  2
PHANTOM
 70
64
  3
PHANTOM
 72
65
 73
6
 40
2.5
 49
1.25
 49
-.25
 49
.25
 49
-.25
 49
.25
 49
-.25
  0
ENDTAB
  0
TABLE
  2
LAYER
 70
1
  0
LAYER
  2
0
 70
0
 62
3
  6
CONTINUOUS
 0
ENDTAB
  0
TABLE
  2
STYLE
 70
2
  0
STYLE
  2
MONOTXT
 70
0
 40
0
 41
1
 50
0
 71
0
 42
.2
  3
monotxt
  0
STYLE
  2
BIGFONT
 70
0
 40
0
 41
1
 50
0
 71
0
 42
.2
  3
txt
  4
bigfont
  0
ENDTAB
  0
ENDSEC
  0
SECTION
  2
ENTITIES
  0
LINE
  8
0
  6
CENTER
 62
2
 10
-2.76361228E+02
 20
1.77645665E+02
 11
-2.76361228E+02
 21
-8.06943354E+01
  0
LINE
  8
0
 62
7
 10
-2.26361916E+02
 20
1.32645665E+02
 11
-2.37361228E+02
 21
1.32645665E+02
  0
LINE
  8
0
 62
7
 10
-2.26368284E+02
 20
1.62645665E+02
 11
-2.37361228E+02
 21
1.62645665E+02
  0
LINE
  8
0
 62
7
 10
-1.38371228E+02
 20
1.67645665E+02
 11
-1.38371228E+02
 21
1.27645665E+02
  0
LINE
  8
0
 62
7
 10
-2.28361228E+02
 20
1.60645665E+02
 11
-2.28361228E+02
 21
1.34645665E+02
  0
LINE
  8
0
 62
7
 10
-2.16361228E+02
 20
1.22345665E+02
 11
-1.50371228E+02
 21
1.22345665E+02
  0
LINE
  8
0
 62
7
 10
-2.01111228E+02
 20
3.16456646E+01
 11
-1.65621228E+02
 21
3.16456646E+01
  0
LINE
  8
0
 62
7
 10
-1.65971228E+02
 20
3.45356646E+01
 11
-1.64681228E+02
 21
7.16456646E+01
  0
LINE
  8
0
 62
7
 10
-2.02051228E+02
 20
7.16456646E+01
 11
-2.00751228E+02
 21
3.45356646E+01
  0
LINE
  8
0
 62
7
 10
-2.07251228E+02
 20
8.16456646E+01
 11
-1.59471228E+02
 21
8.16456646E+01
  0
LINE
  8
0
 62
7
 10
-2.07411228E+02
 20
7.16456646E+01
 11
-2.07161228E+02
 21
7.15056646E+01
  0
LINE
  8
0
 62
7
 10
-2.07161228E+02
 20
7.15056646E+01
 11
-2.06261228E+02
 21
4.56456646E+01
  0
LINE
  8
0
 62
7
 10
-1.52371228E+02
 20
1.88645665E+02
 11
-2.14361228E+02
 21
1.88645665E+02
  0
LINE
  8
0
 62
7
 10
-2.16361228E+02
 20
1.86645665E+02
 11
-2.16361228E+02
 21
1.62645665E+02
  0
LINE
  8
0
 62
7
 10
-1.50371228E+02
 20
1.86645665E+02
 11
-1.50371228E+02
 21
1.62645665E+02
  0
LINE
  8
0
 62
7
 10
-1.50371228E+02
 20
1.22345665E+02
 11
-1.50371228E+02
 21
1.10345665E+02
  0
LINE
  8
0
 62
7
 10
-1.52371228E+02
 20
1.08345665E+02
 11
-2.14361228E+02
 21
1.08345665E+02
  0
LINE
  8
0
 62
7
 10
-2.07251228E+02
 20
8.16456646E+01
 11
-2.07741228E+02
 21
8.11656646E+01
  0
LINE
  8
0
 62
7
 10
-1.59471228E+02
 20
8.16456646E+01
 11
-1.58991228E+02
 21
8.11656646E+01
  0
LINE
  8
0
 62
7
 10
-1.79371228E+02
 20
7.16456646E+01
 11
-1.79371228E+02
 21
3.45356646E+01
  0
LINE
  8
0
 62
7
 10
-1.87371228E+02
 20
7.16456646E+01
 11
-1.87371228E+02
 21
3.45356646E+01
  0
LINE
  8
0
 62
7
 10
-1.87371228E+02
 20
3.45356646E+01
 11
-1.79371228E+02
 21
3.45356646E+01
  0
LINE
  8
0
 62
7
 10
-1.79371228E+02
 20
7.16456646E+01
 11
-1.64681228E+02
 21
7.16456646E+01
  0
LINE
  8
0
 62
7
 10
-1.88851228E+02
 20
4.18456646E+01
 11
-1.88851228E+02
 21
3.16456646E+01
  0
LINE
  8
0
 62
7
 10
-1.77891228E+02
 20
4.18456646E+01
 11
-1.77891228E+02
 21
3.16456646E+01
  0
LINE
  8
0
 62
7
 10
-1.79371228E+02
 20
3.45356646E+01
 11
-1.77891228E+02
 21
3.16456646E+01
  0
LINE
  8
0
 62
7
 10
-1.87371228E+02
 20
3.45356646E+01
 11
-1.88851228E+02
 21
3.16456646E+01
  0
LINE
  8
0
 62
7
 10
-1.65971228E+02
 20
3.45356646E+01
 11
-1.71491228E+02
 21
3.16456646E+01
  0
LINE
  8
0
 62
7
 10
-1.87371228E+02
 20
7.16456646E+01
 11
-2.02051228E+02
 21
7.16456646E+01
  0
LINE
  8
0
 62
7
 10
-1.87371228E+02
 20
4.56456646E+01
 11
-2.01141228E+02
 21
4.56456646E+01
  0
LINE
  8
0
 62
7
 10
-1.88851228E+02
 20
4.18456646E+01
 11
-1.96011228E+02
 21
4.18456646E+01
  0
LINE
  8
0
 62
7
 10
-2.00751228E+02
 20
3.45356646E+01
 11
-1.95241228E+02
 21
3.16456646E+01
  0
LINE
  8
0
 62
7
 10
-2.00751228E+02
 20
3.45356646E+01
 11
-2.05611228E+02
 21
3.45356646E+01
  0
LINE
  8
0
 62
7
 10
-2.15611228E+02
 20
1.15345665E+02
 11
-2.06361228E+02
 21
1.15345665E+02
  0
LINE
  8
0
 62
7
 10
-2.06361228E+02
 20
1.15345665E+02
 11
-2.06361228E+02
 21
1.10345665E+02
  0
LINE
  8
0
  6
CENTER
 62
2
 10
-2.11361228E+02
 20
1.16345665E+02
 11
-2.11361228E+02
 21
1.07345665E+02
  0
LINE
  8
0
 62
7
 10
-2.15611228E+02
 20
1.81645665E+02
 11
-2.06361228E+02
 21
1.81645665E+02
  0
LINE
  8
0
  6
CENTER
 62
2
 10
-2.11361228E+02
 20
1.80645665E+02
 11
-2.11361228E+02
 21
1.89645665E+02
  0
LINE
  8
0
 62
7
 10
-2.06361228E+02
 20
1.81645665E+02
 11
-2.06361228E+02
 21
1.86645665E+02
  0
LINE
  8
0
  6
CENTER
 62
2
 10
-1.83371228E+02
 20
1.95785665E+02
 11
-1.83371228E+02
 21
2.45056646E+01
  0
LINE
  8
0
 62
7
 10
-1.60371228E+02
 20
1.15345665E+02
 11
-1.60371228E+02
 21
1.10345665E+02
  0
LINE
  8
0
 62
7
 10
-1.51121228E+02
 20
1.15345665E+02
 11
-1.60371228E+02
 21
1.15345665E+02
  0
LINE
  8
0
  6
CENTER
 62
2
 10
-1.55371228E+02
 20
1.16345665E+02
 11
-1.55371228E+02
 21
1.07345665E+02
  0
LINE
  8
0
 62
7
 10
-1.51121228E+02
 20
1.81645665E+02
 11
-1.60371228E+02
 21
1.81645665E+02
  0
LINE
  8
0
  6
CENTER
 62
2
 10
-1.55371228E+02
 20
1.80645665E+02
 11
-1.55371228E+02
 21
1.89645665E+02
  0
LINE
  8
0
 62
7
 10
-1.60371228E+02
 20
1.81645665E+02
 11
-1.60371228E+02
 21
1.86645665E+02
  0
LINE
  8
0
 62
7
 10
-1.79371228E+02
 20
4.56456646E+01
 11
-1.77891228E+02
 21
4.18456646E+01
  0
LINE
  8
0
 62
7
 10
-1.87371228E+02
 20
4.56456646E+01
 11
-1.88851228E+02
 21
4.18456646E+01
  0
LINE
  8
0
 62
7
 10
-2.07741228E+02
 20
8.11656646E+01
 11
-2.07411228E+02
 21
7.16456646E+01
  0
LINE
  8
0
 62
7
 10
-1.96011228E+02
 20
4.18456646E+01
 11
-1.95241228E+02
 21
3.16456646E+01
  0
LINE
  8
0
 62
7
 10
-2.01141228E+02
 20
4.56456646E+01
 11
-1.96011228E+02
 21
4.18456646E+01
  0
LINE
  8
0
 62
7
 10
-1.77891228E+02
 20
4.18456646E+01
 11
-1.70721228E+02
 21
4.18456646E+01
  0
LINE
  8
0
 62
7
 10
-1.79371228E+02
 20
4.56456646E+01
 11
-1.65591228E+02
 21
4.56456646E+01
  0
LINE
  8
0
 62
7
 10
-1.65591228E+02
 20
4.56456646E+01
 11
-1.70721228E+02
 21
4.18456646E+01
  0
LINE
  8
0
 62
7
 10
-1.70721228E+02
 20
4.18456646E+01
 11
-1.71491228E+02
 21
3.16456646E+01
  0
LINE
  8
0
 62
7
 10
-2.06001228E+02
 20
4.56456646E+01
 11
-2.05611228E+02
 21
3.45456646E+01
  0
LINE
  8
0
 62
7
 10
-2.06261228E+02
 20
4.56456646E+01
 11
-2.06001228E+02
 21
4.56456646E+01
  0
LINE
  8
0
 62
7
 10
-2.01111228E+02
 20
3.16456646E+01
 11
-2.05611228E+02
 21
3.45256646E+01
  0
LINE
  8
0
 62
7
 10
-1.58991228E+02
 20
8.11656646E+01
 11
-1.59321228E+02
 21
7.16456646E+01
  0
LINE
  8
0
 62
7
 10
-1.59571228E+02
 20
7.15056646E+01
 11
-1.60471228E+02
 21
4.56456646E+01
  0
LINE
  8
0
 62
7
 10
-1.59321228E+02
 20
7.16456646E+01
 11
-1.59571228E+02
 21
7.15056646E+01
  0
LINE
  8
0
 62
7
 10
-1.60471228E+02
 20
4.56456646E+01
 11
-1.60731228E+02
 21
4.56456646E+01
  0
LINE
  8
0
 62
7
 10
-1.60731228E+02
 20
4.56456646E+01
 11
-1.61121228E+02
 21
3.45456646E+01
  0
LINE
  8
0
 62
7
 10
-1.65621228E+02
 20
3.16456646E+01
 11
-1.61121228E+02
 21
3.45256646E+01
  0
LINE
  8
0
 62
7
 10
-2.16361228E+02
 20
1.72645665E+02
 11
-1.43371228E+02
 21
1.72645665E+02
  0
LINE
  8
0
 62
7
 10
-2.15361228E+02
 20
1.22645665E+02
 11
-2.15361228E+02
 21
1.22345665E+02
  0
LINE
  8
0
 62
7
 10
-1.51371228E+02
 20
1.22645665E+02
 11
-1.51371228E+02
 21
1.22345665E+02
  0
LINE
  8
0
 62
7
 10
-1.38371228E+02
 20
1.32645665E+02
 11
-2.26361916E+02
 21
1.32645665E+02
  0
LINE
  8
0
 62
7
 10
-2.16361228E+02
 20
1.32645665E+02
 11
-2.16361228E+02
 21
1.22645665E+02
  0
LINE
  8
0
 62
7
 10
-1.50371228E+02
 20
1.32645665E+02
 11
-1.50371228E+02
 21
1.22645665E+02
  0
LINE
  8
0
 62
7
 10
-1.98861228E+02
 20
1.61645665E+02
 11
-1.98861228E+02
 21
1.33645665E+02
  0
LINE
  8
0
 62
7
 10
-1.67871228E+02
 20
1.61645665E+02
 11
-1.67871228E+02
 21
1.33645665E+02
  0
LINE
  8
0
  6
CENTER
 62
2
 10
-1.58371228E+02
 20
1.55145665E+02
 11
-1.58371228E+02
 21
1.40145665E+02
  0
LINE
  8
0
  6
CENTER
 62
2
 10
-2.08361228E+02
 20
1.55145665E+02
 11
-2.08361228E+02
 21
1.40145665E+02
  0
LINE
  8
0
 62
4
 10
-1.68371228E+02
 20
1.61645665E+02
 11
-1.68371228E+02
 21
1.33645665E+02
  0
LINE
  8
0
 62
4
 10
-1.98361228E+02
 20
1.61645665E+02
 11
-1.98361228E+02
 21
1.33645665E+02
  0
LINE
  8
0
 62
7
 10
-2.26368284E+02
 20
1.62645665E+02
 11
-1.38371228E+02
 21
1.62645665E+02
  0
LINE
  8
0
  6
CENTER
 62
2
 10
-3.50651228E+02
 20
1.47645665E+02
 11
-1.24081228E+02
 21
1.47645665E+02
  0
LINE
  8
0
 62
7
 10
-2.16361228E+02
 20
1.22345665E+02
 11
-2.16361228E+02
 21
1.10345665E+02
  0
LINE
  8
0
 62
7
 10
-3.31361228E+02
 20
1.07645665E+02
 11
-2.21361228E+02
 21
1.07645665E+02
  0
LINE
  8
0
 62
7
 10
-3.36361228E+02
 20
1.22645665E+02
 11
-1.43371228E+02
 21
1.22645665E+02
  0
LINE
  8
0
 62
7
 10
-2.21361228E+02
 20
1.21145665E+02
 11
-2.21361228E+02
 21
9.76456646E+01
  0
LINE
  8
0
 62
7
 10
-3.31361228E+02
 20
1.21145665E+02
 11
-3.31361228E+02
 21
9.76456646E+01
  0
LINE
  8
0
 62
7
 10
-3.13861228E+02
 20
1.20645665E+02
 11
-3.13861228E+02
 21
1.14545665E+02
  0
LINE
  8
0
 62
7
 10
-2.38861228E+02
 20
1.20645665E+02
 11
-2.38861228E+02
 21
1.14545665E+02
  0
LINE
  8
0
 62
7
 10
-3.29361228E+02
 20
1.14045665E+02
 11
-3.14361228E+02
 21
1.14045665E+02
  0
LINE
  8
0
 62
7
 10
-2.38361228E+02
 20
1.14045665E+02
 11
-2.23361228E+02
 21
1.14045665E+02
  0
LINE
  8
0
  6
CENTER
 62
2
 10
-2.31361228E+02
 20
1.26645665E+02
 11
-2.31361228E+02
 21
1.10045665E+02
  0
LINE
  8
0
  6
CENTER
 62
2
 10
-3.21361228E+02
 20
1.26645665E+02
 11
-3.21361228E+02
 21
1.10045665E+02
  0
LINE
  8
0
 62
7
 10
-3.31361228E+02
 20
9.76456646E+01
 11
-2.21361228E+02
 21
9.76456646E+01
  0
LINE
  8
0
 62
7
 10
-3.21361228E+02
 20
7.64566461E+00
 11
-2.31361228E+02
 21
7.64566461E+00
  0
LINE
  8
0
 62
7
 10
-3.27291228E+02
 20
9.57156646E+01
 11
-3.24281228E+02
 21
9.30566461E+00
  0
LINE
  8
0
 62
7
 10
-2.25431228E+02
 20
9.57156646E+01
 11
-2.28441228E+02
 21
9.30566461E+00
  0
LINE
  8
0
 62
7
 10
-3.22781228E+02
 20
6.81566461E+00
 11
-3.12801228E+02
 21
1.05566461E+00
  0
LINE
  8
0
 62
7
 10
-2.29941228E+02
 20
6.81566461E+00
 11
-2.39921228E+02
 21
1.05566461E+00
  0
LINE
  8
0
 62
7
 10
-3.08861228E+02
 20
2.25664606E-01
 11
-2.43861228E+02
 21
2.25664606E-01
  0
LINE
  8
0
  6
CENTER
 62
2
 10
-3.00361228E+02
 20
-2.23443354E+01
 11
-2.52361228E+02
 21
-2.23443354E+01
  0
LINE
  8
0
 62
7
 10
-2.17861228E+02
 20
1.72645665E+02
 11
-2.17861228E+02
 21
1.62645665E+02
  0
LINE
  8
0
 62
7
 10
-3.34861228E+02
 20
1.72645665E+02
 11
-2.17861228E+02
 21
1.72645665E+02
  0
LINE
  8
0
 62
7
 10
-3.36361228E+02
 20
1.71145665E+02
 11
-3.36361228E+02
 21
1.22645665E+02
  0
LINE
  8
0
 62
7
 10
-3.36361228E+02
 20
1.71145665E+02
 11
-3.34861228E+02
 21
1.72645665E+02
  0
LINE
  8
0
 62
7
 10
-2.17861228E+02
 20
1.72645665E+02
 11
-2.16361228E+02
 21
1.71145665E+02
  0
LINE
  8
0
 62
7
 10
-3.36361228E+02
 20
1.71145665E+02
 11
-2.16361228E+02
 21
1.71145665E+02
  0
LINE
  8
0
 62
7
 10
-3.10581228E+02
 20
1.69645665E+02
 11
-2.42141228E+02
 21
1.69645665E+02
  0
LINE
  8
0
 62
7
 10
-2.37361228E+02
 20
1.62645665E+02
 11
-2.37361228E+02
 21
1.32645665E+02
  0
LINE
  8
0
 62
7
 10
-3.13781228E+02
 20
1.22645665E+02
 11
-3.12191228E+02
 21
1.68145665E+02
  0
LINE
  8
0
 62
7
 10
-2.38941228E+02
 20
1.22645665E+02
 11
-2.40531228E+02
 21
1.68145665E+02
  0
LINE
  8
0
 62
7
 10
-3.12191228E+02
 20
1.68145665E+02
 11
-3.10581228E+02
 21
1.69645665E+02
  0
LINE
  8
0
 62
7
 10
-2.40531228E+02
 20
1.68145665E+02
 11
-2.42141228E+02
 21
1.69645665E+02
  0
LINE
  8
0
 62
7
 10
-3.12191228E+02
 20
1.68145665E+02
 11
-2.40531228E+02
 21
1.68145665E+02
  0
LINE
  8
0
 62
7
 10
-2.36481228E+02
 20
1.61805665E+02
 11
-2.36481228E+02
 21
1.33475665E+02
  0
LINE
  8
0
 62
7
 10
-2.36481228E+02
 20
1.61805665E+02
 11
-2.27981228E+02
 21
1.61805665E+02
  0
LINE
  8
0
 62
7
 10
-2.36481228E+02
 20
1.33475665E+02
 11
-2.27981228E+02
 21
1.33475665E+02
  0
LINE
  8
0
 62
7
 10
-2.37361228E+02
 20
1.32645665E+02
 11
-2.36481228E+02
 21
1.33475665E+02
  0
LINE
  8
0
 62
7
 10
-2.37361228E+02
 20
1.62645665E+02
 11
-2.36481228E+02
 21
1.61805665E+02
  0
LINE
  8
0
 62
7
 10
-3.29361228E+02
 20
1.62645665E+02
 11
-3.29361228E+02
 21
1.32645665E+02
  0
LINE
  8
0
 62
7
 10
-3.15361228E+02
 20
1.62645665E+02
 11
-3.15361228E+02
 21
1.32645665E+02
  0
LINE
  8
0
 62
7
 10
-3.15361228E+02
 20
1.62645665E+02
 11
-3.29361228E+02
 21
1.62645665E+02
  0
LINE
  8
0
 62
7
 10
-3.15361228E+02
 20
1.32645665E+02
 11
-3.29361228E+02
 21
1.32645665E+02
  0
LINE
  8
0
 62
7
 10
-3.16241228E+02
 20
1.61805665E+02
 11
-3.16241228E+02
 21
1.33475665E+02
  0
LINE
  8
0
 62
7
 10
-3.28481228E+02
 20
1.61805665E+02
 11
-3.28481228E+02
 21
1.33475665E+02
  0
LINE
  8
0
 62
7
 10
-3.16241228E+02
 20
1.61805665E+02
 11
-3.28481228E+02
 21
1.61805665E+02
  0
LINE
  8
0
 62
7
 10
-3.16241228E+02
 20
1.33475665E+02
 11
-3.28481228E+02
 21
1.33475665E+02
  0
LINE
  8
0
 62
7
 10
-3.15361228E+02
 20
1.32645665E+02
 11
-3.16241228E+02
 21
1.33475665E+02
  0
LINE
  8
0
 62
7
 10
-3.28481228E+02
 20
1.33475665E+02
 11
-3.29361228E+02
 21
1.32645665E+02
  0
LINE
  8
0
 62
7
 10
-3.29361228E+02
 20
1.62645665E+02
 11
-3.28481228E+02
 21
1.61805665E+02
  0
LINE
  8
0
 62
7
 10
-3.15361228E+02
 20
1.62645665E+02
 11
-3.16241228E+02
 21
1.61815665E+02
  0
LINE
  8
0
 62
7
 10
-3.34861228E+02
 20
1.72645665E+02
 11
-3.34861228E+02
 21
1.22645665E+02
  0
LINE
  8
0
  6
CENTER
 62
2
 10
-3.11361228E+02
 20
1.78315665E+02
 11
-3.11361228E+02
 21
1.68645665E+02
  0
LINE
  8
0
  6
CENTER
 62
2
 10
-2.41361228E+02
 20
1.78315665E+02
 11
-2.41361228E+02
 21
1.68645665E+02
  0
LINE
  8
0
 62
4
 10
-3.16731228E+02
 20
1.74315665E+02
 11
-3.05991228E+02
 21
1.74315665E+02
  0
LINE
  8
0
 62
6
 10
-3.05641228E+02
 20
1.74105665E+02
 11
-3.05641228E+02
 21
1.72645665E+02
  0
LINE
  8
0
 62
6
 10
-3.17081228E+02
 20
1.74105665E+02
 11
-3.17081228E+02
 21
1.72645665E+02
  0
LINE
  8
0
 62
4
 10
-3.17941228E+02
 20
1.73615665E+02
 11
-3.04781228E+02
 21
1.73615665E+02
  0
LINE
  8
0
 62
4
 10
-3.17941228E+02
 20
1.73615665E+02
 11
-3.16731228E+02
 21
1.74315665E+02
  0
LINE
  8
0
 62
4
 10
-3.05991228E+02
 20
1.74315665E+02
 11
-3.04781228E+02
 21
1.73615665E+02
  0
LINE
  8
0
 62
4
 10
-3.17941228E+02
 20
1.73615665E+02
 11
-3.17911228E+02
 21
1.72645665E+02
  0
LINE
  8
0
 62
4
 10
-3.04781228E+02
 20
1.73615665E+02
 11
-3.04811228E+02
 21
1.72645665E+02
  0
LINE
  8
0
 62
7
 10
-2.91751228E+02
 20
-5.23443354E+01
 11
-2.60971228E+02
 21
-5.23443354E+01
  0
LINE
  8
0
 62
7
 10
-3.07361228E+02
 20
-4.23443354E+01
 11
-2.45361228E+02
 21
-4.23443354E+01
  0
LINE
  8
0
 62
7
 10
-3.11301228E+02
 20
-1.44433539E+00
 11
-3.09931228E+02
 21
-4.06843354E+01
  0
LINE
  8
0
 62
7
 10
-2.41421228E+02
 20
-1.44433539E+00
 11
-2.42791228E+02
 21
-4.06843354E+01
  0
LINE
  8
0
 62
7
 10
-3.08431228E+02
 20
-4.31743354E+01
 11
-2.93251228E+02
 21
-5.19443354E+01
  0
LINE
  8
0
 62
7
 10
-2.44291228E+02
 20
-4.31743354E+01
 11
-2.59471228E+02
 21
-5.19443354E+01
  0
LINE
  8
0
 62
4
 10
-2.83931228E+02
 20
-5.88443354E+01
 11
-2.68781228E+02
 21
-5.88443354E+01
  0
LINE
  8
0
 62
4
 10
-2.68281228E+02
 20
-5.23443354E+01
 11
-2.68281228E+02
 21
-5.83443354E+01
  0
LINE
  8
0
 62
4
 10
-2.84431228E+02
 20
-5.23443354E+01
 11
-2.84431228E+02
 21
-5.83443354E+01
  0
LINE
  8
0
 62
4
 10
-2.83111228E+02
 20
-7.35443354E+01
 11
-2.69611228E+02
 21
-7.35443354E+01
  0
LINE
  8
0
 62
4
 10
-2.84111228E+02
 20
-6.05443354E+01
 11
-2.84111228E+02
 21
-7.25443354E+01
  0
LINE
  8
0
 62
4
 10
-2.68611228E+02
 20
-6.05443354E+01
 11
-2.68611228E+02
 21
-7.25443354E+01
  0
LINE
  8
0
 62
4
 10
-2.84111228E+02
 20
-7.25443354E+01
 11
-2.83111228E+02
 21
-7.35443354E+01
  0
LINE
  8
0
 62
4
 10
-2.69611228E+02
 20
-7.35443354E+01
 11
-2.68611228E+02
 21
-7.25443354E+01
  0
LINE
  8
0
 62
4
 10
-2.83961228E+02
 20
-6.30443354E+01
 11
-2.82801228E+02
 21
-6.30443354E+01
  0
LINE
  8
0
 62
4
 10
-2.83611228E+02
 20
-6.00443354E+01
 11
-2.69111228E+02
 21
-6.00443354E+01
  0
LINE
  8
0
 62
4
 10
-2.84111228E+02
 20
-6.05443354E+01
 11
-2.83611228E+02
 21
-6.00443354E+01
  0
LINE
  8
0
 62
4
 10
-2.69111228E+02
 20
-6.00443354E+01
 11
-2.68611228E+02
 21
-6.05443354E+01
  0
LINE
  8
0
 62
4
 10
-2.82361228E+02
 20
-5.88443354E+01
 11
-2.82361228E+02
 21
-6.00443354E+01
  0
LINE
  8
0
 62
4
 10
-2.70361228E+02
 20
-5.88443354E+01
 11
-2.70361228E+02
 21
-6.00443354E+01
  0
LINE
  8
0
 62
4
 10
-2.84431228E+02
 20
-5.83443354E+01
 11
-2.83931228E+02
 21
-5.88443354E+01
  0
LINE
  8
0
 62
4
 10
-2.68281228E+02
 20
-5.83443354E+01
 11
-2.68781228E+02
 21
-5.88443354E+01
  0
LINE
  8
0
 62
4
 10
-2.84431228E+02
 20
-5.83443354E+01
 11
-2.68281228E+02
 21
-5.83443354E+01
  0
LINE
  8
0
 62
4
 10
-2.84111228E+02
 20
-6.05443354E+01
 11
-2.68611228E+02
 21
-6.05443354E+01
  0
LINE
  8
0
 62
4
 10
-2.83961228E+02
 20
-6.33343354E+01
 11
-2.83371228E+02
 21
-6.33343354E+01
  0
LINE
  8
0
 62
4
 10
-2.84111228E+02
 20
-7.25443354E+01
 11
-2.83961228E+02
 21
-7.25443354E+01
  0
LINE
  8
0
 62
4
 10
-2.77861228E+02
 20
-6.30443354E+01
 11
-2.77861228E+02
 21
-7.25443354E+01
  0
LINE
  8
0
 62
4
 10
-2.74861228E+02
 20
-6.30443354E+01
 11
-2.74861228E+02
 21
-7.25443354E+01
  0
LINE
  8
0
 62
4
 10
-2.74861228E+02
 20
-6.30443354E+01
 11
-2.72041228E+02
 21
-6.30443354E+01
  0
LINE
  8
0
 62
4
 10
-2.74521228E+02
 20
-6.33343354E+01
 11
-2.72701228E+02
 21
-6.33343354E+01
  0
LINE
  8
0
 62
4
 10
-2.77861228E+02
 20
-7.25443354E+01
 11
-2.74861228E+02
 21
-7.25443354E+01
  0
LINE
  8
0
 62
4
 10
-2.72041228E+02
 20
-7.25443354E+01
 11
-2.69921228E+02
 21
-7.25443354E+01
  0
LINE
  8
0
 62
4
 10
-2.83611228E+02
 20
-7.30443354E+01
 11
-2.83371228E+02
 21
-7.30443354E+01
  0
LINE
  8
0
 62
4
 10
-2.74521228E+02
 20
-6.33343354E+01
 11
-2.74521228E+02
 21
-7.30443354E+01
  0
LINE
  8
0
 62
4
 10
-2.78201228E+02
 20
-6.33343354E+01
 11
-2.78201228E+02
 21
-7.30443354E+01
  0
LINE
  8
0
 62
4
 10
-2.78201228E+02
 20
-7.30443354E+01
 11
-2.74521228E+02
 21
-7.30443354E+01
  0
LINE
  8
0
 62
4
 10
-2.72701228E+02
 20
-7.30443354E+01
 11
-2.69921228E+02
 21
-7.30443354E+01
  0
LINE
  8
0
 62
4
 10
-2.72701228E+02
 20
-6.33343354E+01
 11
-2.72701228E+02
 21
-7.30443354E+01
  0
LINE
  8
0
 62
4
 10
-2.80021228E+02
 20
-6.33343354E+01
 11
-2.80021228E+02
 21
-7.30443354E+01
  0
LINE
  8
0
 62
4
 10
-2.80681228E+02
 20
-6.30443354E+01
 11
-2.80681228E+02
 21
-7.25443354E+01
  0
LINE
  8
0
 62
4
 10
-2.72041228E+02
 20
-6.30443354E+01
 11
-2.72041228E+02
 21
-7.25443354E+01
  0
LINE
  8
0
 62
4
 10
-2.69921228E+02
 20
-6.30443354E+01
 11
-2.68761228E+02
 21
-6.30443354E+01
  0
LINE
  8
0
 62
4
 10
-2.69351228E+02
 20
-6.33343354E+01
 11
-2.68761228E+02
 21
-6.33343354E+01
  0
LINE
  8
0
 62
4
 10
-2.80681228E+02
 20
-6.30443354E+01
 11
-2.77861228E+02
 21
-6.30443354E+01
  0
LINE
  8
0
 62
4
 10
-2.80021228E+02
 20
-6.33343354E+01
 11
-2.78201228E+02
 21
-6.33343354E+01
  0
LINE
  8
0
 62
4
 10
-2.82801228E+02
 20
-7.25443354E+01
 11
-2.80681228E+02
 21
-7.25443354E+01
  0
LINE
  8
0
 62
4
 10
-2.82801228E+02
 20
-7.30443354E+01
 11
-2.80021228E+02
 21
-7.30443354E+01
  0
LINE
  8
0
 62
4
 10
-2.68761228E+02
 20
-7.25443354E+01
 11
-2.68611228E+02
 21
-7.25443354E+01
  0
LINE
  8
0
 62
4
 10
-2.69351228E+02
 20
-7.30443354E+01
 11
-2.69111228E+02
 21
-7.30443354E+01
  0
LINE
  8
0
 62
4
 10
-2.82801228E+02
 20
-6.30443354E+01
 11
-2.82801228E+02
 21
-7.30443354E+01
  0
LINE
  8
0
 62
4
 10
-2.69921228E+02
 20
-6.30443354E+01
 11
-2.69921228E+02
 21
-7.30443354E+01
  0
LINE
  8
0
 62
4
 10
-2.83371228E+02
 20
-6.33343354E+01
 11
-2.83371228E+02
 21
-7.30443354E+01
  0
LINE
  8
0
 62
4
 10
-2.69351228E+02
 20
-6.33343354E+01
 11
-2.69351228E+02
 21
-7.30443354E+01
  0
LINE
  8
0
 62
4
 10
-2.83961228E+02
 20
-6.30443354E+01
 11
-2.83961228E+02
 21
-7.25443354E+01
  0
LINE
  8
0
 62
4
 10
-2.68761228E+02
 20
-6.30443354E+01
 11
-2.68761228E+02
 21
-7.25443354E+01
  0
LINE
  8
0
 62
4
 10
-2.78201228E+02
 20
-6.33343354E+01
 11
-2.77861228E+02
 21
-6.30443354E+01
  0
LINE
  8
0
 62
4
 10
-2.74861228E+02
 20
-6.30443354E+01
 11
-2.74521228E+02
 21
-6.33343354E+01
  0
LINE
  8
0
 62
4
 10
-2.74861228E+02
 20
-7.25443354E+01
 11
-2.74521228E+02
 21
-7.30443354E+01
  0
LINE
  8
0
 62
4
 10
-2.77861228E+02
 20
-7.25443354E+01
 11
-2.78201228E+02
 21
-7.30443354E+01
  0
LINE
  8
0
 62
4
 10
-2.80681228E+02
 20
-6.30443354E+01
 11
-2.80021228E+02
 21
-6.33343354E+01
  0
LINE
  8
0
 62
4
 10
-2.72701228E+02
 20
-6.33343354E+01
 11
-2.72041228E+02
 21
-6.30443354E+01
  0
LINE
  8
0
 62
4
 10
-2.72041228E+02
 20
-7.25443354E+01
 11
-2.72701228E+02
 21
-7.30443354E+01
  0
LINE
  8
0
 62
4
 10
-2.80681228E+02
 20
-7.25443354E+01
 11
-2.80021228E+02
 21
-7.30443354E+01
  0
LINE
  8
0
 62
4
 10
-2.83371228E+02
 20
-6.33343354E+01
 11
-2.82801228E+02
 21
-6.31143354E+01
  0
LINE
  8
0
 62
4
 10
-2.69921228E+02
 20
-6.31143354E+01
 11
-2.69351228E+02
 21
-6.33343354E+01
  0
LINE
  8
0
 62
4
 10
-2.83961228E+02
 20
-7.25443354E+01
 11
-2.83371228E+02
 21
-7.30443354E+01
  0
LINE
  8
0
 62
4
 10
-2.68761228E+02
 20
-7.25443354E+01
 11
-2.69351228E+02
 21
-7.30443354E+01
  0
LINE
  8
0
 62
4
 10
-2.46731228E+02
 20
1.74315665E+02
 11
-2.35991228E+02
 21
1.74315665E+02
  0
LINE
  8
0
 62
4
 10
-2.47941228E+02
 20
1.73615665E+02
 11
-2.46731228E+02
 21
1.74315665E+02
  0
LINE
  8
0
 62
4
 10
-2.47941228E+02
 20
1.73615665E+02
 11
-2.34781228E+02
 21
1.73615665E+02
  0
LINE
  8
0
 62
4
 10
-2.47941228E+02
 20
1.73615665E+02
 11
-2.47911228E+02
 21
1.72645665E+02
  0
LINE
  8
0
 62
6
 10
-2.47081228E+02
 20
1.74105665E+02
 11
-2.47081228E+02
 21
1.72645665E+02
  0
LINE
  8
0
 62
4
 10
-2.35991228E+02
 20
1.74315665E+02
 11
-2.34781228E+02
 21
1.73615665E+02
  0
LINE
  8
0
 62
6
 10
-2.35641228E+02
 20
1.74105665E+02
 11
-2.35641228E+02
 21
1.72645665E+02
  0
LINE
  8
0
 62
4
 10
-2.34781228E+02
 20
1.73615665E+02
 11
-2.34811228E+02
 21
1.72645665E+02
  0
LINE
  8
0
 62
7
 10
-2.17861228E+02
 20
1.32645665E+02
 11
-2.17861228E+02
 21
1.22645665E+02
  0
LINE
  8
0
 62
7
 10
-1.98861228E+02
 20
9.23456646E+01
 11
-1.98621228E+02
 21
8.16456646E+01
  0
LINE
  8
0
 62
7
 10
-1.94861228E+02
 20
8.58456646E+01
 11
-1.94861228E+02
 21
8.16456646E+01
  0
LINE
  8
0
 62
7
 10
-2.07361228E+02
 20
1.08345665E+02
 11
-2.07361228E+02
 21
9.23456646E+01
  0
LINE
  8
0
 62
7
 10
-1.59371228E+02
 20
1.08345665E+02
 11
-1.59371228E+02
 21
9.23456646E+01
  0
LINE
  8
0
 62
7
 10
-2.07361228E+02
 20
9.43456646E+01
 11
-1.59371228E+02
 21
9.43456646E+01
  0
LINE
  8
0
 62
7
 10
-1.59371228E+02
 20
9.23456646E+01
 11
-2.07361228E+02
 21
9.23456646E+01
  0
LINE
  8
0
 62
7
 10
-1.59371228E+02
 20
1.06345665E+02
 11
-2.07361228E+02
 21
1.06345665E+02
  0
LINE
  8
0
 62
7
 10
-1.68111228E+02
 20
8.16456646E+01
 11
-1.67871228E+02
 21
9.23456646E+01
  0
LINE
  8
0
 62
7
 10
-1.71871228E+02
 20
8.58456646E+01
 11
-1.71871228E+02
 21
8.16456646E+01
  0
LINE
  8
0
 62
7
 10
-1.71871228E+02
 20
8.58456646E+01
 11
-1.75371228E+02
 21
8.58456646E+01
  0
LINE
  8
0
 62
7
 10
-1.73371228E+02
 20
8.58456646E+01
 11
-1.73371228E+02
 21
8.16456646E+01
  0
LINE
  8
0
 62
7
 10
-1.75371228E+02
 20
8.58456646E+01
 11
-1.75371228E+02
 21
8.16456646E+01
  0
LINE
  8
0
 62
7
 10
-1.78871228E+02
 20
9.23456646E+01
 11
-1.78871228E+02
 21
8.16456646E+01
  0
LINE
  8
0
 62
7
 10
-1.87871228E+02
 20
9.23456646E+01
 11
-1.87871228E+02
 21
8.16456646E+01
  0
LINE
  8
0
 62
7
 10
-1.91371228E+02
 20
8.58456646E+01
 11
-1.91371228E+02
 21
8.16456646E+01
  0
LINE
  8
0
 62
7
 10
-1.91371228E+02
 20
8.58456646E+01
 11
-1.94861228E+02
 21
8.58456646E+01
  0
LINE
  8
0
 62
7
 10
-1.93361228E+02
 20
8.58456646E+01
 11
-1.93361228E+02
 21
8.16456646E+01
  0
LINE
  8
0
 62
7
 10
-1.60991228E+02
 20
9.23456646E+01
 11
-1.61461228E+02
 21
8.16456646E+01
  0
LINE
  8
0
 62
7
 10
-2.05741228E+02
 20
9.23456646E+01
 11
-2.05261228E+02
 21
8.16456646E+01
  0
LINE
  8
0
 62
7
 10
-2.28621228E+02
 20
1.86645665E+02
 11
-2.16361228E+02
 21
1.86645665E+02
  0
LINE
  8
0
 62
7
 10
-2.33361228E+02
 20
1.81655665E+02
 11
-2.33361228E+02
 21
1.72645665E+02
  0
LINE
  8
0
 62
7
 10
-2.22361228E+02
 20
1.81655665E+02
 11
-2.18361228E+02
 21
1.81655665E+02
  0
LINE
  8
0
  6
CENTER
 62
2
 10
-2.22361228E+02
 20
1.83655665E+02
 11
-2.22361228E+02
 21
1.70655665E+02
  0
LINE
  8
0
  6
CENTER
 62
2
 10
-2.18361228E+02
 20
1.83655665E+02
 11
-2.18361228E+02
 21
1.70655665E+02
  0
LINE
  8
0
 62
7
 10
-2.22361228E+02
 20
1.72655665E+02
 11
-2.18361228E+02
 21
1.72655665E+02
  0
LINE
  8
0
 62
7
 10
-1.50371228E+02
 20
1.86645665E+02
 11
-1.38111228E+02
 21
1.86645665E+02
  0
LINE
  8
0
  6
CENTER
 62
2
 10
-1.48371228E+02
 20
1.83655665E+02
 11
-1.48371228E+02
 21
1.70655665E+02
  0
LINE
  8
0
  6
CENTER
 62
2
 10
-1.46371228E+02
 20
1.83655665E+02
 11
-1.46371228E+02
 21
1.70655665E+02
  0
LINE
  8
0
  6
CENTER
 62
2
 10
-1.44371228E+02
 20
1.83655665E+02
 11
-1.44371228E+02
 21
1.70655665E+02
  0
LINE
  8
0
 62
7
 10
-1.44371228E+02
 20
1.81655665E+02
 11
-1.48371228E+02
 21
1.81655665E+02
  0
LINE
  8
0
  6
CENTER
 62
2
 10
-1.37871228E+02
 20
1.77155665E+02
 11
-1.52371228E+02
 21
1.77155665E+02
  0
LINE
  8
0
  6
CENTER
 62
2
 10
-2.20361228E+02
 20
1.83655665E+02
 11
-2.20361228E+02
 21
1.70655665E+02
  0
LINE
  8
0
  6
CENTER
 62
2
 10
-2.28861228E+02
 20
1.77155665E+02
 11
-2.14361228E+02
 21
1.77155665E+02
  0
LINE
  8
0
 62
7
 10
-1.33371228E+02
 20
1.81655665E+02
 11
-1.33371228E+02
 21
1.37645665E+02
  0
LINE
  8
0
 62
7
 10
-1.44371228E+02
 20
1.72655665E+02
 11
-1.48371228E+02
 21
1.72655665E+02
  0
LINE
  8
0
 62
4
 10
-1.75871228E+02
 20
1.47645665E+02
 11
-1.75871228E+02
 21
1.45645665E+02
  0
LINE
  8
0
 62
4
 10
-1.77871228E+02
 20
1.47645665E+02
 11
-1.77871228E+02
 21
1.45645665E+02
  0
LINE
  8
0
 62
4
 10
-1.77871228E+02
 20
1.45645665E+02
 11
-1.75871228E+02
 21
1.45645665E+02
  0
LINE
  8
0
 62
4
 10
-1.88871228E+02
 20
1.47645665E+02
 11
-1.88871228E+02
 21
1.45645665E+02
  0
LINE
  8
0
 62
4
 10
-1.88871228E+02
 20
1.45645665E+02
 11
-1.90871228E+02
 21
1.45645665E+02
  0
LINE
  8
0
 62
4
 10
-1.90871228E+02
 20
1.47645665E+02
 11
-1.90871228E+02
 21
1.45645665E+02
  0
ARC
  8
0
 62
7
 10
-2.14364756E+02
 20
1.86649192E+02
 40
1.99647541E+00
 50
8.98987603E+01
 51
1.80101240E+02
  0
ARC
  8
0
 62
7
 10
-1.52366935E+02
 20
1.86649958E+02
 40
1.99571073E+00
 50
3.59876725E+02
 51
9.01232755E+01
  0
ARC
  8
0
 62
7
 10
-1.52369767E+02
 20
1.10344203E+02
 40
1.99853909E+00
 50
2.69958102E+02
 51
4.18978028E-02
  0
ARC
  8
0
 62
7
 10
-2.14361925E+02
 20
1.10344968E+02
 40
1.99930378E+00
 50
1.79980044E+02
 51
2.70000000E+02
  0
ARC
  8
0
 62
7
 10
-2.14361925E+02
 20
1.17344968E+02
 40
1.99930378E+00
 50
1.79980044E+02
 51
2.70000000E+02
  0
ARC
  8
0
 62
7
 10
-2.04361925E+02
 20
1.10344968E+02
 40
1.99930378E+00
 50
1.79980044E+02
 51
2.70000000E+02
  0
ARC
  8
0
 62
7
 10
-2.14364756E+02
 20
1.79649192E+02
 40
1.99647541E+00
 50
8.98987603E+01
 51
1.80101240E+02
  0
ARC
  8
0
 62
7
 10
-2.04364756E+02
 20
1.86649192E+02
 40
1.99647541E+00
 50
8.98987603E+01
 51
1.80101240E+02
  0
ARC
  8
0
 62
7
 10
-1.62369767E+02
 20
1.10344203E+02
 40
1.99853909E+00
 50
2.69958102E+02
 51
4.18978028E-02
  0
ARC
  8
0
 62
7
 10
-1.52369767E+02
 20
1.17344203E+02
 40
1.99853909E+00
 50
2.69958102E+02
 51
4.18978028E-02
  0
ARC
  8
0
 62
7
 10
-1.52366935E+02
 20
1.79649958E+02
 40
1.99571073E+00
 50
3.59876725E+02
 51
9.01232755E+01
  0
ARC
  8
0
 62
7
 10
-1.62366935E+02
 20
1.86649958E+02
 40
1.99571073E+00
 50
3.59876725E+02
 51
9.01232755E+01
  0
ARC
  8
0
 62
7
 10
-2.26364756E+02
 20
1.60649192E+02
 40
1.99647541E+00
 50
8.98987603E+01
 51
1.80101240E+02
  0
ARC
  8
0
 62
7
 10
-2.26361916E+02
 20
1.34644977E+02
 40
1.99931295E+00
 50
1.79980307E+02
 51
2.70000000E+02
  0
ARC
  8
0
 62
4
 10
-1.40369791E+02
 20
1.34644228E+02
 40
1.99856348E+00
 50
2.69958802E+02
 51
4.11977534E-02
  0
ARC
  8
0
 62
4
 10
-1.40366950E+02
 20
1.60649943E+02
 40
1.99572594E+00
 50
3.59877163E+02
 51
9.01228366E+01
  0
ARC
  8
0
 62
7
 10
-1.99861940E+02
 20
1.61644953E+02
 40
1.00071204E+00
 50
4.07535045E-02
 51
9.00000002E+01
  0
ARC
  8
0
 62
7
 10
-1.99864757E+02
 20
1.33649193E+02
 40
1.00353428E+00
 50
2.70201432E+02
 51
3.59798567E+02
  0
ARC
  8
0
 62
7
 10
-1.66869747E+02
 20
1.61644183E+02
 40
1.00148248E+00
 50
9.00847515E+01
 51
1.79915248E+02
  0
ARC
  8
0
 62
7
 10
-1.66866933E+02
 20
1.33649960E+02
 40
1.00430470E+00
 50
1.80245061E+02
 51
2.69754939E+02
  0
CIRCLE
  8
0
 62
7
 10
-1.58365462E+02
 20
1.47648487E+02
 40
5.50000000E+00
  0
CIRCLE
  8
0
 62
7
 10
-2.08365462E+02
 20
1.47648487E+02
 40
5.50000000E+00
  0
ARC
  8
0
 62
4
 10
-1.97364756E+02
 20
1.61649192E+02
 40
9.96478661E-01
 50
8.97971697E+01
 51
1.80202830E+02
  0
ARC
  8
0
 62
4
 10
-1.97361928E+02
 20
1.33644965E+02
 40
9.99300901E-01
 50
1.79959902E+02
 51
2.70000000E+02
  0
ARC
  8
0
 62
4
 10
-1.69369766E+02
 20
1.33644202E+02
 40
9.98538125E-01
 50
2.69916057E+02
 51
8.39434243E-02
  0
ARC
  8
0
 62
4
 10
-1.69366935E+02
 20
1.61649958E+02
 40
9.95715906E-01
 50
3.59752950E+02
 51
9.02470498E+01
  0
ARC
  8
0
 62
7
 10
-1.43366934E+02
 20
1.67649959E+02
 40
4.99570763E+00
 50
3.59950750E+02
 51
9.00492505E+01
  0
ARC
  8
0
 62
7
 10
-1.43369758E+02
 20
1.27644194E+02
 40
4.99852989E+00
 50
2.69983146E+02
 51
1.68536247E-02
  0
CIRCLE
  8
0
 62
7
 10
-2.71529463E+02
 20
-3.45708430E+01
 40
1.00000000E+00
  0
ARC
  8
0
 62
7
 10
-3.06941421E+02
 20
-4.05800536E+01
 40
2.99162592E+00
 50
1.81997616E+02
 51
2.40132714E+02
  0
ARC
  8
0
 62
7
 10
-2.60966695E+02
 20
-4.93488359E+01
 40
2.99550293E+00
 50
2.69913287E+02
 51
2.99949547E+02
  0
CIRCLE
  8
0
 62
7
 10
-2.81201491E+02
 20
-3.45708430E+01
 40
1.00000000E+00
  0
ARC
  8
0
 62
7
 10
-2.45787235E+02
 20
-4.05763195E+01
 40
2.99795289E+00
 50
2.99934477E+02
 51
3.57935193E+02
  0
ARC
  8
0
 62
7
 10
-2.91756328E+02
 20
-4.93509597E+01
 40
2.99338004E+00
 50
2.40039551E+02
 51
2.70097615E+02
  0
ARC
  8
0
 62
7
 10
-3.32861938E+02
 20
1.21144955E+02
 40
1.50070988E+00
 50
2.70962917E-02
 51
9.00000002E+01
  0
ARC
  8
0
 62
7
 10
-2.19864756E+02
 20
1.21149192E+02
 40
1.49647649E+00
 50
8.98649357E+01
 51
1.80135064E+02
  0
ARC
  8
0
 62
7
 10
-3.14364769E+02
 20
1.14549205E+02
 40
5.03553056E-01
 50
2.70402864E+02
 51
3.59597136E+02
  0
ARC
  8
0
 62
7
 10
-2.38361955E+02
 20
1.14544938E+02
 40
4.99273817E-01
 50
1.79916604E+02
 51
2.70000000E+02
  0
ARC
  8
0
 62
7
 10
-3.11864787E+02
 20
1.20649223E+02
 40
1.99644496E+00
 50
8.98978831E+01
 51
1.80102117E+02
  0
ARC
  8
0
 62
7
 10
-2.40861952E+02
 20
1.20644941E+02
 40
2.00072409E+00
 50
2.07325229E-02
 51
9.00000002E+01
  0
ARC
  8
0
 62
7
 10
-3.29364768E+02
 20
1.12049205E+02
 40
1.99646324E+00
 50
8.98984096E+01
 51
1.80101590E+02
  0
ARC
  8
0
 62
7
 10
-2.23361971E+02
 20
1.12044922E+02
 40
2.00074238E+00
 50
2.12557708E-02
 51
9.00000002E+01
  0
ARC
  8
0
 62
7
 10
-3.29291919E+02
 20
9.56436793E+01
 40
2.00198543E+00
 50
2.06062639E+00
 51
9.00000002E+01
  0
ARC
  8
0
 62
7
 10
-2.23434670E+02
 20
9.56479619E+01
 40
1.99770571E+00
 50
8.99012847E+01
 51
1.78057860E+02
  0
ARC
  8
0
 62
7
 10
-3.21282569E+02
 20
9.41527888E+00
 40
3.00066247E+00
 50
1.82093482E+02
 51
2.40036848E+02
  0
ARC
  8
0
 62
7
 10
-2.31446103E+02
 20
9.41902284E+00
 40
3.00701212E+00
 50
3.00030117E+02
 51
3.57839554E+02
  0
ARC
  8
0
 62
7
 10
-3.14303057E+02
 20
-1.54543261E+00
 40
3.00353061E+00
 50
1.92890929E+00
 51
5.99986036E+01
  0
ARC
  8
0
 62
7
 10
-2.38425628E+02
 20
-1.54169547E+00
 40
2.99718186E+00
 50
1.19934003E+02
 51
1.78138484E+02
  0
CIRCLE
  8
0
 62
7
 10
-2.76365462E+02
 20
-2.23515131E+01
 40
1.55000000E+01
  0
CIRCLE
  8
0
 62
7
 10
-2.76365462E+02
 20
-2.23515131E+01
 40
1.99999847E+01
  0
CIRCLE
  8
0
 62
7
 10
-2.76365462E+02
 20
-2.23515131E+01
 40
1.90000000E+01
  0
CIRCLE
  8
0
 62
7
 10
-2.76365462E+02
 20
-2.23515131E+01
 40
1.50000000E+01
  0
ARC
  8
0
 62
7
 10
-2.28363174E+02
 20
1.81657610E+02
 40
4.99805510E+00
 50
8.99777001E+01
 51
1.80022300E+02
  0
ARC
  8
0
 62
7
 10
-2.22361228E+02
 20
1.77155665E+02
 40
4.50000199E+00
 50
9.00000002E+01
 51
2.70000000E+02
  0
ARC
  8
0
 62
7
 10
-2.18363682E+02
 20
1.77154904E+02
 40
4.50076107E+00
 50
6.35821338E+01
 51
8.99687637E+01
  0
ARC
  8
0
 62
7
 10
-2.18344377E+02
 20
1.77160224E+02
 40
4.50459117E+00
 50
2.69785661E+02
 51
2.96119868E+02
  0
ARC
  8
0
 62
7
 10
-1.38368517E+02
 20
1.81658376E+02
 40
4.99728927E+00
 50
3.59968912E+02
 51
9.00310877E+01
  0
ARC
  8
0
 62
7
 10
-1.48368694E+02
 20
1.77154562E+02
 40
4.50110337E+00
 50
9.00322577E+01
 51
1.16416845E+02
  0
ARC
  8
0
 62
7
 10
-1.44371228E+02
 20
1.77155665E+02
 40
4.50000369E+00
 50
2.70000000E+02
 51
9.00000002E+01
  0
ARC
  8
0
 62
7
 10
-1.48388001E+02
 20
1.77160566E+02
 40
4.50493283E+00
 50
2.43881149E+02
 51
2.70213322E+02
  0
ARC
  8
0
 62
7
 10
-1.38366934E+02
 20
1.57649959E+02
 40
4.99570763E+00
 50
3.59950750E+02
 51
9.00492505E+01
  0
ARC
  8
0
 62
7
 10
-1.38369758E+02
 20
1.37644194E+02
 40
4.99852989E+00
 50
2.69983146E+02
 51
1.68536247E-02
  0
CIRCLE
  8
0
 62
4
 10
-1.83365462E+02
 20
1.47648487E+02
 40
1.40000000E+01
  0
CIRCLE
  8
0
 62
4
 10
-1.83365462E+02
 20
1.47648487E+02
 40
1.25000000E+01
  0
ARC
  8
0
 62
4
 10
-1.83371228E+02
 20
1.47645665E+02
 40
7.50000053E+00
 50
0.00000000E+00
 51
1.80000000E+02
  0
ARC
  8
0
 62
4
 10
-1.83371228E+02
 20
1.47645665E+02
 40
5.50000072E+00
 50
0.00000000E+00
 51
1.80000000E+02
  0
LINE
  8
0
 62
4
 10
-1.88865462E+02
 20
1.47648487E+02
 11
-1.88865462E+02
 21
1.45648487E+02
  0
LINE
  8
0
 62
4
 10
-1.88865462E+02
 20
1.45648487E+02
 11
-1.90865462E+02
 21
1.45648487E+02
  0
LINE
  8
0
 62
7
 10
-1.88865462E+02
 20
1.47648487E+02
 11
-1.90865462E+02
 21
1.47648487E+02
  0
LINE
  8
0
 62
4
 10
-1.90865462E+02
 20
1.47648487E+02
 11
-1.90865462E+02
 21
1.45648487E+02
  0
CIRCLE
  8
0
 62
7
 10
-1.58365462E+02
 20
1.47648487E+02
 40
2.89829731E+00
  0
CIRCLE
  8
0
 62
7
 10
-1.58365462E+02
 20
1.47648487E+02
 40
3.96076870E+00
  0
CIRCLE
  8
0
 62
7
 10
-1.58365462E+02
 20
1.47648487E+02
 40
5.00000000E+00
  0
LINE
  8
0
 62
7
 10
-1.60875462E+02
 20
1.46208487E+02
 11
-1.58365462E+02
 21
1.44758487E+02
  0
LINE
  8
0
 62
7
 10
-1.58365462E+02
 20
1.50538487E+02
 11
-1.55855462E+02
 21
1.49088487E+02
  0
LINE
  8
0
 62
7
 10
-1.58365462E+02
 20
1.44758487E+02
 11
-1.55855462E+02
 21
1.46208487E+02
  0
LINE
  8
0
 62
7
 10
-1.60875462E+02
 20
1.49088487E+02
 11
-1.58365462E+02
 21
1.50538487E+02
  0
LINE
  8
0
 62
7
 10
-1.55855462E+02
 20
1.49088487E+02
 11
-1.55855462E+02
 21
1.46208487E+02
  0
LINE
  8
0
 62
7
 10
-1.60875462E+02
 20
1.49088487E+02
 11
-1.60875462E+02
 21
1.46208487E+02
  0
CIRCLE
  8
0
 62
7
 10
-2.08365462E+02
 20
1.47648487E+02
 40
2.89829731E+00
  0
CIRCLE
  8
0
 62
7
 10
-2.08365462E+02
 20
1.47648487E+02
 40
3.96076870E+00
  0
CIRCLE
  8
0
 62
7
 10
-2.08365462E+02
 20
1.47648487E+02
 40
5.00000000E+00
  0
LINE
  8
0
 62
7
 10
-2.10875462E+02
 20
1.46208487E+02
 11
-2.08365462E+02
 21
1.44758487E+02
  0
LINE
  8
0
 62
7
 10
-2.08365462E+02
 20
1.50538487E+02
 11
-2.05855462E+02
 21
1.49088487E+02
  0
LINE
  8
0
 62
7
 10
-2.08365462E+02
 20
1.44758487E+02
 11
-2.05855462E+02
 21
1.46208487E+02
  0
LINE
  8
0
 62
7
 10
-2.10875462E+02
 20
1.49088487E+02
 11
-2.08365462E+02
 21
1.50538487E+02
  0
LINE
  8
0
 62
7
 10
-2.05855462E+02
 20
1.49088487E+02
 11
-2.05855462E+02
 21
1.46208487E+02
  0
LINE
  8
0
 62
7
 10
-2.10875462E+02
 20
1.49088487E+02
 11
-2.10875462E+02
 21
1.46208487E+02
  0
LINE
  8
0
 62
7
 10
-1.51115494E+02
 20
1.10648498E+02
 11
-1.51115492E+02
 21
1.15348498E+02
  0
LINE
  8
0
 62
7
 10
-1.51115494E+02
 20
1.10648498E+02
 11
-1.51635494E+02
 21
1.10348498E+02
  0
LINE
  8
0
 62
7
 10
-1.59615494E+02
 20
1.10648500E+02
 11
-1.51115494E+02
 21
1.10648498E+02
  0
LINE
  8
0
 62
7
 10
-1.59095494E+02
 20
1.10348500E+02
 11
-1.51635494E+02
 21
1.10348498E+02
  0
LINE
  8
0
 62
7
 10
-1.59615494E+02
 20
1.10648500E+02
 11
-1.59095494E+02
 21
1.10348500E+02
  0
LINE
  8
0
 62
7
 10
-1.59615494E+02
 20
1.10648500E+02
 11
-1.59615492E+02
 21
1.15348500E+02
  0
LINE
  8
0
 62
7
 10
-2.07115463E+02
 20
1.10648498E+02
 11
-2.07115462E+02
 21
1.15348498E+02
  0
LINE
  8
0
 62
7
 10
-2.07115463E+02
 20
1.10648498E+02
 11
-2.07635463E+02
 21
1.10348498E+02
  0
LINE
  8
0
 62
7
 10
-2.15615463E+02
 20
1.10648500E+02
 11
-2.07115463E+02
 21
1.10648498E+02
  0
LINE
  8
0
 62
7
 10
-2.15095463E+02
 20
1.10348500E+02
 11
-2.07635463E+02
 21
1.10348498E+02
  0
LINE
  8
0
 62
7
 10
-2.15615463E+02
 20
1.10648500E+02
 11
-2.15095463E+02
 21
1.10348500E+02
  0
LINE
  8
0
 62
7
 10
-2.15615463E+02
 20
1.10648500E+02
 11
-2.15615462E+02
 21
1.15348500E+02
  0
LINE
  8
0
 62
7
 10
-1.59615463E+02
 20
1.86348486E+02
 11
-1.59615462E+02
 21
1.81648486E+02
  0
LINE
  8
0
 62
7
 10
-1.59615463E+02
 20
1.86348486E+02
 11
-1.59095463E+02
 21
1.86648486E+02
  0
LINE
  8
0
 62
7
 10
-1.51115463E+02
 20
1.86348488E+02
 11
-1.59615463E+02
 21
1.86348486E+02
  0
LINE
  8
0
 62
7
 10
-1.51635463E+02
 20
1.86648488E+02
 11
-1.59095463E+02
 21
1.86648486E+02
  0
LINE
  8
0
 62
7
 10
-1.51115463E+02
 20
1.86348488E+02
 11
-1.51635463E+02
 21
1.86648488E+02
  0
LINE
  8
0
 62
7
 10
-1.51115463E+02
 20
1.86348488E+02
 11
-1.51115462E+02
 21
1.81648488E+02
  0
LINE
  8
0
 62
7
 10
-2.15615463E+02
 20
1.86348486E+02
 11
-2.15615462E+02
 21
1.81648486E+02
  0
LINE
  8
0
 62
7
 10
-2.15615463E+02
 20
1.86348486E+02
 11
-2.15095463E+02
 21
1.86648486E+02
  0
LINE
  8
0
 62
7
 10
-2.07115463E+02
 20
1.86348488E+02
 11
-2.15615463E+02
 21
1.86348486E+02
  0
LINE
  8
0
 62
7
 10
-2.07635463E+02
 20
1.86648488E+02
 11
-2.15095463E+02
 21
1.86648486E+02
  0
LINE
  8
0
 62
7
 10
-2.07115463E+02
 20
1.86348488E+02
 11
-2.07635463E+02
 21
1.86648488E+02
  0
LINE
  8
0
 62
7
 10
-2.07115463E+02
 20
1.86348488E+02
 11
-2.07115462E+02
 21
1.81648488E+02
  0
LINE
  8
0
 62
7
 10
-2.24865462E+02
 20
1.21548450E+02
 11
-2.24865462E+02
 21
1.14048450E+02
  0
LINE
  8
0
 62
7
 10
-2.24865462E+02
 20
1.21548450E+02
 11
-2.25735462E+02
 21
1.22048450E+02
  0
LINE
  8
0
 62
7
 10
-2.25735462E+02
 20
1.22048450E+02
 11
-2.36995462E+02
 21
1.22048450E+02
  0
LINE
  8
0
 62
7
 10
-2.24865462E+02
 20
1.21548450E+02
 11
-2.37865462E+02
 21
1.21548450E+02
  0
LINE
  8
0
 62
7
 10
-2.37865462E+02
 20
1.21548450E+02
 11
-2.36995462E+02
 21
1.22048450E+02
  0
LINE
  8
0
 62
7
 10
-2.37865462E+02
 20
1.21548450E+02
 11
-2.37865462E+02
 21
1.14048450E+02
  0
LINE
  8
0
 62
7
 10
-3.14865462E+02
 20
1.21548450E+02
 11
-3.14865462E+02
 21
1.14048450E+02
  0
LINE
  8
0
 62
7
 10
-3.14865462E+02
 20
1.21548450E+02
 11
-3.15735462E+02
 21
1.22048450E+02
  0
LINE
  8
0
 62
7
 10
-3.15735462E+02
 20
1.22048450E+02
 11
-3.26995462E+02
 21
1.22048450E+02
  0
LINE
  8
0
 62
7
 10
-3.14865462E+02
 20
1.21548450E+02
 11
-3.27865462E+02
 21
1.21548450E+02
  0
LINE
  8
0
 62
7
 10
-3.27865462E+02
 20
1.21548450E+02
 11
-3.26995462E+02
 21
1.22048450E+02
  0
LINE
  8
0
 62
7
 10
-3.27865462E+02
 20
1.21548450E+02
 11
-3.27865462E+02
 21
1.14048450E+02
  0
ARC
  8
0
 62
7
 10
-2.71535803E+02
 20
-3.45746832E+01
 40
1.51004724E+00
 50
4.74913752E+01
 51
1.94842970E+02
  0
ARC
  8
0
 62
7
 10
-2.76365462E+02
 20
-2.31015131E+01
 40
1.34437532E+01
 50
3.09052512E+02
 51
2.30947488E+02
  0
ARC
  8
0
 62
7
 10
-2.83571559E+02
 20
-3.19918442E+01
 40
1.99973131E+00
 50
2.30799466E+02
 51
3.12698427E+02
  0
ARC
  8
0
 62
7
 10
-2.81195121E+02
 20
-3.45746832E+01
 40
1.51004724E+00
 50
3.45157030E+02
 51
1.32508625E+02
  0
ARC
  8
0
 62
7
 10
-2.69159365E+02
 20
-3.19918442E+01
 40
1.99973131E+00
 50
2.27301573E+02
 51
3.09200534E+02
  0
ARC
  8
0
 62
7
 10
-2.76365462E+02
 20
-2.23515131E+01
 40
1.49908239E+01
 50
2.54999647E+02
 51
2.85000353E+02
  0
LINE
  8
0
 62
7
 10
-2.79735462E+02
 20
-3.49615131E+01
 11
-2.80245462E+02
 21
-3.68315131E+01
  0
LINE
  8
0
 62
7
 10
-2.72995462E+02
 20
-3.49615131E+01
 11
-2.72485462E+02
 21
-3.68315131E+01
  0
LINE
  8
0
  6
CENTER
 62
2
 10
9.98877155E+00
 20
1.77155665E+02
 11
3.49887716E+01
 21
1.77155665E+02
  0
LINE
  8
0
  6
CENTER
 62
2
 10
-8.16312284E+01
 20
1.47645665E+02
 11
3.24887716E+01
 21
1.47645665E+02
  0
LINE
  8
0
  6
CENTER
 62
2
 10
-3.25112284E+01
 20
1.95785665E+02
 11
-3.25112284E+01
 21
-8.06943354E+01
  0
LINE
  8
0
 62
7
 10
-6.55112284E+01
 20
1.86645665E+02
 11
-6.55112284E+01
 21
1.63395665E+02
  0
LINE
  8
0
 62
7
 10
-6.55112284E+01
 20
1.31895665E+02
 11
-6.55112284E+01
 21
1.10345665E+02
  0
LINE
  8
0
 62
7
 10
-5.75112284E+01
 20
1.67645665E+02
 11
-5.75112284E+01
 21
1.62645665E+02
  0
LINE
  8
0
 62
7
 10
-4.57612284E+01
 20
1.27645665E+02
 11
-1.92612284E+01
 21
1.27645665E+02
  0
LINE
  8
0
 62
7
 10
-6.50112284E+01
 20
1.62895665E+02
 11
-5.75112284E+01
 21
1.62895665E+02
  0
LINE
  8
0
 62
7
 10
-6.50112284E+01
 20
1.32395665E+02
 11
-5.75112284E+01
 21
1.32395665E+02
  0
LINE
  8
0
 62
7
 10
-3.43112284E+01
 20
1.43245665E+02
 11
-3.43112284E+01
 21
1.40875665E+02
  0
LINE
  8
0
 62
7
 10
-5.75112284E+01
 20
1.32645665E+02
 11
-5.75112284E+01
 21
1.27645665E+02
  0
LINE
  8
0
 62
4
 10
-7.00112284E+01
 20
1.62645665E+02
 11
-5.50112284E+01
 21
1.62645665E+02
  0
LINE
  8
0
 62
4
 10
-7.00112284E+01
 20
1.32645665E+02
 11
-5.50112284E+01
 21
1.32645665E+02
  0
LINE
  8
0
 62
4
 10
-7.20112284E+01
 20
1.60645665E+02
 11
-7.20112284E+01
 21
1.34645665E+02
  0
LINE
  8
0
 62
4
 10
-5.30112284E+01
 20
1.60645665E+02
 11
-5.30112284E+01
 21
1.34645665E+02
  0
LINE
  8
0
 62
7
 10
-4.77612284E+01
 20
1.23145665E+02
 11
-4.77612284E+01
 21
1.25645665E+02
  0
LINE
  8
0
 62
7
 10
-1.72612284E+01
 20
1.23145665E+02
 11
-1.72612284E+01
 21
1.25645665E+02
  0
LINE
  8
0
 62
7
 10
-1.51122845E+00
 20
1.88645665E+02
 11
-6.35112284E+01
 21
1.88645665E+02
  0
LINE
  8
0
 62
7
 10
-6.35112284E+01
 20
1.08345665E+02
 11
-1.51122845E+00
 21
1.08345665E+02
  0
LINE
  8
0
 62
7
 10
-6.55112284E+01
 20
1.22345665E+02
 11
4.88771553E-01
 21
1.22345665E+02
  0
LINE
  8
0
 62
7
 10
-4.57612284E+01
 20
1.67645665E+02
 11
-1.92612284E+01
 21
1.67645665E+02
  0
LINE
  8
0
 62
7
 10
-4.77612284E+01
 20
1.69645665E+02
 11
-4.77612284E+01
 21
1.72145665E+02
  0
LINE
  8
0
 62
7
 10
-1.72612284E+01
 20
1.69645665E+02
 11
-1.72612284E+01
 21
1.72145665E+02
  0
LINE
  8
0
 62
7
 10
-3.07112284E+01
 20
1.43245665E+02
 11
-3.07112284E+01
 21
1.40875665E+02
  0
LINE
  8
0
 62
7
 10
-1.20112284E+01
 20
1.60645665E+02
 11
-1.20112284E+01
 21
1.34645665E+02
  0
LINE
  8
0
 62
7
 10
4.88771553E-01
 20
1.86645665E+02
 11
4.88771553E-01
 21
1.63395665E+02
  0
LINE
  8
0
 62
7
 10
1.24887716E+01
 20
1.62645665E+02
 11
-1.00112284E+01
 21
1.62645665E+02
  0
LINE
  8
0
 62
7
 10
2.69887716E+01
 20
1.32645665E+02
 11
-1.00112284E+01
 21
1.32645665E+02
  0
LINE
  8
0
 62
7
 10
-7.51122845E+00
 20
1.67645665E+02
 11
-7.51122845E+00
 21
1.27645665E+02
  0
LINE
  8
0
 62
7
 10
-7.51122845E+00
 20
1.62895665E+02
 11
-1.12284475E-02
 21
1.62895665E+02
  0
LINE
  8
0
 62
7
 10
-7.51122845E+00
 20
1.32395665E+02
 11
-1.12284475E-02
 21
1.32395665E+02
  0
LINE
  8
0
 62
7
 10
4.88771553E-01
 20
1.31895665E+02
 11
4.88771553E-01
 21
1.22645665E+02
  0
LINE
  8
0
  6
CENTER
 62
2
 10
-6.05112284E+01
 20
1.16345665E+02
 11
-6.05112284E+01
 21
1.07345665E+02
  0
LINE
  8
0
 62
7
 10
-6.47612284E+01
 20
1.15345665E+02
 11
-5.55112284E+01
 21
1.15345665E+02
  0
LINE
  8
0
 62
7
 10
-5.55112284E+01
 20
1.15345665E+02
 11
-5.55112284E+01
 21
1.10345665E+02
  0
LINE
  8
0
 62
7
 10
-2.61228447E-01
 20
1.15345665E+02
 11
-9.51122845E+00
 21
1.15345665E+02
  0
LINE
  8
0
 62
7
 10
-9.51122845E+00
 20
1.15345665E+02
 11
-9.51122845E+00
 21
1.10345665E+02
  0
LINE
  8
0
  6
CENTER
 62
2
 10
-4.51122845E+00
 20
1.16345665E+02
 11
-4.51122845E+00
 21
1.07345665E+02
  0
LINE
  8
0
 62
7
 10
-6.47612284E+01
 20
1.81645665E+02
 11
-5.55112284E+01
 21
1.81645665E+02
  0
LINE
  8
0
  6
CENTER
 62
2
 10
-6.05112284E+01
 20
1.80645665E+02
 11
-6.05112284E+01
 21
1.89645665E+02
  0
LINE
  8
0
 62
7
 10
-5.55112284E+01
 20
1.81645665E+02
 11
-5.55112284E+01
 21
1.86645665E+02
  0
LINE
  8
0
 62
7
 10
-9.51122845E+00
 20
1.81645665E+02
 11
-9.51122845E+00
 21
1.86645665E+02
  0
LINE
  8
0
 62
7
 10
-2.61228447E-01
 20
1.81645665E+02
 11
-9.51122845E+00
 21
1.81645665E+02
  0
LINE
  8
0
  6
CENTER
 62
2
 10
-4.51122845E+00
 20
1.80645665E+02
 11
-4.51122845E+00
 21
1.89645665E+02
  0
LINE
  8
0
 62
7
 10
-5.02612284E+01
 20
3.16456646E+01
 11
-1.47612284E+01
 21
3.16456646E+01
  0
LINE
  8
0
 62
7
 10
-1.51212284E+01
 20
3.45256646E+01
 11
-1.38212284E+01
 21
7.16456646E+01
  0
LINE
  8
0
 62
7
 10
-8.62122845E+00
 20
8.16456646E+01
 11
-8.13122845E+00
 21
8.11656646E+01
  0
LINE
  8
0
 62
7
 10
-2.85112284E+01
 20
7.16456646E+01
 11
-2.85112284E+01
 21
3.45356646E+01
  0
LINE
  8
0
 62
7
 10
-3.65112284E+01
 20
3.45356646E+01
 11
-2.85112284E+01
 21
3.45356646E+01
  0
LINE
  8
0
 62
7
 10
-2.85112284E+01
 20
7.16456646E+01
 11
-1.38212284E+01
 21
7.16456646E+01
  0
LINE
  8
0
 62
7
 10
-3.79912284E+01
 20
4.18456646E+01
 11
-3.79912284E+01
 21
3.16456646E+01
  0
LINE
  8
0
 62
7
 10
-2.70312284E+01
 20
4.18456646E+01
 11
-2.70312284E+01
 21
3.16456646E+01
  0
LINE
  8
0
 62
7
 10
-2.85112284E+01
 20
3.45256646E+01
 11
-2.70312284E+01
 21
3.16456646E+01
  0
LINE
  8
0
 62
7
 10
-3.65112284E+01
 20
3.45256646E+01
 11
-3.79912284E+01
 21
3.16456646E+01
  0
LINE
  8
0
 62
7
 10
-1.51212284E+01
 20
3.45356646E+01
 11
-2.06312284E+01
 21
3.16456646E+01
  0
LINE
  8
0
 62
7
 10
-3.65112284E+01
 20
4.56456646E+01
 11
-5.02912284E+01
 21
4.56456646E+01
  0
LINE
  8
0
 62
7
 10
-3.79912284E+01
 20
4.18456646E+01
 11
-4.51612284E+01
 21
4.18456646E+01
  0
LINE
  8
0
 62
7
 10
-4.99112284E+01
 20
3.45256646E+01
 11
-4.43912284E+01
 21
3.16456646E+01
  0
LINE
  8
0
 62
7
 10
-4.99112284E+01
 20
3.45356646E+01
 11
-5.47612284E+01
 21
3.45356646E+01
  0
LINE
  8
0
 62
7
 10
-1.47612284E+01
 20
3.16456646E+01
 11
-1.02612284E+01
 21
3.45256646E+01
  0
LINE
  8
0
 62
7
 10
-2.85112284E+01
 20
4.56456646E+01
 11
-2.70312284E+01
 21
4.18456646E+01
  0
LINE
  8
0
 62
7
 10
-3.65112284E+01
 20
4.56456646E+01
 11
-3.79912284E+01
 21
4.18456646E+01
  0
LINE
  8
0
 62
7
 10
-4.51612284E+01
 20
4.18456646E+01
 11
-4.43912284E+01
 21
3.16456646E+01
  0
LINE
  8
0
 62
7
 10
-5.02912284E+01
 20
4.56456646E+01
 11
-4.51612284E+01
 21
4.18456646E+01
  0
LINE
  8
0
 62
7
 10
-2.70312284E+01
 20
4.18456646E+01
 11
-1.98612284E+01
 21
4.18456646E+01
  0
LINE
  8
0
 62
7
 10
-2.85112284E+01
 20
4.56456646E+01
 11
-1.47312284E+01
 21
4.56456646E+01
  0
LINE
  8
0
 62
7
 10
-1.47312284E+01
 20
4.56456646E+01
 11
-1.98612284E+01
 21
4.18456646E+01
  0
LINE
  8
0
 62
7
 10
-1.98612284E+01
 20
4.18456646E+01
 11
-2.06312284E+01
 21
3.16456646E+01
  0
LINE
  8
0
 62
7
 10
-5.51512284E+01
 20
4.56456646E+01
 11
-5.47612284E+01
 21
3.45456646E+01
  0
LINE
  8
0
 62
7
 10
-5.54112284E+01
 20
4.56456646E+01
 11
-5.51512284E+01
 21
4.56456646E+01
  0
LINE
  8
0
 62
7
 10
-5.02612284E+01
 20
3.16456646E+01
 11
-5.47612284E+01
 21
3.45356646E+01
  0
LINE
  8
0
 62
7
 10
-8.13122845E+00
 20
8.11656646E+01
 11
-8.47122845E+00
 21
7.16456646E+01
  0
LINE
  8
0
 62
7
 10
-8.71122845E+00
 20
7.15056646E+01
 11
-9.61122845E+00
 21
4.56456646E+01
  0
LINE
  8
0
 62
7
 10
-8.47122845E+00
 20
7.16456646E+01
 11
-8.71122845E+00
 21
7.15056646E+01
  0
LINE
  8
0
 62
7
 10
-9.61122845E+00
 20
4.56456646E+01
 11
-9.87122845E+00
 21
4.56456646E+01
  0
LINE
  8
0
 62
7
 10
-9.87122845E+00
 20
4.56456646E+01
 11
-1.02612284E+01
 21
3.45456646E+01
  0
LINE
  8
0
 62
7
 10
-6.55112284E+01
 20
1.72645665E+02
 11
4.88771553E-01
 21
1.72645665E+02
  0
LINE
  8
0
 62
7
 10
-8.75112284E+01
 20
1.07645665E+02
 11
-5.74312284E+01
 21
1.07645665E+02
  0
LINE
  8
0
 62
7
 10
-8.75112284E+01
 20
1.20645665E+02
 11
-8.75112284E+01
 21
9.76456646E+01
  0
LINE
  8
0
 62
7
 10
2.24887716E+01
 20
1.20645665E+02
 11
2.24887716E+01
 21
9.76456646E+01
  0
LINE
  8
0
 62
7
 10
-7.43112284E+01
 20
1.69645665E+02
 11
-6.55112284E+01
 21
1.69645665E+02
  0
LINE
  8
0
 62
7
 10
4.88771553E-01
 20
1.69645665E+02
 11
7.66877155E+00
 21
1.69645665E+02
  0
LINE
  8
0
 62
7
 10
1.24187716E+01
 20
1.24575665E+02
 11
1.21387716E+01
 21
1.32645665E+02
  0
LINE
  8
0
 62
7
 10
-7.59212284E+01
 20
1.68145665E+02
 11
-7.43112284E+01
 21
1.69645665E+02
  0
LINE
  8
0
 62
7
 10
-7.59212284E+01
 20
1.68145665E+02
 11
-6.55112284E+01
 21
1.68145665E+02
  0
LINE
  8
0
 62
7
 10
6.77877155E+00
 20
1.68085665E+02
 11
4.88771553E-01
 21
1.68085665E+02
  0
LINE
  8
0
 62
7
 10
-7.00112284E+01
 20
1.20645665E+02
 11
-7.00112284E+01
 21
1.14545665E+02
  0
LINE
  8
0
 62
7
 10
4.98877155E+00
 20
1.20645665E+02
 11
4.98877155E+00
 21
1.14545665E+02
  0
LINE
  8
0
 62
7
 10
-8.55112284E+01
 20
1.14045665E+02
 11
-7.05112284E+01
 21
1.14045665E+02
  0
LINE
  8
0
 62
7
 10
5.48877155E+00
 20
1.14045665E+02
 11
2.04887716E+01
 21
1.14045665E+02
  0
LINE
  8
0
  6
CENTER
 62
2
 10
-7.75112284E+01
 20
1.26645665E+02
 11
-7.75112284E+01
 21
1.10045665E+02
  0
LINE
  8
0
 62
7
 10
-8.55112284E+01
 20
1.22645665E+02
 11
2.04887716E+01
 21
1.22645665E+02
  0
LINE
  8
0
 62
7
 10
2.24887716E+01
 20
9.76456646E+01
 11
-7.59122845E+00
 21
9.76456646E+01
  0
LINE
  8
0
 62
7
 10
-1.71212284E+01
 20
-5.23443354E+01
 11
-4.79012284E+01
 21
-5.23443354E+01
  0
LINE
  8
0
 62
7
 10
1.24887716E+01
 20
7.64566461E+00
 11
-7.75112284E+01
 21
7.64566461E+00
  0
LINE
  8
0
 62
7
 10
1.84187716E+01
 20
9.57156646E+01
 11
1.53987716E+01
 21
9.30566461E+00
  0
LINE
  8
0
 62
7
 10
1.39087716E+01
 20
6.81566461E+00
 11
3.92877155E+00
 21
1.05566461E+00
  0
LINE
  8
0
 62
7
 10
-7.89312284E+01
 20
6.81566461E+00
 11
-6.89512284E+01
 21
1.05566461E+00
  0
LINE
  8
0
 62
7
 10
-1.12284475E-02
 20
2.25664606E-01
 11
-6.50112284E+01
 21
2.25664606E-01
  0
LINE
  8
0
 62
7
 10
-1.51122845E+00
 20
-4.23443354E+01
 11
-6.35112284E+01
 21
-4.23443354E+01
  0
LINE
  8
0
 62
7
 10
2.42877155E+00
 20
-1.44433539E+00
 11
1.05877155E+00
 21
-4.06843354E+01
  0
LINE
  8
0
 62
7
 10
-4.41228447E-01
 20
-4.31743354E+01
 11
-1.56212284E+01
 21
-5.19443354E+01
  0
LINE
  8
0
 62
7
 10
-6.45812284E+01
 20
-4.31743354E+01
 11
-4.94012284E+01
 21
-5.19443354E+01
  0
LINE
  8
0
 62
7
 10
-8.05112284E+01
 20
-3.35433539E+00
 11
-8.05112284E+01
 21
-4.13443354E+01
  0
LINE
  8
0
 62
7
 10
-7.95112284E+01
 20
-4.23443354E+01
 11
-6.57512284E+01
 21
-4.23443354E+01
  0
LINE
  8
0
 62
7
 10
-7.95112284E+01
 20
-2.35433539E+00
 11
-7.42412284E+01
 21
-2.35433539E+00
  0
LINE
  8
0
  6
CENTER
 62
2
 10
-8.45112284E+01
 20
-2.23443354E+01
 11
-6.27212284E+01
 21
-2.23443354E+01
  0
LINE
  8
0
 62
7
 10
-8.05112284E+01
 20
-3.35433539E+00
 11
-7.95112284E+01
 21
-2.35433539E+00
  0
LINE
  8
0
 62
7
 10
-7.95112284E+01
 20
-4.23443354E+01
 11
-8.05112284E+01
 21
-4.13443354E+01
  0
LINE
  8
0
 62
7
 10
-7.95112284E+01
 20
-4.23443354E+01
 11
-7.95112284E+01
 21
-2.35433539E+00
  0
LINE
  8
0
 62
7
 10
-6.74512284E+01
 20
-1.44433539E+00
 11
-6.60812284E+01
 21
-4.06843354E+01
  0
LINE
  8
0
 62
4
 10
-2.60712284E+01
 20
-6.31143354E+01
 11
-2.55012284E+01
 21
-6.33343354E+01
  0
LINE
  8
0
 62
4
 10
-2.49112284E+01
 20
-7.25443354E+01
 11
-2.55012284E+01
 21
-7.30443354E+01
  0
LINE
  8
0
 62
4
 10
-4.01112284E+01
 20
-7.25443354E+01
 11
-3.95212284E+01
 21
-7.30443354E+01
  0
LINE
  8
0
 62
4
 10
-4.00912284E+01
 20
-5.88443354E+01
 11
-2.49412284E+01
 21
-5.88443354E+01
  0
LINE
  8
0
 62
4
 10
-2.44412284E+01
 20
-5.23443354E+01
 11
-2.44412284E+01
 21
-5.83443354E+01
  0
LINE
  8
0
 62
4
 10
-4.05912284E+01
 20
-5.23443354E+01
 11
-4.05912284E+01
 21
-5.83443354E+01
  0
LINE
  8
0
 62
4
 10
-3.92612284E+01
 20
-7.35443354E+01
 11
-2.57612284E+01
 21
-7.35443354E+01
  0
LINE
  8
0
 62
4
 10
-4.02612284E+01
 20
-6.05443354E+01
 11
-4.02612284E+01
 21
-7.25443354E+01
  0
LINE
  8
0
 62
4
 10
-2.47612284E+01
 20
-6.05443354E+01
 11
-2.47612284E+01
 21
-7.25443354E+01
  0
LINE
  8
0
 62
4
 10
-4.02612284E+01
 20
-7.25443354E+01
 11
-3.92612284E+01
 21
-7.35443354E+01
  0
LINE
  8
0
 62
4
 10
-2.57612284E+01
 20
-7.35443354E+01
 11
-2.47612284E+01
 21
-7.25443354E+01
  0
LINE
  8
0
 62
4
 10
-4.01112284E+01
 20
-6.30443354E+01
 11
-3.89512284E+01
 21
-6.30443354E+01
  0
LINE
  8
0
 62
4
 10
-3.97612284E+01
 20
-6.00443354E+01
 11
-2.52612284E+01
 21
-6.00443354E+01
  0
LINE
  8
0
 62
4
 10
-4.02612284E+01
 20
-6.05443354E+01
 11
-3.97612284E+01
 21
-6.00443354E+01
  0
LINE
  8
0
 62
4
 10
-2.52612284E+01
 20
-6.00443354E+01
 11
-2.47612284E+01
 21
-6.05443354E+01
  0
LINE
  8
0
 62
4
 10
-3.85112284E+01
 20
-5.88443354E+01
 11
-3.85112284E+01
 21
-6.00443354E+01
  0
LINE
  8
0
 62
4
 10
-2.65112284E+01
 20
-5.88443354E+01
 11
-2.65112284E+01
 21
-6.00443354E+01
  0
LINE
  8
0
 62
4
 10
-4.05912284E+01
 20
-5.83443354E+01
 11
-4.00912284E+01
 21
-5.88443354E+01
  0
LINE
  8
0
 62
4
 10
-2.44412284E+01
 20
-5.83443354E+01
 11
-2.49412284E+01
 21
-5.88443354E+01
  0
LINE
  8
0
 62
4
 10
-4.05912284E+01
 20
-5.83443354E+01
 11
-2.44412284E+01
 21
-5.83443354E+01
  0
LINE
  8
0
 62
4
 10
-4.02612284E+01
 20
-6.05443354E+01
 11
-2.47612284E+01
 21
-6.05443354E+01
  0
LINE
  8
0
 62
4
 10
-4.01112284E+01
 20
-6.33343354E+01
 11
-3.95212284E+01
 21
-6.33343354E+01
  0
LINE
  8
0
 62
4
 10
-4.02612284E+01
 20
-7.25443354E+01
 11
-4.01112284E+01
 21
-7.25443354E+01
  0
LINE
  8
0
 62
4
 10
-3.40112284E+01
 20
-6.30443354E+01
 11
-3.40112284E+01
 21
-7.25443354E+01
  0
LINE
  8
0
 62
4
 10
-3.10112284E+01
 20
-6.30443354E+01
 11
-3.10112284E+01
 21
-7.25443354E+01
  0
LINE
  8
0
 62
4
 10
-3.10112284E+01
 20
-6.30443354E+01
 11
-2.82012284E+01
 21
-6.30443354E+01
  0
LINE
  8
0
 62
4
 10
-3.06712284E+01
 20
-6.33343354E+01
 11
-2.88512284E+01
 21
-6.33343354E+01
  0
LINE
  8
0
 62
4
 10
-3.40112284E+01
 20
-7.25443354E+01
 11
-3.10112284E+01
 21
-7.25443354E+01
  0
LINE
  8
0
 62
4
 10
-2.82012284E+01
 20
-7.25443354E+01
 11
-2.60712284E+01
 21
-7.25443354E+01
  0
LINE
  8
0
 62
4
 10
-3.97612284E+01
 20
-7.30443354E+01
 11
-3.95212284E+01
 21
-7.30443354E+01
  0
LINE
  8
0
 62
4
 10
-3.06712284E+01
 20
-6.33343354E+01
 11
-3.06712284E+01
 21
-7.30443354E+01
  0
LINE
  8
0
 62
4
 10
-3.43512284E+01
 20
-6.33343354E+01
 11
-3.43512284E+01
 21
-7.30443354E+01
  0
LINE
  8
0
 62
4
 10
-3.43512284E+01
 20
-7.30443354E+01
 11
-3.06712284E+01
 21
-7.30443354E+01
  0
LINE
  8
0
 62
4
 10
-2.88512284E+01
 20
-7.30443354E+01
 11
-2.60712284E+01
 21
-7.30443354E+01
  0
LINE
  8
0
 62
4
 10
-2.88512284E+01
 20
-6.33343354E+01
 11
-2.88512284E+01
 21
-7.30443354E+01
  0
LINE
  8
0
 62
4
 10
-3.61712284E+01
 20
-6.33343354E+01
 11
-3.61712284E+01
 21
-7.30443354E+01
  0
LINE
  8
0
 62
4
 10
-3.68312284E+01
 20
-6.30443354E+01
 11
-3.68312284E+01
 21
-7.25443354E+01
  0
LINE
  8
0
 62
4
 10
-2.82012284E+01
 20
-6.30443354E+01
 11
-2.82012284E+01
 21
-7.25443354E+01
  0
LINE
  8
0
 62
4
 10
-2.60712284E+01
 20
-6.30443354E+01
 11
-2.49112284E+01
 21
-6.30443354E+01
  0
LINE
  8
0
 62
4
 10
-2.55012284E+01
 20
-6.33343354E+01
 11
-2.49112284E+01
 21
-6.33343354E+01
  0
LINE
  8
0
 62
4
 10
-3.68312284E+01
 20
-6.30443354E+01
 11
-3.40112284E+01
 21
-6.30443354E+01
  0
LINE
  8
0
 62
4
 10
-3.61712284E+01
 20
-6.33343354E+01
 11
-3.43512284E+01
 21
-6.33343354E+01
  0
LINE
  8
0
 62
4
 10
-3.89512284E+01
 20
-7.25443354E+01
 11
-3.68312284E+01
 21
-7.25443354E+01
  0
LINE
  8
0
 62
4
 10
-3.89512284E+01
 20
-7.30443354E+01
 11
-3.61712284E+01
 21
-7.30443354E+01
  0
LINE
  8
0
 62
4
 10
-2.49112284E+01
 20
-7.25443354E+01
 11
-2.47612284E+01
 21
-7.25443354E+01
  0
LINE
  8
0
 62
4
 10
-2.55012284E+01
 20
-7.30443354E+01
 11
-2.52612284E+01
 21
-7.30443354E+01
  0
LINE
  8
0
 62
4
 10
-3.89512284E+01
 20
-6.30443354E+01
 11
-3.89512284E+01
 21
-7.30443354E+01
  0
LINE
  8
0
 62
4
 10
-2.60712284E+01
 20
-6.30443354E+01
 11
-2.60712284E+01
 21
-7.30443354E+01
  0
LINE
  8
0
 62
4
 10
-3.95212284E+01
 20
-6.33343354E+01
 11
-3.95212284E+01
 21
-7.30443354E+01
  0
LINE
  8
0
 62
4
 10
-2.55012284E+01
 20
-6.33343354E+01
 11
-2.55012284E+01
 21
-7.30443354E+01
  0
LINE
  8
0
 62
4
 10
-4.01112284E+01
 20
-6.30443354E+01
 11
-4.01112284E+01
 21
-7.25443354E+01
  0
LINE
  8
0
 62
4
 10
-2.49112284E+01
 20
-6.30443354E+01
 11
-2.49112284E+01
 21
-7.25443354E+01
  0
LINE
  8
0
 62
4
 10
-3.43512284E+01
 20
-6.33343354E+01
 11
-3.40112284E+01
 21
-6.30443354E+01
  0
LINE
  8
0
 62
4
 10
-3.10112284E+01
 20
-6.30443354E+01
 11
-3.06712284E+01
 21
-6.33343354E+01
  0
LINE
  8
0
 62
4
 10
-3.10112284E+01
 20
-7.25443354E+01
 11
-3.06712284E+01
 21
-7.30443354E+01
  0
LINE
  8
0
 62
4
 10
-3.40112284E+01
 20
-7.25443354E+01
 11
-3.43512284E+01
 21
-7.30443354E+01
  0
LINE
  8
0
 62
4
 10
-3.68312284E+01
 20
-6.30443354E+01
 11
-3.61712284E+01
 21
-6.33343354E+01
  0
LINE
  8
0
 62
4
 10
-2.88512284E+01
 20
-6.33343354E+01
 11
-2.81912284E+01
 21
-6.30443354E+01
  0
LINE
  8
0
 62
4
 10
-2.82012284E+01
 20
-7.25443354E+01
 11
-2.88512284E+01
 21
-7.30443354E+01
  0
LINE
  8
0
 62
4
 10
-3.68312284E+01
 20
-7.25443354E+01
 11
-3.61712284E+01
 21
-7.30443354E+01
  0
LINE
  8
0
 62
4
 10
-3.95212284E+01
 20
-6.33343354E+01
 11
-3.89512284E+01
 21
-6.31143354E+01
  0
LINE
  8
0
 62
7
 10
-5.74312284E+01
 20
9.76456646E+01
 11
-8.75112284E+01
 21
9.76456646E+01
  0
LINE
  8
0
 62
7
 10
-7.59122845E+00
 20
1.07645665E+02
 11
2.24887716E+01
 21
1.07645665E+02
  0
LINE
  8
0
 62
7
 10
4.88771553E-01
 20
1.22645665E+02
 11
4.88771553E-01
 21
1.10345665E+02
  0
LINE
  8
0
 62
7
 10
-7.59122845E+00
 20
1.08345665E+02
 11
-7.59122845E+00
 21
1.06345665E+02
  0
LINE
  8
0
 62
2
 10
-7.59122845E+00
 20
1.06345665E+02
 11
-7.59122845E+00
 21
9.32656646E+01
  0
LINE
  8
0
 62
7
 10
-6.51122845E+00
 20
1.06345665E+02
 11
-6.51122845E+00
 21
9.43456646E+01
  0
LINE
  8
0
 62
7
 10
-6.51122845E+00
 20
9.43456646E+01
 11
-8.51122845E+00
 21
9.23456646E+01
  0
LINE
  8
0
 62
7
 10
-1.01312284E+01
 20
9.23456646E+01
 11
-1.06112284E+01
 21
8.16456646E+01
  0
LINE
  8
0
 62
7
 10
-1.26612284E+01
 20
8.58456646E+01
 11
-1.27512284E+01
 21
8.16456646E+01
  0
LINE
  8
0
 62
7
 10
-1.36612284E+01
 20
8.58456646E+01
 11
-1.37512284E+01
 21
8.16456646E+01
  0
LINE
  8
0
 62
7
 10
-1.26512284E+01
 20
8.58456646E+01
 11
-1.56612284E+01
 21
8.58456646E+01
  0
LINE
  8
0
 62
7
 10
-1.56612284E+01
 20
8.58456646E+01
 11
-1.57512284E+01
 21
8.16456646E+01
  0
LINE
  8
0
 62
7
 10
-1.87512284E+01
 20
8.16456646E+01
 11
-1.85112284E+01
 21
9.23456646E+01
  0
LINE
  8
0
 62
7
 10
-2.55112284E+01
 20
9.23456646E+01
 11
-2.55112284E+01
 21
8.16456646E+01
  0
LINE
  8
0
 62
7
 10
-5.23712284E+01
 20
8.58456646E+01
 11
-5.22712284E+01
 21
8.16456646E+01
  0
LINE
  8
0
 62
7
 10
-5.12012284E+01
 20
7.16456646E+01
 11
-4.99112284E+01
 21
3.45356646E+01
  0
LINE
  8
0
 62
7
 10
-5.64112284E+01
 20
8.16456646E+01
 11
-8.62122845E+00
 21
8.16456646E+01
  0
LINE
  8
0
 62
7
 10
-5.65612284E+01
 20
7.16456646E+01
 11
-5.63112284E+01
 21
7.15056646E+01
  0
LINE
  8
0
 62
7
 10
-5.63112284E+01
 20
7.15056646E+01
 11
-5.54112284E+01
 21
4.56456646E+01
  0
LINE
  8
0
 62
7
 10
-5.64112284E+01
 20
8.16456646E+01
 11
-5.68912284E+01
 21
8.11656646E+01
  0
LINE
  8
0
 62
7
 10
-3.65112284E+01
 20
7.16456646E+01
 11
-3.65112284E+01
 21
3.45356646E+01
  0
LINE
  8
0
 62
7
 10
-3.65112284E+01
 20
7.16456646E+01
 11
-5.12012284E+01
 21
7.16456646E+01
  0
LINE
  8
0
 62
7
 10
-5.68912284E+01
 20
8.11656646E+01
 11
-5.65612284E+01
 21
7.16456646E+01
  0
LINE
  8
0
 62
7
 10
-8.34412284E+01
 20
9.57156646E+01
 11
-8.04312284E+01
 21
9.30566461E+00
  0
LINE
  8
0
 62
7
 10
-5.48912284E+01
 20
9.23456646E+01
 11
-5.44212284E+01
 21
8.16456646E+01
  0
LINE
  8
0
 62
7
 10
-5.74312284E+01
 20
1.08345665E+02
 11
-5.74312284E+01
 21
1.06345665E+02
  0
LINE
  8
0
 62
7
 10
-6.51122845E+00
 20
1.06345665E+02
 11
-5.85112284E+01
 21
1.06345665E+02
  0
LINE
  8
0
 62
2
 10
-5.74312284E+01
 20
1.06345665E+02
 11
-5.74312284E+01
 21
9.32656646E+01
  0
LINE
  8
0
 62
7
 10
-5.85112284E+01
 20
1.06345665E+02
 11
-5.85112284E+01
 21
9.43456646E+01
  0
LINE
  8
0
 62
7
 10
-5.85112284E+01
 20
9.43456646E+01
 11
-6.51122845E+00
 21
9.43456646E+01
  0
LINE
  8
0
 62
7
 10
-5.85112284E+01
 20
9.43456646E+01
 11
-5.65112284E+01
 21
9.23456646E+01
  0
LINE
  8
0
 62
7
 10
-5.65112284E+01
 20
9.23456646E+01
 11
-8.51122845E+00
 21
9.23456646E+01
  0
LINE
  8
0
 62
7
 10
-3.95112284E+01
 20
9.23456646E+01
 11
-3.95112284E+01
 21
8.16456646E+01
  0
LINE
  8
0
 62
7
 10
-4.65112284E+01
 20
9.23456646E+01
 11
-4.62712284E+01
 21
8.16456646E+01
  0
LINE
  8
0
 62
7
 10
-4.93712284E+01
 20
8.58456646E+01
 11
-4.92712284E+01
 21
8.16456646E+01
  0
LINE
  8
0
 62
7
 10
-5.23712284E+01
 20
8.58456646E+01
 11
-4.93712284E+01
 21
8.58456646E+01
  0
LINE
  8
0
 62
7
 10
-5.13712284E+01
 20
8.58456646E+01
 11
-5.12712284E+01
 21
8.16456646E+01
  0
LINE
  8
0
  6
CENTER
 62
2
 10
1.24887716E+01
 20
1.26645665E+02
 11
1.24887716E+01
 21
1.10045665E+02
  0
LINE
  8
0
 62
7
 10
1.74887716E+01
 20
1.67645665E+02
 11
1.24887716E+01
 21
1.62645665E+02
  0
LINE
  8
0
 62
7
 10
2.69887716E+01
 20
1.86645665E+02
 11
1.77787716E+01
 21
1.86645665E+02
  0
LINE
  8
0
 62
7
 10
2.74887716E+01
 20
1.86145665E+02
 11
2.74887716E+01
 21
1.33145665E+02
  0
LINE
  8
0
 62
7
 10
1.74887716E+01
 20
1.86555665E+02
 11
1.74887716E+01
 21
1.67645665E+02
  0
LINE
  8
0
 62
7
 10
1.73387716E+01
 20
1.86395665E+02
 11
3.62877155E+00
 21
1.62645665E+02
  0
LINE
  8
0
 62
7
 10
-7.74412284E+01
 20
1.24575665E+02
 11
-7.59212284E+01
 21
1.68145665E+02
  0
LINE
  8
0
 62
7
 10
1.64887716E+01
 20
1.66645665E+02
 11
1.64887716E+01
 21
1.32645665E+02
  0
LINE
  8
0
 62
7
 10
8.48877155E+00
 20
1.62645665E+02
 11
8.48877155E+00
 21
1.32645665E+02
  0
CIRCLE
  8
0
 62
7
 10
-3.25083909E+01
 20
1.47648487E+02
 40
1.20585012E+01
  0
CIRCLE
  8
0
 62
2
 10
-3.25083909E+01
 20
1.47648487E+02
 40
1.32205000E+01
  0
ARC
  8
0
 62
7
 10
-6.35112188E+01
 20
1.86645655E+02
 40
2.00000963E+00
 50
9.00000002E+01
 51
1.79999724E+02
  0
ARC
  8
0
 62
7
 10
-6.35083924E+01
 20
1.10348501E+02
 40
2.00283801E+00
 50
1.80081130E+02
 51
2.69918870E+02
  0
ARC
  8
0
 62
7
 10
-5.25112200E+01
 20
1.67645656E+02
 40
5.00000843E+00
 50
9.00000002E+01
 51
1.79999904E+02
  0
ARC
  8
0
 62
7
 10
-5.25083986E+01
 20
1.27648495E+02
 40
5.00283070E+00
 50
1.80032410E+02
 51
2.69967590E+02
  0
ARC
  8
0
 62
7
 10
-4.82612288E+01
 20
1.23145665E+02
 40
5.00000379E-01
 50
2.70000000E+02
 51
3.59999957E+02
  0
ARC
  8
0
 62
7
 10
-1.67584062E+01
 20
1.23148487E+02
 40
5.02830186E-01
 50
1.80321589E+02
 51
2.69678411E+02
  0
ARC
  8
0
 62
7
 10
-4.57612188E+01
 20
1.25645655E+02
 40
2.00000963E+00
 50
9.00000002E+01
 51
1.79999724E+02
  0
ARC
  8
0
 62
7
 10
-1.92584062E+01
 20
1.25648487E+02
 40
1.99717973E+00
 50
3.59919034E+02
 51
9.00809660E+01
  0
ARC
  8
0
 62
4
 10
-5.50084138E+01
 20
1.60648479E+02
 40
1.99718735E+00
 50
3.59919253E+02
 51
9.00807471E+01
  0
ARC
  8
0
 62
4
 10
-5.50112228E+01
 20
1.34645659E+02
 40
1.99999437E+00
 50
2.70000000E+02
 51
1.61211184E-04
  0
ARC
  8
0
 62
4
 10
-7.00112112E+01
 20
1.60645647E+02
 40
2.00001723E+00
 50
9.00000002E+01
 51
1.79999506E+02
  0
ARC
  8
0
 62
4
 10
-7.00084062E+01
 20
1.34648487E+02
 40
2.00282425E+00
 50
1.80080738E+02
 51
2.69919262E+02
  0
ARC
  8
0
 62
7
 10
-6.50084062E+01
 20
1.63398487E+02
 40
5.02830186E-01
 50
1.80321589E+02
 51
2.69678411E+02
  0
ARC
  8
0
 62
7
 10
-6.50112205E+01
 20
1.31895657E+02
 40
5.00007965E-01
 50
9.00000002E+01
 51
1.79999087E+02
  0
ARC
  8
0
 62
7
 10
-1.12364128E-02
 20
1.63395673E+02
 40
5.00007965E-01
 50
2.70000000E+02
 51
3.59999087E+02
  0
ARC
  8
0
 62
7
 10
-8.40618186E-03
 20
1.31898487E+02
 40
4.97185745E-01
 50
3.59674760E+02
 51
9.03252402E+01
  0
ARC
  8
0
 62
7
 10
-1.50840618E+00
 20
1.86648487E+02
 40
1.99717973E+00
 50
3.59919034E+02
 51
9.00809660E+01
  0
ARC
  8
0
 62
7
 10
-1.51123655E+00
 20
1.10345673E+02
 40
2.00000810E+00
 50
2.70000000E+02
 51
3.59999768E+02
  0
ARC
  8
0
 62
7
 10
-1.25084062E+01
 20
1.67648487E+02
 40
4.99717853E+00
 50
3.59967641E+02
 51
9.00323591E+01
  0
ARC
  8
0
 62
7
 10
-1.25112292E+01
 20
1.27645665E+02
 40
5.00000080E+00
 50
2.70000000E+02
 51
3.59999991E+02
  0
ARC
  8
0
 62
7
 10
-1.67612205E+01
 20
1.72145657E+02
 40
5.00007965E-01
 50
9.00000002E+01
 51
1.79999087E+02
  0
ARC
  8
0
 62
7
 10
-4.82583986E+01
 20
1.72148495E+02
 40
4.97178159E-01
 50
3.59673875E+02
 51
9.03261243E+01
  0
ARC
  8
0
 62
7
 10
-1.92612304E+01
 20
1.69645667E+02
 40
2.00000199E+00
 50
2.70000000E+02
 51
3.59999943E+02
  0
ARC
  8
0
 62
7
 10
-4.57583986E+01
 20
1.69648495E+02
 40
2.00283189E+00
 50
1.80080956E+02
 51
2.69919044E+02
  0
CIRCLE
  8
0
 62
7
 10
-3.25083909E+01
 20
1.47648487E+02
 40
7.00000000E+00
  0
CIRCLE
  8
0
 62
7
 10
-3.25083909E+01
 20
1.43248462E+02
 40
1.09999847E+00
  0
CIRCLE
  8
0
 62
7
 10
-3.25083909E+01
 20
1.43248462E+02
 40
1.80000305E+00
  0
ARC
  8
0
 62
7
 10
-1.00112112E+01
 20
1.60645647E+02
 40
2.00001723E+00
 50
9.00000002E+01
 51
1.79999506E+02
  0
ARC
  8
0
 62
7
 10
-1.00084062E+01
 20
1.34648487E+02
 40
2.00282425E+00
 50
1.80080738E+02
 51
2.69919262E+02
  0
ARC
  8
0
 62
7
 10
-6.35083924E+01
 20
1.17348501E+02
 40
2.00283801E+00
 50
1.80081130E+02
 51
2.69918870E+02
  0
ARC
  8
0
 62
7
 10
-5.35083924E+01
 20
1.10348501E+02
 40
2.00283801E+00
 50
1.80081130E+02
 51
2.69918870E+02
  0
ARC
  8
0
 62
7
 10
-1.15112366E+01
 20
1.10345673E+02
 40
2.00000810E+00
 50
2.70000000E+02
 51
3.59999768E+02
  0
ARC
  8
0
 62
7
 10
-1.51123655E+00
 20
1.17345673E+02
 40
2.00000810E+00
 50
2.70000000E+02
 51
3.59999768E+02
  0
ARC
  8
0
 62
7
 10
-6.35112188E+01
 20
1.79645655E+02
 40
2.00000963E+00
 50
9.00000002E+01
 51
1.79999724E+02
  0
ARC
  8
0
 62
7
 10
-5.35112188E+01
 20
1.86645655E+02
 40
2.00000963E+00
 50
9.00000002E+01
 51
1.79999724E+02
  0
ARC
  8
0
 62
7
 10
-1.15084062E+01
 20
1.86648487E+02
 40
1.99717973E+00
 50
3.59919034E+02
 51
9.00809660E+01
  0
ARC
  8
0
 62
7
 10
-1.50840618E+00
 20
1.79648487E+02
 40
1.99717973E+00
 50
3.59919034E+02
 51
9.00809660E+01
  0
ARC
  8
0
 62
7
 10
-7.05111952E+01
 20
1.14545631E+02
 40
4.99966794E-01
 50
2.70000000E+02
 51
3.80555881E-03
  0
ARC
  8
0
 62
7
 10
5.49157551E+00
 20
1.14548469E+02
 40
5.02811774E-01
 50
1.80319514E+02
 51
2.69680485E+02
  0
ARC
  8
0
 62
7
 10
-8.55112417E+01
 20
1.20645678E+02
 40
1.99998671E+00
 50
9.00000002E+01
 51
1.80000381E+02
  0
ARC
  8
0
 62
7
 10
2.04915938E+01
 20
1.20648487E+02
 40
1.99717973E+00
 50
3.59919034E+02
 51
9.00809660E+01
  0
ARC
  8
0
 62
7
 10
-8.55112235E+01
 20
1.12045660E+02
 40
2.00000500E+00
 50
9.00000002E+01
 51
1.79999857E+02
  0
ARC
  8
0
 62
7
 10
-6.80112035E+01
 20
1.20645640E+02
 40
2.00002491E+00
 50
9.00000002E+01
 51
1.79999286E+02
  0
ARC
  8
0
 62
7
 10
2.99159382E+00
 20
1.20648487E+02
 40
1.99717973E+00
 50
3.59919034E+02
 51
9.00809660E+01
  0
ARC
  8
0
 62
7
 10
2.04915755E+01
 20
1.12048469E+02
 40
1.99719801E+00
 50
3.59919560E+02
 51
9.00804400E+01
  0
ARC
  8
0
 62
7
 10
-4.79058577E+01
 20
-4.93491951E+01
 40
2.99514382E+00
 50
2.40048610E+02
 51
2.70088556E+02
  0
ARC
  8
0
 62
7
 10
-6.30862480E+01
 20
-4.05769376E+01
 40
2.99690541E+00
 50
1.82053706E+02
 51
2.40076624E+02
  0
ARC
  8
0
 62
7
 10
-1.71162308E+01
 20
-4.93505767E+01
 40
2.99376291E+00
 50
2.69904353E+02
 51
2.99958482E+02
  0
ARC
  8
0
 62
7
 10
2.04186476E+01
 20
9.56445236E+01
 40
2.00114098E+00
 50
9.00000002E+01
 51
1.77962694E+02
  0
ARC
  8
0
 62
7
 10
1.24037638E+01
 20
9.40705479E+00
 40
2.99672346E+00
 50
3.00146835E+02
 51
3.58061103E+02
  0
ARC
  8
0
 62
7
 10
-7.74274011E+01
 20
9.41839190E+00
 40
3.00594177E+00
 50
1.82149181E+02
 51
2.39981149E+02
  0
ARC
  8
0
 62
7
 10
5.42942709E+00
 20
-1.54472872E+00
 40
3.00233450E+00
 50
1.19988725E+02
 51
1.78083763E+02
  0
ARC
  8
0
 62
7
 10
-1.93209521E+00
 20
-4.05794157E+01
 40
2.99270649E+00
 50
2.99878785E+02
 51
3.57990885E+02
  0
ARC
  8
0
 62
7
 10
-7.42416931E+01
 20
6.46681936E-01
 40
3.00101737E+00
 50
2.70000000E+02
 51
6.00009694E+01
  0
ARC
  8
0
 62
7
 10
-7.04478663E+01
 20
-1.54231813E+00
 40
2.99823936E+00
 50
1.87276471E+00
 51
6.00547483E+01
  0
ARC
  8
0
 62
7
 10
-6.57569543E+01
 20
-4.28475344E+01
 40
5.03231609E-01
 50
3.99595836E+01
 51
8.93480647E+01
  0
ARC
  8
0
 62
7
 10
-8.54384894E+01
 20
9.56472335E+01
 40
1.99843296E+00
 50
1.96232697E+00
 51
9.00785281E+01
  0
ARC
  8
0
 62
7
 10
1.44215822E+01
 20
1.24649847E+02
 40
2.00418400E+00
 50
1.82121206E+02
 51
2.69919648E+02
  0
ARC
  8
0
 62
7
 10
2.69887789E+01
 20
1.33145657E+02
 40
4.99992621E-01
 50
2.70000000E+02
 51
8.45626851E-04
  0
ARC
  8
0
 62
7
 10
2.69915786E+01
 20
1.86148472E+02
 40
4.97200917E-01
 50
3.59676528E+02
 51
9.03234721E+01
  0
ARC
  8
0
 62
7
 10
1.77727047E+01
 20
1.86144142E+02
 40
5.01559043E-01
 50
8.93069344E+01
 51
1.49901967E+02
  0
ARC
  8
0
 62
7
 10
-7.94413027E+01
 20
1.24647011E+02
 40
2.00134640E+00
 50
2.70000000E+02
 51
3.57957018E+02
  0
POLYLINE
  8
0
 62
4
 66
1
  0
VERTEX
  8
0
 62
4
 10
-6.99828230E+01
 20
1.42148547E+02
  0
VERTEX
  8
0
 62
4
 10
-6.98503544E+01
 20
1.42170686E+02
  0
VERTEX
  8
0
 62
4
 10
-6.97191228E+01
 20
1.42235696E+02
  0
VERTEX
  8
0
 62
4
 10
-6.95901552E+01
 20
1.42343069E+02
  0
VERTEX
  8
0
 62
4
 10
-6.94644610E+01
 20
1.42491963E+02
  0
VERTEX
  8
0
 62
4
 10
-6.93430238E+01
 20
1.42681215E+02
  0
VERTEX
  8
0
 62
4
 10
-6.92267942E+01
 20
1.42909342E+02
  0
VERTEX
  8
0
 62
4
 10
-6.91166818E+01
 20
1.43174559E+02
  0
VERTEX
  8
0
 62
4
 10
-6.90135483E+01
 20
1.43474791E+02
  0
VERTEX
  8
0
 62
4
 10
-6.89182010E+01
 20
1.43807688E+02
  0
VERTEX
  8
0
 62
4
 10
-6.88313860E+01
 20
1.44170644E+02
  0
VERTEX
  8
0
 62
4
 10
-6.87537827E+01
 20
1.44560819E+02
  0
VERTEX
  8
0
 62
4
 10
-6.86859986E+01
 20
1.44975159E+02
  0
VERTEX
  8
0
 62
4
 10
-6.86285641E+01
 20
1.45410421E+02
  0
VERTEX
  8
0
 62
4
 10
-6.85819288E+01
 20
1.45863200E+02
  0
VERTEX
  8
0
 62
4
 10
-6.85464575E+01
 20
1.46329951E+02
  0
VERTEX
  8
0
 62
4
 10
-6.85224280E+01
 20
1.46807021E+02
  0
VERTEX
  8
0
 62
4
 10
-6.85100283E+01
 20
1.47290677E+02
  0
VERTEX
  8
0
 62
4
 10
-6.85093555E+01
 20
1.47777133E+02
  0
VERTEX
  8
0
 62
4
 10
-6.85204147E+01
 20
1.48262582E+02
  0
VERTEX
  8
0
 62
4
 10
-6.85431195E+01
 20
1.48743225E+02
  0
VERTEX
  8
0
 62
4
 10
-6.85772921E+01
 20
1.49215300E+02
  0
VERTEX
  8
0
 62
4
 10
-6.86226652E+01
 20
1.49675113E+02
  0
VERTEX
  8
0
 62
4
 10
-6.86788835E+01
 20
1.50119065E+02
  0
VERTEX
  8
0
 62
4
 10
-6.87455072E+01
 20
1.50543681E+02
  0
VERTEX
  8
0
 62
4
 10
-6.88220148E+01
 20
1.50945639E+02
  0
VERTEX
  8
0
 62
4
 10
-6.89078075E+01
 20
1.51321791E+02
  0
VERTEX
  8
0
 62
4
 10
-6.90022138E+01
 20
1.51669195E+02
  0
VERTEX
  8
0
 62
4
 10
-6.91044950E+01
 20
1.51985132E+02
  0
VERTEX
  8
0
 62
4
 10
-6.92138505E+01
 20
1.52267128E+02
  0
VERTEX
  8
0
 62
4
 10
-6.93294245E+01
 20
1.52512978E+02
  0
VERTEX
  8
0
 62
4
 10
-6.94503125E+01
 20
1.52720756E+02
  0
VERTEX
  8
0
 62
4
 10
-6.95755683E+01
 20
1.52888836E+02
  0
VERTEX
  8
0
 62
4
 10
-6.97042116E+01
 20
1.53015904E+02
  0
VERTEX
  8
0
 62
4
 10
-6.98352356E+01
 20
1.53100965E+02
  0
VERTEX
  8
0
 62
4
 10
-6.99676150E+01
 20
1.53143352E+02
  0
VERTEX
  8
0
 62
4
 10
-7.01003136E+01
 20
1.53142735E+02
  0
VERTEX
  8
0
 62
4
 10
-7.02322929E+01
 20
1.53099118E+02
  0
VERTEX
  8
0
 62
4
 10
-7.03625200E+01
 20
1.53012842E+02
  0
VERTEX
  8
0
 62
4
 10
-7.04899757E+01
 20
1.52884583E+02
  0
VERTEX
  8
0
 62
4
 10
-7.06136624E+01
 20
1.52715344E+02
  0
VERTEX
  8
0
 62
4
 10
-7.07326122E+01
 20
1.52506451E+02
  0
VERTEX
  8
0
 62
4
 10
-7.08458941E+01
 20
1.52259537E+02
  0
VERTEX
  8
0
 62
4
 10
-7.09526215E+01
 20
1.51976535E+02
  0
VERTEX
  8
0
 62
4
 10
-7.10519591E+01
 20
1.51659661E+02
  0
VERTEX
  8
0
 62
4
 10
-7.11431296E+01
 20
1.51311394E+02
  0
VERTEX
  8
0
 62
4
 10
-7.12254192E+01
 20
1.50934459E+02
  0
VERTEX
  8
0
 62
4
 10
-7.12981841E+01
 20
1.50531807E+02
  0
VERTEX
  8
0
 62
4
 10
-7.13608548E+01
 20
1.50106590E+02
  0
VERTEX
  8
0
 62
4
 10
-7.14129407E+01
 20
1.49662134E+02
  0
VERTEX
  8
0
 62
4
 10
-7.14540342E+01
 20
1.49201919E+02
  0
VERTEX
  8
0
 62
4
 10
-7.14838137E+01
 20
1.48729546E+02
  0
VERTEX
  8
0
 62
4
 10
-7.15020462E+01
 20
1.48248713E+02
  0
VERTEX
  8
0
 62
4
 10
-7.15085889E+01
 20
1.47763182E+02
  0
VERTEX
  8
0
 62
4
 10
-7.15033906E+01
 20
1.47276753E+02
  0
VERTEX
  8
0
 62
4
 10
-7.14864920E+01
 20
1.46793233E+02
  0
VERTEX
  8
0
 62
4
 10
-7.14580255E+01
 20
1.46316408E+02
  0
VERTEX
  8
0
 62
4
 10
-7.14182136E+01
 20
1.45850007E+02
  0
VERTEX
  8
0
 62
4
 10
-7.13673682E+01
 20
1.45397682E+02
  0
VERTEX
  8
0
 62
4
 10
-7.13058870E+01
 20
1.44962972E+02
  0
VERTEX
  8
0
 62
4
 10
-7.12342512E+01
 20
1.44549281E+02
  0
VERTEX
  8
0
 62
4
 10
-7.11530216E+01
 20
1.44159845E+02
  0
VERTEX
  8
0
 62
4
 10
-7.10628338E+01
 20
1.43797712E+02
  0
VERTEX
  8
0
 62
4
 10
-7.09643937E+01
 20
1.43465716E+02
  0
VERTEX
  8
0
 62
4
 10
-7.08584717E+01
 20
1.43166457E+02
  0
VERTEX
  8
0
 62
4
 10
-7.07458967E+01
 20
1.42902276E+02
  0
VERTEX
  8
0
 62
4
 10
-7.06275499E+01
 20
1.42675240E+02
  0
VERTEX
  8
0
 62
4
 10
-7.05043575E+01
 20
1.42487126E+02
  0
VERTEX
  8
0
 62
4
 10
-7.03772835E+01
 20
1.42339407E+02
  0
VERTEX
  8
0
 62
4
 10
-7.02473226E+01
 20
1.42233239E+02
  0
VERTEX
  8
0
 62
4
 10
-7.01154919E+01
 20
1.42169453E+02
  0
VERTEX
  8
0
 62
4
 10
-6.99828231E+01
 20
1.42148547E+02
  0
SEQEND
  8
0
  0
LINE
  8
0
 62
7
 10
5.99159382E+00
 20
1.21548450E+02
 11
5.99159382E+00
 21
1.14048450E+02
  0
LINE
  8
0
 62
7
 10
5.99159382E+00
 20
1.21548450E+02
 11
6.86159382E+00
 21
1.22048450E+02
  0
LINE
  8
0
 62
7
 10
6.86159382E+00
 20
1.22048450E+02
 11
1.81215938E+01
 21
1.22048450E+02
  0
LINE
  8
0
 62
7
 10
5.99159382E+00
 20
1.21548450E+02
 11
1.89915938E+01
 21
1.21548450E+02
  0
LINE
  8
0
 62
7
 10
1.89915938E+01
 20
1.21548450E+02
 11
1.81215938E+01
 21
1.22048450E+02
  0
LINE
  8
0
 62
7
 10
1.89915938E+01
 20
1.21548450E+02
 11
1.89915938E+01
 21
1.14048450E+02
  0
LINE
  8
0
 62
7
 10
-2.58407657E-01
 20
1.10648498E+02
 11
-2.58406182E-01
 21
1.15348498E+02
  0
LINE
  8
0
 62
7
 10
-2.58407657E-01
 20
1.10648498E+02
 11
-7.78407751E-01
 21
1.10348498E+02
  0
LINE
  8
0
 62
7
 10
-8.75840766E+00
 20
1.10648500E+02
 11
-2.58407657E-01
 21
1.10648498E+02
  0
LINE
  8
0
 62
7
 10
-8.23840775E+00
 20
1.10348500E+02
 11
-7.78407751E-01
 21
1.10348498E+02
  0
LINE
  8
0
 62
7
 10
-8.75840766E+00
 20
1.10648500E+02
 11
-8.23840775E+00
 21
1.10348500E+02
  0
LINE
  8
0
 62
7
 10
-8.75840766E+00
 20
1.10648500E+02
 11
-8.75840618E+00
 21
1.15348500E+02
  0
LINE
  8
0
 62
7
 10
-8.75840766E+00
 20
1.86348486E+02
 11
-8.75840618E+00
 21
1.81648486E+02
  0
LINE
  8
0
 62
7
 10
-8.75840766E+00
 20
1.86348486E+02
 11
-8.23840775E+00
 21
1.86648486E+02
  0
LINE
  8
0
 62
7
 10
-2.58407657E-01
 20
1.86348488E+02
 11
-8.75840766E+00
 21
1.86348486E+02
  0
LINE
  8
0
 62
7
 10
-7.78407751E-01
 20
1.86648488E+02
 11
-8.23840775E+00
 21
1.86648486E+02
  0
LINE
  8
0
 62
7
 10
-2.58407657E-01
 20
1.86348488E+02
 11
-7.78407751E-01
 21
1.86648488E+02
  0
LINE
  8
0
 62
7
 10
-2.58407657E-01
 20
1.86348488E+02
 11
-2.58406182E-01
 21
1.81648488E+02
  0
LINE
  8
0
 62
7
 10
-5.62584077E+01
 20
1.10648498E+02
 11
-5.62584062E+01
 21
1.15348498E+02
  0
LINE
  8
0
 62
7
 10
-5.62584077E+01
 20
1.10648498E+02
 11
-5.67784078E+01
 21
1.10348498E+02
  0
LINE
  8
0
 62
7
 10
-6.47584077E+01
 20
1.10648500E+02
 11
-5.62584077E+01
 21
1.10648498E+02
  0
LINE
  8
0
 62
7
 10
-6.42384078E+01
 20
1.10348500E+02
 11
-5.67784078E+01
 21
1.10348498E+02
  0
LINE
  8
0
 62
7
 10
-6.47584077E+01
 20
1.10648500E+02
 11
-6.42384078E+01
 21
1.10348500E+02
  0
LINE
  8
0
 62
7
 10
-6.47584077E+01
 20
1.10648500E+02
 11
-6.47584062E+01
 21
1.15348500E+02
  0
LINE
  8
0
 62
7
 10
-6.47584077E+01
 20
1.86348486E+02
 11
-6.47584062E+01
 21
1.81648486E+02
  0
LINE
  8
0
 62
7
 10
-6.47584077E+01
 20
1.86348486E+02
 11
-6.42384078E+01
 21
1.86648486E+02
  0
LINE
  8
0
 62
7
 10
-5.62584077E+01
 20
1.86348488E+02
 11
-6.47584077E+01
 21
1.86348486E+02
  0
LINE
  8
0
 62
7
 10
-5.67784078E+01
 20
1.86648488E+02
 11
-6.42384078E+01
 21
1.86648486E+02
  0
LINE
  8
0
 62
7
 10
-5.62584077E+01
 20
1.86348488E+02
 11
-5.67784078E+01
 21
1.86648488E+02
  0
LINE
  8
0
 62
7
 10
-5.62584077E+01
 20
1.86348488E+02
 11
-5.62584062E+01
 21
1.81648488E+02
  0
LINE
  8
0
 62
7
 10
-7.10084214E+01
 20
1.21548450E+02
 11
-7.10084214E+01
 21
1.14048450E+02
  0
LINE
  8
0
 62
7
 10
-7.10084214E+01
 20
1.21548450E+02
 11
-7.18784214E+01
 21
1.22048450E+02
  0
LINE
  8
0
 62
7
 10
-7.18784214E+01
 20
1.22048450E+02
 11
-8.31384214E+01
 21
1.22048450E+02
  0
LINE
  8
0
 62
7
 10
-7.10084214E+01
 20
1.21548450E+02
 11
-8.40084214E+01
 21
1.21548450E+02
  0
LINE
  8
0
 62
7
 10
-8.40084214E+01
 20
1.21548450E+02
 11
-8.31384214E+01
 21
1.22048450E+02
  0
LINE
  8
0
 62
7
 10
-8.40084214E+01
 20
1.21548450E+02
 11
-8.40084214E+01
 21
1.14048450E+02
  0
ARC
  8
0
 62
4
 10
2.90542504E+02
 20
2.02435691E+02
 40
1.04943365E+01
 50
3.59969071E+02
 51
9.00309290E+01
  0
ARC
  8
0
 62
4
 10
2.90542503E+02
 20
2.02435690E+02
 40
4.99433920E+00
 50
3.59935022E+02
 51
9.00649782E+01
  0
ARC
  8
0
 62
4
 10
3.02536931E+02
 20
1.84690115E+02
 40
2.50012629E+00
 50
2.33129654E+02
 51
2.93075491E+02
  0
ARC
  8
0
 62
4
 10
2.98286839E+02
 20
1.90002465E+02
 40
7.81244297E+00
 50
2.49390150E+02
 51
2.90609851E+02
  0
ARC
  8
0
 62
4
 10
2.94036787E+02
 20
1.84689791E+02
 40
2.49984293E+00
 50
2.46920763E+02
 51
3.06874092E+02
  0
ARC
  8
0
 62
4
 10
3.02518704E+02
 20
1.88687792E+02
 40
2.49095711E+00
 50
6.63778453E+01
 51
1.26505355E+02
  0
ARC
  8
0
 62
4
 10
2.94055010E+02
 20
1.88688112E+02
 40
2.49067771E+00
 50
5.34909248E+01
 51
1.13625875E+02
  0
ARC
  8
0
 62
4
 10
2.98286839E+02
 20
1.83377556E+02
 40
7.81247154E+00
 50
6.93902287E+01
 51
1.10609772E+02
  0
ARC
  8
0
 62
4
 10
3.04347606E+02
 20
1.74611654E+02
 40
3.57184051E+00
 50
6.42951511E+01
 51
1.24649109E+02
  0
ARC
  8
0
 62
4
 10
2.98276839E+02
 20
1.64815235E+02
 40
1.33602583E+01
 50
7.23988295E+01
 51
1.07601170E+02
  0
ARC
  8
0
 62
4
 10
2.92214805E+02
 20
1.74612738E+02
 40
3.56598922E+00
 50
5.54564085E+01
 51
1.15549288E+02
  0
ARC
  8
0
 62
4
 10
2.15778576E+02
 20
1.95231762E+02
 40
2.18055625E-02
 50
1.84567156E+02
 51
2.65432843E+02
  0
CIRCLE
  8
0
 62
4
 10
2.28288232E+02
 20
2.00190026E+02
 40
1.75000012E+00
  0
CIRCLE
  8
0
 62
4
 10
2.28288232E+02
 20
2.00190026E+02
 40
1.50000000E+00
  0
CIRCLE
  8
0
 62
4
 10
2.28288232E+02
 20
2.00190026E+02
 40
1.45000000E+01
  0
CIRCLE
  8
0
 62
4
 10
2.28288232E+02
 20
2.00190026E+02
 40
2.05000000E+01
  0
CIRCLE
  8
0
 62
4
 10
2.28288232E+02
 20
2.00190026E+02
 40
2.20000000E+01
  0
LINE
  8
0
 62
4
 10
2.21536839E+02
 20
1.75190026E+02
 11
2.35036839E+02
 21
1.75190026E+02
  0
LINE
  8
0
 62
4
 10
2.21536839E+02
 20
1.77190026E+02
 11
2.21536839E+02
 21
1.75190026E+02
  0
LINE
  8
0
 62
4
 10
2.35036839E+02
 20
1.77190026E+02
 11
2.35036839E+02
 21
1.75190026E+02
  0
LINE
  8
0
 62
4
 10
2.19776839E+02
 20
1.77190026E+02
 11
2.36776839E+02
 21
1.77190026E+02
  0
LINE
  8
0
 62
4
 10
2.19776839E+02
 20
1.79890026E+02
 11
2.19776839E+02
 21
1.77190026E+02
  0
LINE
  8
0
 62
4
 10
2.36776839E+02
 20
1.79890026E+02
 11
2.36776839E+02
 21
1.77190026E+02
  0
LINE
  8
0
 62
4
 10
2.49056839E+02
 20
2.07430026E+02
 11
2.90536839E+02
 21
2.07430026E+02
  0
LINE
  8
0
 62
4
 10
2.46216839E+02
 20
2.12930026E+02
 11
2.90536839E+02
 21
2.12930026E+02
  0
LINE
  8
0
 62
4
 10
3.01036839E+02
 20
2.02430026E+02
 11
3.01036839E+02
 21
1.91190026E+02
  0
LINE
  8
0
 62
4
 10
2.95536839E+02
 20
2.02430026E+02
 11
2.95536839E+02
 21
1.91190026E+02
  0
LINE
  8
0
 62
4
 10
3.04036839E+02
 20
1.82690026E+02
 11
3.03156839E+02
 21
1.82190026E+02
  0
LINE
  8
0
 62
4
 10
3.03156839E+02
 20
1.82190026E+02
 11
2.93396839E+02
 21
1.82190026E+02
  0
LINE
  8
0
 62
4
 10
2.92536839E+02
 20
1.82690026E+02
 11
2.93396839E+02
 21
1.82190026E+02
  0
LINE
  8
0
 62
4
 10
3.04036839E+02
 20
1.90690026E+02
 11
3.03156839E+02
 21
1.91190026E+02
  0
LINE
  8
0
 62
4
 10
2.92536839E+02
 20
1.90690026E+02
 11
2.93396839E+02
 21
1.91190026E+02
  0
LINE
  8
0
 62
4
 10
2.95536839E+02
 20
1.90690026E+02
 11
2.95536839E+02
 21
1.82690026E+02
  0
LINE
  8
0
 62
4
 10
3.01036839E+02
 20
1.90690026E+02
 11
3.01036839E+02
 21
1.82690026E+02
  0
LINE
  8
0
 62
4
 10
3.04036839E+02
 20
1.90690026E+02
 11
3.04036839E+02
 21
1.82690026E+02
  0
LINE
  8
0
 62
4
 10
2.92536839E+02
 20
1.90690026E+02
 11
2.92536839E+02
 21
1.82690026E+02
  0
LINE
  8
0
 62
4
 10
3.03156839E+02
 20
1.91190026E+02
 11
2.93396839E+02
 21
1.91190026E+02
  0
LINE
  8
0
 62
4
 10
2.94776839E+02
 20
1.82190026E+02
 11
2.94776839E+02
 21
1.78190026E+02
  0
LINE
  8
0
 62
4
 10
3.01776839E+02
 20
1.82190026E+02
 11
3.01776839E+02
 21
1.78190026E+02
  0
LINE
  8
0
 62
4
 10
3.06356839E+02
 20
1.77550026E+02
 11
3.06356839E+02
 21
1.73190026E+02
  0
LINE
  8
0
 62
4
 10
3.05276839E+02
 20
1.78190026E+02
 11
3.06356839E+02
 21
1.77550026E+02
  0
LINE
  8
0
 62
4
 10
3.02316839E+02
 20
1.77550026E+02
 11
3.02316839E+02
 21
1.73190026E+02
  0
LINE
  8
0
 62
4
 10
2.94236839E+02
 20
1.77550026E+02
 11
2.94236839E+02
 21
1.73190026E+02
  0
LINE
  8
0
 62
4
 10
3.06356839E+02
 20
1.73190026E+02
 11
2.90196839E+02
 21
1.73190026E+02
  0
LINE
  8
0
 62
4
 10
2.90196839E+02
 20
1.77550026E+02
 11
2.90196839E+02
 21
1.73190026E+02
  0
LINE
  8
0
 62
4
 10
2.91276839E+02
 20
1.78190026E+02
 11
2.90196839E+02
 21
1.77550026E+02
  0
LINE
  8
0
 62
4
 10
3.05276839E+02
 20
1.78190026E+02
 11
2.91276839E+02
 21
1.78190026E+02
  0
LINE
  8
0
 62
4
 10
3.04856839E+02
 20
1.73190026E+02
 11
3.04856839E+02
 21
1.72190026E+02
  0
LINE
  8
0
 62
4
 10
2.91696839E+02
 20
1.73190026E+02
 11
2.91696839E+02
 21
1.72190026E+02
  0
LINE
  8
0
 62
4
 10
2.30016839E+02
 20
2.00390026E+02
 11
2.35756839E+02
 21
2.02490026E+02
  0
LINE
  8
0
 62
4
 10
2.29696839E+02
 20
2.01210026E+02
 11
2.35276839E+02
 21
2.03590026E+02
  0
LINE
  8
0
 62
4
 10
2.35276839E+02
 20
2.03590026E+02
 11
2.35756839E+02
 21
2.02490026E+02
  0
LINE
  8
0
 62
4
 10
2.15756839E+02
 20
1.95230026E+02
 11
2.26556839E+02
 21
1.99850026E+02
  0
LINE
  8
0
 62
4
 10
2.15776839E+02
 20
1.95210026E+02
 11
2.26816839E+02
 21
1.99230026E+02
  0
LINE
  8
0
  6
CENTER
 62
6
 10
2.00776839E+02
 20
2.00190026E+02
 11
2.55776839E+02
 21
2.00190026E+02
  0
LINE
  8
0
  6
CENTER
 62
6
 10
2.28276839E+02
 20
2.27190026E+02
 11
2.28276839E+02
 21
1.68190026E+02
  0
LINE
  8
0
 62
4
 10
2.34956839E+02
 20
1.75190026E+02
 11
2.34856839E+02
 21
1.72190026E+02
  0
LINE
  8
0
 62
6
 10
2.33996839E+02
 20
1.75190026E+02
 11
2.33996839E+02
 21
1.72190026E+02
  0
LINE
  8
0
 62
6
 10
2.22556839E+02
 20
1.75190026E+02
 11
2.22556839E+02
 21
1.72190026E+02
  0
LINE
  8
0
 62
4
 10
2.21616839E+02
 20
1.75190026E+02
 11
2.21696839E+02
 21
1.72190026E+02
  0
LINE
  8
0
  6
CENTER
 62
6
 10
2.98276839E+02
 20
1.94190026E+02
 11
2.98276839E+02
 21
1.68190026E+02
  0
LINE
  8
0
 62
4
 10
2.71356839E+02
 20
6.47002601E+00
 11
2.71356839E+02
 21
1.57002601E+00
  0
LINE
  8
0
 62
4
 10
2.55196839E+02
 20
6.47002601E+00
 11
2.55196839E+02
 21
1.57002601E+00
  0
LINE
  8
0
 62
4
 10
2.66136839E+02
 20
-1.50299740E+01
 11
2.66136839E+02
 21
-1.69299740E+01
  0
LINE
  8
0
 62
4
 10
2.66536839E+02
 20
-1.69299740E+01
 11
2.66076839E+02
 21
-1.95299740E+01
  0
LINE
  8
0
 62
4
 10
2.66536839E+02
 20
-1.95299740E+01
 11
2.66076839E+02
 21
-2.21299740E+01
  0
LINE
  8
0
 62
4
 10
2.60496839E+02
 20
-2.21299740E+01
 11
2.66076839E+02
 21
-2.21299740E+01
  0
LINE
  8
0
 62
4
 10
2.60036839E+02
 20
-1.95299740E+01
 11
2.60496839E+02
 21
-2.21299740E+01
  0
LINE
  8
0
 62
4
 10
2.60036839E+02
 20
-1.95299740E+01
 11
2.66536839E+02
 21
-1.95299740E+01
  0
LINE
  8
0
 62
4
 10
2.60036839E+02
 20
-1.69299740E+01
 11
2.60496839E+02
 21
-1.95299740E+01
  0
LINE
  8
0
 62
4
 10
2.60036839E+02
 20
-1.69299740E+01
 11
2.66536839E+02
 21
-1.69299740E+01
  0
LINE
  8
0
 62
4
 10
2.60436839E+02
 20
-1.50299740E+01
 11
2.60436839E+02
 21
-1.69299740E+01
  0
LINE
  8
0
 62
4
 10
2.70876839E+02
 20
-1.26299740E+01
 11
2.70296839E+02
 21
-1.31299740E+01
  0
LINE
  8
0
 62
4
 10
2.55676839E+02
 20
-1.26299740E+01
 11
2.56276839E+02
 21
-1.31299740E+01
  0
LINE
  8
0
 62
4
 10
2.69716839E+02
 20
-3.20997399E+00
 11
2.70296839E+02
 21
-3.42997399E+00
  0
LINE
  8
0
 62
4
 10
2.56276839E+02
 20
-3.42997399E+00
 11
2.56836839E+02
 21
-3.20997399E+00
  0
LINE
  8
0
 62
4
 10
2.58956839E+02
 20
-1.26299740E+01
 11
2.59616839E+02
 21
-1.31299740E+01
  0
LINE
  8
0
 62
4
 10
2.67596839E+02
 20
-1.26299740E+01
 11
2.66936839E+02
 21
-1.31299740E+01
  0
LINE
  8
0
 62
4
 10
2.66936839E+02
 20
-3.42997399E+00
 11
2.67596839E+02
 21
-3.12997399E+00
  0
LINE
  8
0
 62
4
 10
2.58956839E+02
 20
-3.12997399E+00
 11
2.59616839E+02
 21
-3.42997399E+00
  0
LINE
  8
0
 62
4
 10
2.61776839E+02
 20
-1.26299740E+01
 11
2.61436839E+02
 21
-1.31299740E+01
  0
LINE
  8
0
 62
4
 10
2.64776839E+02
 20
-1.26299740E+01
 11
2.65116839E+02
 21
-1.31299740E+01
  0
LINE
  8
0
 62
4
 10
2.64776839E+02
 20
-3.12997399E+00
 11
2.65116839E+02
 21
-3.42997399E+00
  0
LINE
  8
0
 62
4
 10
2.61436839E+02
 20
-3.42997399E+00
 11
2.61776839E+02
 21
-3.12997399E+00
  0
LINE
  8
0
 62
4
 10
2.70876839E+02
 20
-3.12997399E+00
 11
2.70876839E+02
 21
-1.26299740E+01
  0
LINE
  8
0
 62
4
 10
2.55676839E+02
 20
-3.12997399E+00
 11
2.55676839E+02
 21
-1.26299740E+01
  0
LINE
  8
0
 62
4
 10
2.70296839E+02
 20
-3.42997399E+00
 11
2.70296839E+02
 21
-1.31299740E+01
  0
LINE
  8
0
 62
4
 10
2.56276839E+02
 20
-3.42997399E+00
 11
2.56276839E+02
 21
-1.31299740E+01
  0
LINE
  8
0
 62
4
 10
2.69716839E+02
 20
-3.12997399E+00
 11
2.69716839E+02
 21
-1.31299740E+01
  0
LINE
  8
0
 62
4
 10
2.56836839E+02
 20
-3.12997399E+00
 11
2.56836839E+02
 21
-1.31299740E+01
  0
LINE
  8
0
 62
4
 10
2.70296839E+02
 20
-1.31299740E+01
 11
2.70536839E+02
 21
-1.31299740E+01
  0
LINE
  8
0
 62
4
 10
2.70876839E+02
 20
-1.26299740E+01
 11
2.71036839E+02
 21
-1.26299740E+01
  0
LINE
  8
0
 62
4
 10
2.56836839E+02
 20
-1.31299740E+01
 11
2.59616839E+02
 21
-1.31299740E+01
  0
LINE
  8
0
 62
4
 10
2.56836839E+02
 20
-1.26299740E+01
 11
2.58956839E+02
 21
-1.26299740E+01
  0
LINE
  8
0
 62
4
 10
2.59616839E+02
 20
-3.42997399E+00
 11
2.61436839E+02
 21
-3.42997399E+00
  0
LINE
  8
0
 62
4
 10
2.58956839E+02
 20
-3.12997399E+00
 11
2.61776839E+02
 21
-3.12997399E+00
  0
LINE
  8
0
 62
4
 10
2.70296839E+02
 20
-3.42997399E+00
 11
2.70876839E+02
 21
-3.42997399E+00
  0
LINE
  8
0
 62
4
 10
2.69716839E+02
 20
-3.12997399E+00
 11
2.70876839E+02
 21
-3.12997399E+00
  0
LINE
  8
0
 62
4
 10
2.67596839E+02
 20
-3.12997399E+00
 11
2.67596839E+02
 21
-1.26299740E+01
  0
LINE
  8
0
 62
4
 10
2.58956839E+02
 20
-3.12997399E+00
 11
2.58956839E+02
 21
-1.26299740E+01
  0
LINE
  8
0
 62
4
 10
2.59616839E+02
 20
-3.42997399E+00
 11
2.59616839E+02
 21
-1.31299740E+01
  0
LINE
  8
0
 62
4
 10
2.66936839E+02
 20
-3.42997399E+00
 11
2.66936839E+02
 21
-1.31299740E+01
  0
LINE
  8
0
 62
4
 10
2.66936839E+02
 20
-1.31299740E+01
 11
2.69716839E+02
 21
-1.31299740E+01
  0
LINE
  8
0
 62
4
 10
2.61436839E+02
 20
-1.31299740E+01
 11
2.65116839E+02
 21
-1.31299740E+01
  0
LINE
  8
0
 62
4
 10
2.61436839E+02
 20
-3.42997399E+00
 11
2.61436839E+02
 21
-1.31299740E+01
  0
LINE
  8
0
 62
4
 10
2.65116839E+02
 20
-3.42997399E+00
 11
2.65116839E+02
 21
-1.31299740E+01
  0
LINE
  8
0
 62
4
 10
2.56036839E+02
 20
-1.31299740E+01
 11
2.56276839E+02
 21
-1.31299740E+01
  0
LINE
  8
0
 62
4
 10
2.67596839E+02
 20
-1.26299740E+01
 11
2.69716839E+02
 21
-1.26299740E+01
  0
LINE
  8
0
 62
4
 10
2.61776839E+02
 20
-1.26299740E+01
 11
2.64776839E+02
 21
-1.26299740E+01
  0
LINE
  8
0
 62
4
 10
2.65116839E+02
 20
-3.42997399E+00
 11
2.66936839E+02
 21
-3.42997399E+00
  0
LINE
  8
0
 62
4
 10
2.64776839E+02
 20
-3.12997399E+00
 11
2.67596839E+02
 21
-3.12997399E+00
  0
LINE
  8
0
 62
4
 10
2.64776839E+02
 20
-3.12997399E+00
 11
2.64776839E+02
 21
-1.26299740E+01
  0
LINE
  8
0
 62
4
 10
2.61776839E+02
 20
-3.12997399E+00
 11
2.61776839E+02
 21
-1.26299740E+01
  0
LINE
  8
0
 62
4
 10
2.55536839E+02
 20
-1.26299740E+01
 11
2.55676839E+02
 21
-1.26299740E+01
  0
LINE
  8
0
 62
4
 10
2.55676839E+02
 20
-3.42997399E+00
 11
2.56276839E+02
 21
-3.42997399E+00
  0
LINE
  8
0
 62
4
 10
2.56776839E+02
 20
-1.45299740E+01
 11
2.69776839E+02
 21
-1.45299740E+01
  0
LINE
  8
0
 62
4
 10
2.69776839E+02
 20
-1.45299740E+01
 11
2.69276839E+02
 21
-1.50299740E+01
  0
LINE
  8
0
 62
4
 10
2.56776839E+02
 20
-1.45299740E+01
 11
2.57276839E+02
 21
-1.50299740E+01
  0
LINE
  8
0
 62
4
 10
2.69776839E+02
 20
-1.36299740E+01
 11
2.69776839E+02
 21
-1.45299740E+01
  0
LINE
  8
0
 62
4
 10
2.56776839E+02
 20
-1.36299740E+01
 11
2.56776839E+02
 21
-1.45299740E+01
  0
LINE
  8
0
 62
4
 10
2.57276839E+02
 20
-1.50299740E+01
 11
2.69276839E+02
 21
-1.50299740E+01
  0
LINE
  8
0
 62
4
 10
2.55536839E+02
 20
-6.29973990E-01
 11
2.71036839E+02
 21
-6.29973990E-01
  0
LINE
  8
0
 62
4
 10
2.55196839E+02
 20
1.57002601E+00
 11
2.71356839E+02
 21
1.57002601E+00
  0
LINE
  8
0
 62
4
 10
2.71356839E+02
 20
1.57002601E+00
 11
2.70856839E+02
 21
1.07002601E+00
  0
LINE
  8
0
 62
4
 10
2.55196839E+02
 20
1.57002601E+00
 11
2.55696839E+02
 21
1.07002601E+00
  0
LINE
  8
0
 62
4
 10
2.69276839E+02
 20
1.07002601E+00
 11
2.69276839E+02
 21
-1.29973990E-01
  0
LINE
  8
0
 62
4
 10
2.57276839E+02
 20
1.07002601E+00
 11
2.57276839E+02
 21
-1.29973990E-01
  0
LINE
  8
0
 62
4
 10
2.70536839E+02
 20
-1.29973990E-01
 11
2.71036839E+02
 21
-6.29973990E-01
  0
LINE
  8
0
 62
4
 10
2.55536839E+02
 20
-6.29973990E-01
 11
2.56036839E+02
 21
-1.29973990E-01
  0
LINE
  8
0
 62
4
 10
2.56036839E+02
 20
-1.29973990E-01
 11
2.70536839E+02
 21
-1.29973990E-01
  0
LINE
  8
0
 62
4
 10
2.55676839E+02
 20
-3.12997399E+00
 11
2.56836839E+02
 21
-3.12997399E+00
  0
LINE
  8
0
 62
4
 10
2.70036839E+02
 20
-1.36299740E+01
 11
2.71036839E+02
 21
-1.26299740E+01
  0
LINE
  8
0
 62
4
 10
2.55536839E+02
 20
-1.26299740E+01
 11
2.56536839E+02
 21
-1.36299740E+01
  0
LINE
  8
0
 62
4
 10
2.71036839E+02
 20
-6.29973990E-01
 11
2.71036839E+02
 21
-1.26299740E+01
  0
LINE
  8
0
 62
4
 10
2.55536839E+02
 20
-6.29973990E-01
 11
2.55536839E+02
 21
-1.26299740E+01
  0
LINE
  8
0
 62
4
 10
2.56536839E+02
 20
-1.36299740E+01
 11
2.70036839E+02
 21
-1.36299740E+01
  0
LINE
  8
0
 62
4
 10
2.55696839E+02
 20
1.07002601E+00
 11
2.70856839E+02
 21
1.07002601E+00
  0
CIRCLE
  8
0
 62
4
 10
-3.27616742E+02
 20
-1.72997652E+02
 40
1.75000003E+01
  0
CIRCLE
  8
0
 62
4
 10
-3.27616742E+02
 20
-1.72997652E+02
 40
2.07500004E+01
  0
CIRCLE
  8
0
 62
4
 10
-3.27616742E+02
 20
-1.72997652E+02
 40
2.12500004E+01
  0
LINE
  8
0
  6
CENTER
 62
2
 10
-3.27616742E+02
 20
-1.27986025E+02
 11
-3.27616742E+02
 21
-2.21754796E+02
  0
LINE
  8
0
  6
CENTER
 62
2
 10
-2.87542899E+02
 20
-1.72997652E+02
 11
-3.67690585E+02
 21
-1.72997652E+02
  0
LINE
  8
0
 62
4
 10
-3.39026743E+02
 20
-1.76697653E+02
 11
-3.28616742E+02
 21
-1.74107652E+02
  0
LINE
  8
0
 62
4
 10
-3.39026743E+02
 20
-1.76697653E+02
 11
-3.29076742E+02
 21
-1.72687652E+02
  0
LINE
  8
0
 62
4
 10
-3.26206742E+02
 20
-1.73507652E+02
 11
-3.22636742E+02
 21
-1.72617652E+02
  0
LINE
  8
0
 62
4
 10
-3.21916742E+02
 20
-1.71147652E+02
 11
-3.22636742E+02
 21
-1.72617652E+02
  0
LINE
  8
0
 62
4
 10
-3.23366742E+02
 20
-1.70377652E+02
 11
-3.21916742E+02
 21
-1.71147652E+02
  0
ARC
  8
0
 62
4
 10
-3.27613846E+02
 20
-1.72996483E+02
 40
1.49513991E+00
 50
5.59523004E+01
 51
1.68079377E+02
  0
ARC
  8
0
 62
4
 10
-3.27613597E+02
 20
-1.72996867E+02
 40
1.49671067E+00
 50
2.27914952E+02
 51
3.40045629E+02
  0
LINE
  8
0
 62
4
 10
-3.26776742E+02
 20
-1.71757652E+02
 11
-3.23366742E+02
 21
-1.70377652E+02
  0
LINE
  8
0
  6
CENTER
 62
2
 10
-1.88316740E+02
 20
-1.72997652E+02
 11
-2.72021833E+02
 21
-1.72997652E+02
  0
LINE
  8
0
 62
4
 10
-2.34831025E+02
 20
-1.53997652E+02
 11
-2.34831025E+02
 21
-1.91997652E+02
  0
LINE
  8
0
 62
4
 10
-2.60331025E+02
 20
-1.51747652E+02
 11
-2.60331025E+02
 21
-1.94247652E+02
  0
LINE
  8
0
 62
4
 10
-2.58331025E+02
 20
-1.51747652E+02
 11
-2.58331025E+02
 21
-1.94247652E+02
  0
LINE
  8
0
 62
4
 10
-2.61331025E+02
 20
-1.52747652E+02
 11
-2.61331025E+02
 21
-1.93247652E+02
  0
LINE
  8
0
 62
4
 10
-2.19316740E+02
 20
-1.57997652E+02
 11
-2.10831026E+02
 21
-1.57997652E+02
  0
LINE
  8
0
 62
4
 10
-2.19316740E+02
 20
-1.87997653E+02
 11
-2.10831026E+02
 21
-1.87997653E+02
  0
LINE
  8
0
 62
4
 10
-2.21316740E+02
 20
-1.59997652E+02
 11
-2.21316740E+02
 21
-1.85997653E+02
  0
LINE
  8
0
 62
4
 10
-2.08831026E+02
 20
-1.59997652E+02
 11
-2.08831026E+02
 21
-1.85997653E+02
  0
ARC
  8
0
 62
4
 10
-2.10834263E+02
 20
-1.60000889E+02
 40
2.00323956E+00
 50
9.25806170E-02
 51
8.99074194E+01
  0
ARC
  8
0
 62
4
 10
-2.10821912E+02
 20
-1.86006767E+02
 40
1.99090657E+00
 50
2.69737700E+02
 51
2.62299732E-01
  0
ARC
  8
0
 62
4
 10
-2.19314746E+02
 20
-1.59999647E+02
 40
2.00199541E+00
 50
9.00570782E+01
 51
1.79942922E+02
  0
ARC
  8
0
 62
4
 10
-2.19327105E+02
 20
-1.86008017E+02
 40
1.98966248E+00
 50
1.79701533E+02
 51
2.70298466E+02
  0
LINE
  8
0
 62
4
 10
-2.27331025E+02
 20
-1.79757652E+02
 11
-2.21316740E+02
 21
-1.79571756E+02
  0
LINE
  8
0
 62
4
 10
-2.27331025E+02
 20
-1.66237652E+02
 11
-2.21316740E+02
 21
-1.66423549E+02
  0
LINE
  8
0
 62
6
 10
-2.25331025E+02
 20
-1.67157652E+02
 11
-2.21316740E+02
 21
-1.67280288E+02
  0
LINE
  8
0
 62
6
 10
-2.25331025E+02
 20
-1.78837652E+02
 11
-2.21316740E+02
 21
-1.78715016E+02
  0
LINE
  8
0
 62
6
 10
-2.34831025E+02
 20
-1.65997652E+02
 11
-2.27331025E+02
 21
-1.79997652E+02
  0
LINE
  8
0
 62
6
 10
-2.34831025E+02
 20
-1.79997652E+02
 11
-2.27331025E+02
 21
-1.65997652E+02
  0
LINE
  8
0
 62
4
 10
-2.25331025E+02
 20
-1.66297652E+02
 11
-2.25331025E+02
 21
-1.79697652E+02
  0
LINE
  8
0
 62
4
 10
-2.27331025E+02
 20
-1.65997652E+02
 11
-2.27331025E+02
 21
-1.79997652E+02
  0
LINE
  8
0
 62
4
 10
-2.34831025E+02
 20
-1.65997652E+02
 11
-2.27331025E+02
 21
-1.65997652E+02
  0
LINE
  8
0
 62
4
 10
-2.34831025E+02
 20
-1.79997652E+02
 11
-2.27331025E+02
 21
-1.79997652E+02
  0
LINE
  8
0
 62
4
 10
-2.58331025E+02
 20
-1.51997652E+02
 11
-2.36831025E+02
 21
-1.51997652E+02
  0
ARC
  8
0
 62
4
 10
-2.36831024E+02
 20
-1.53997651E+02
 40
1.99999847E+00
 50
3.59999956E+02
 51
9.00000002E+01
  0
LINE
  8
0
 62
4
 10
-2.61331025E+02
 20
-1.52747652E+02
 11
-2.60331025E+02
 21
-1.51747652E+02
  0
LINE
  8
0
 62
4
 10
-2.60331025E+02
 20
-1.51747652E+02
 11
-2.58331025E+02
 21
-1.51747652E+02
  0
ARC
  8
0
 62
4
 10
-2.36831024E+02
 20
-1.91997654E+02
 40
1.99999847E+00
 50
2.70000000E+02
 51
4.37132276E-05
  0
LINE
  8
0
 62
4
 10
-2.61331025E+02
 20
-1.93247652E+02
 11
-2.60331025E+02
 21
-1.94247652E+02
  0
LINE
  8
0
 62
4
 10
-2.58331025E+02
 20
-1.93997652E+02
 11
-2.36831025E+02
 21
-1.93997652E+02
  0
LINE
  8
0
 62
4
 10
-2.60331025E+02
 20
-1.94247652E+02
 11
-2.58331025E+02
 21
-1.94247652E+02
  0
LINE
  8
0
  6
CENTER
 62
2
 10
-1.88331025E+02
 20
-1.27986025E+02
 11
-1.88331025E+02
 21
-2.33369082E+02
  0
LINE
  8
0
  6
CENTER
 62
2
 10
-6.33453102E+01
 20
-1.27986025E+02
 11
-6.33453102E+01
 21
-2.22743170E+02
  0
LINE
  8
0
  6
CENTER
 62
2
 10
-2.32714691E+01
 20
-1.73986026E+02
 11
-1.03419151E+02
 21
-1.73986026E+02
  0
LINE
  8
0
 62
4
 10
-3.71024526E+01
 20
-1.52743169E+02
 11
-3.71024526E+01
 21
-1.95243169E+02
  0
LINE
  8
0
 62
4
 10
-8.96024535E+01
 20
-1.52743169E+02
 11
-8.96024535E+01
 21
-1.95243169E+02
  0
LINE
  8
0
 62
4
 10
-4.21024527E+01
 20
-2.00243169E+02
 11
-8.46024534E+01
 21
-2.00243169E+02
  0
LINE
  8
0
 62
4
 10
-4.21024527E+01
 20
-1.47743168E+02
 11
-8.46024534E+01
 21
-1.47743168E+02
  0
LINE
  8
0
  6
CENTER
 62
6
 10
-8.68453106E+01
 20
-1.93986026E+02
 11
-7.98453105E+01
 21
-1.93986026E+02
  0
LINE
  8
0
  6
CENTER
 62
6
 10
-8.33453105E+01
 20
-1.90486026E+02
 11
-8.33453105E+01
 21
-1.97486026E+02
  0
LINE
  8
0
  6
CENTER
 62
6
 10
-4.33453098E+01
 20
-1.50486026E+02
 11
-4.33453098E+01
 21
-1.57486026E+02
  0
LINE
  8
0
  6
CENTER
 62
6
 10
-4.68453099E+01
 20
-1.53986026E+02
 11
-3.98453098E+01
 21
-1.53986026E+02
  0
LINE
  8
0
  6
CENTER
 62
6
 10
-8.33453105E+01
 20
-1.50486026E+02
 11
-8.33453105E+01
 21
-1.57486026E+02
  0
LINE
  8
0
  6
CENTER
 62
6
 10
-8.68453106E+01
 20
-1.53986026E+02
 11
-7.98453105E+01
 21
-1.53986026E+02
  0
ARC
  8
0
 62
4
 10
-8.45932957E+01
 20
-1.52752326E+02
 40
5.00916615E+00
 50
9.01047472E+01
 51
1.79895253E+02
  0
ARC
  8
0
 62
4
 10
-8.45985117E+01
 20
-1.95239228E+02
 40
5.00394330E+00
 50
1.80045133E+02
 51
2.69954868E+02
  0
ARC
  8
0
 62
4
 10
-4.20932981E+01
 20
-1.95252324E+02
 40
4.99085388E+00
 50
2.69894903E+02
 51
1.05096274E-01
  0
ARC
  8
0
 62
4
 10
-4.20985278E+01
 20
-1.52739244E+02
 40
4.99607673E+00
 50
3.59954989E+02
 51
9.00450112E+01
  0
CIRCLE
  8
0
 62
4
 10
-8.33393640E+01
 20
-1.93998392E+02
 40
2.24999977E+00
  0
CIRCLE
  8
0
 62
6
 10
-8.33393640E+01
 20
-1.93998392E+02
 40
1.99999949E+00
  0
CIRCLE
  8
0
 62
4
 10
-8.33393640E+01
 20
-1.93998392E+02
 40
1.62099977E+00
  0
CIRCLE
  8
0
 62
4
 10
-4.33393633E+01
 20
-1.53998370E+02
 40
2.24999977E+00
  0
CIRCLE
  8
0
 62
6
 10
-4.33393633E+01
 20
-1.53998370E+02
 40
1.99999949E+00
  0
CIRCLE
  8
0
 62
4
 10
-4.33393633E+01
 20
-1.53998370E+02
 40
1.62099977E+00
  0
CIRCLE
  8
0
 62
4
 10
-8.33393640E+01
 20
-1.53998370E+02
 40
2.24999977E+00
  0
CIRCLE
  8
0
 62
4
 10
-6.33393636E+01
 20
-1.73998370E+02
 40
2.25000004E+01
  0
LINE
  8
0
 62
4
 10
-7.78182242E+01
 20
-1.72698859E+02
 11
-6.68390186E+01
 21
-1.74640209E+02
  0
LINE
  8
0
 62
4
 10
-7.89353622E+01
 20
-1.82086017E+02
 11
-6.49753625E+01
 21
-1.75866017E+02
  0
LINE
  8
0
 62
4
 10
-7.93253622E+01
 20
-1.81286017E+02
 11
-6.58353624E+01
 21
-1.74106017E+02
  0
LINE
  8
0
 62
4
 10
-7.76978712E+01
 20
-1.71719790E+02
 11
-6.65135237E+01
 21
-1.72492648E+02
  0
LINE
  8
0
 62
4
 10
-6.18453625E+01
 20
-1.71996017E+02
 11
-5.69453626E+01
 21
-1.69386017E+02
  0
LINE
  8
0
 62
4
 10
-5.69453626E+01
 20
-1.69386017E+02
 11
-5.57053626E+01
 21
-1.70266017E+02
  0
LINE
  8
0
 62
4
 10
-5.57053626E+01
 20
-1.70266017E+02
 11
-5.57753626E+01
 21
-1.71776017E+02
  0
ARC
  8
0
 62
4
 10
-6.33392728E+01
 20
-1.73983300E+02
 40
2.49427609E+00
 50
2.29009213E+02
 51
3.59018699E+02
  0
ARC
  8
0
 62
4
 10
-6.33431288E+01
 20
-1.73967763E+02
 40
3.49676562E+00
 50
2.21827547E+02
 51
6.17427376E+00
  0
LINE
  8
0
 62
4
 10
-6.08453625E+01
 20
-1.74026017E+02
 11
-5.57753626E+01
 21
-1.71776017E+02
  0
ARC
  8
0
 62
4
 10
-6.33457934E+01
 20
-1.73986245E+02
 40
2.49244851E+00
 50
5.29873950E+01
 51
1.82754352E+02
  0
CIRCLE
  8
0
 62
4
 10
-6.33453625E+01
 20
-1.73986017E+02
 40
1.99999996E+00
  0
ARC
  8
0
 62
4
 10
-7.91226276E+01
 20
-1.81682247E+02
 40
4.45083175E-01
 50
1.17096987E+02
 51
2.94881480E+02
  0
ARC
  8
0
 62
4
 10
-7.77364131E+01
 20
-1.72211984E+02
 40
4.93700752E-01
 50
8.55225138E+01
 51
2.60461526E+02
  0
ARC
  8
0
 62
4
 10
-6.33431288E+01
 20
-1.73967763E+02
 40
3.49676562E+00
 50
4.52784072E+01
 51
1.55048472E+02
  0
LINE
  8
0
  6
CENTER
 62
2
 10
8.09404068E+01
 20
-1.73986026E+02
 11
-1.32410646E+01
 21
-1.73986026E+02
  0
LINE
  8
0
 62
4
 10
1.44040547E+00
 20
-1.47743168E+02
 11
3.14404060E+01
 21
-1.47743168E+02
  0
LINE
  8
0
 62
4
 10
1.44040547E+00
 20
-2.00243169E+02
 11
3.14404060E+01
 21
-2.00243169E+02
  0
LINE
  8
0
 62
4
 10
3.34404060E+01
 20
-1.49743168E+02
 11
3.34404060E+01
 21
-1.98243169E+02
  0
LINE
  8
0
 62
4
 10
-1.55959458E+00
 20
-1.50743168E+02
 11
-1.55959458E+00
 21
-1.97243169E+02
  0
LINE
  8
0
 62
4
 10
4.19404062E+01
 20
-1.66986026E+02
 11
3.34404060E+01
 21
-1.66986026E+02
  0
LINE
  8
0
 62
4
 10
4.19404062E+01
 20
-1.80986026E+02
 11
3.34404060E+01
 21
-1.80986026E+02
  0
LINE
  8
0
 62
4
 10
4.19404062E+01
 20
-1.73986026E+02
 11
3.34404060E+01
 21
-1.73986026E+02
  0
LINE
  8
0
  6
PHANTOM
 62
6
 10
1.40404057E+01
 20
-2.08243169E+02
 11
1.40404057E+01
 21
-2.30743170E+02
  0
LINE
  8
0
  6
PHANTOM
 62
6
 10
2.88404059E+01
 20
-2.08243169E+02
 11
2.88404059E+01
 21
-2.30743170E+02
  0
LINE
  8
0
  6
PHANTOM
 62
6
 10
2.83404059E+01
 20
-2.31243170E+02
 11
1.45404057E+01
 21
-2.31243170E+02
  0
LINE
  8
0
  6
PHANTOM
 62
6
 10
1.86404058E+01
 20
-2.32414598E+02
 11
1.86404058E+01
 21
-2.31743170E+02
  0
LINE
  8
0
  6
PHANTOM
 62
6
 10
2.42404059E+01
 20
-2.32414598E+02
 11
2.42404059E+01
 21
-2.31743170E+02
  0
LINE
  8
0
  6
PHANTOM
 62
6
 10
1.81975486E+01
 20
-2.31743170E+02
 11
2.46975487E+01
 21
-2.31743170E+02
  0
LINE
  8
0
  6
PHANTOM
 62
6
 10
1.81975486E+01
 20
-2.31743170E+02
 11
1.81975486E+01
 21
-2.31243170E+02
  0
LINE
  8
0
  6
PHANTOM
 62
6
 10
2.46975487E+01
 20
-2.31743170E+02
 11
2.46975487E+01
 21
-2.31243170E+02
  0
LINE
  8
0
  6
PHANTOM
 62
6
 10
1.40404057E+01
 20
-2.08743169E+02
 11
2.88404059E+01
 21
-2.08743169E+02
  0
LINE
  8
0
 62
4
 10
3.04404060E+01
 20
-1.47743168E+02
 11
3.04404060E+01
 21
-2.00243169E+02
  0
LINE
  8
0
  6
PHANTOM
 62
6
 10
1.34404057E+01
 20
-2.00243169E+02
 11
1.34404057E+01
 21
-2.08243169E+02
  0
LINE
  8
0
  6
PHANTOM
 62
6
 10
1.34404057E+01
 20
-2.08243169E+02
 11
2.94404059E+01
 21
-2.08243169E+02
  0
LINE
  8
0
  6
PHANTOM
 62
6
 10
2.94404059E+01
 20
-2.00243169E+02
 11
2.94404059E+01
 21
-2.08243169E+02
  0
LINE
  8
0
  6
PHANTOM
 62
6
 10
1.34404057E+01
 20
-2.01243169E+02
 11
2.94404059E+01
 21
-2.01243169E+02
  0
LINE
  8
0
  6
PHANTOM
 62
6
 10
2.24404058E+01
 20
-2.01243169E+02
 11
2.24404058E+01
 21
-2.12971741E+02
  0
LINE
  8
0
  6
PHANTOM
 62
6
 10
2.04404058E+01
 20
-2.01243169E+02
 11
2.04404058E+01
 21
-2.13514598E+02
  0
LINE
  8
0
 62
6
 10
1.79404057E+01
 20
-2.14186027E+02
 11
2.49404059E+01
 21
-2.12300312E+02
  0
LINE
  8
0
 62
6
 10
1.79404057E+01
 20
-2.15214598E+02
 11
2.49404059E+01
 21
-2.13343170E+02
  0
LINE
  8
0
  6
PHANTOM
 62
6
 10
2.04404058E+01
 20
-2.21243170E+02
 11
2.24404058E+01
 21
-2.21243170E+02
  0
LINE
  8
0
  6
PHANTOM
 62
6
 10
2.24404058E+01
 20
-2.14014598E+02
 11
2.24404058E+01
 21
-2.21243170E+02
  0
LINE
  8
0
  6
PHANTOM
 62
6
 10
2.04404058E+01
 20
-2.14543170E+02
 11
2.04404058E+01
 21
-2.21243170E+02
  0
LINE
  8
0
  6
PHANTOM
 62
6
 10
2.09404058E+01
 20
-2.26243170E+02
 11
2.19404058E+01
 21
-2.26243170E+02
  0
LINE
  8
0
  6
PHANTOM
 62
6
 10
2.19404058E+01
 20
-2.21243170E+02
 11
2.19404058E+01
 21
-2.26243170E+02
  0
LINE
  8
0
  6
PHANTOM
 62
6
 10
2.09404058E+01
 20
-2.21243170E+02
 11
2.09404058E+01
 21
-2.26243170E+02
  0
LINE
  8
0
  6
PHANTOM
 62
6
 10
1.89404058E+01
 20
-2.01243169E+02
 11
1.89404058E+01
 21
-2.13914598E+02
  0
LINE
  8
0
  6
PHANTOM
 62
6
 10
2.39404058E+01
 20
-2.01243169E+02
 11
2.39404058E+01
 21
-2.12571741E+02
  0
LINE
  8
0
  6
PHANTOM
 62
6
 10
1.79975486E+01
 20
-2.19828884E+02
 11
1.94118343E+01
 21
-2.21243170E+02
  0
LINE
  8
0
  6
PHANTOM
 62
6
 10
1.48118343E+01
 20
-2.23714598E+02
 11
1.55118343E+01
 21
-2.24414598E+02
  0
LINE
  8
0
  6
PHANTOM
 62
6
 10
1.55118343E+01
 20
-2.24414598E+02
 11
1.90546915E+01
 21
-2.20886027E+02
  0
LINE
  8
0
  6
PHANTOM
 62
6
 10
1.48118343E+01
 20
-2.23714598E+02
 11
1.83404058E+01
 21
-2.20171741E+02
  0
LINE
  8
0
  6
PHANTOM
 62
6
 10
2.48832630E+01
 20
-2.19828884E+02
 11
2.34689773E+01
 21
-2.21243170E+02
  0
LINE
  8
0
  6
PHANTOM
 62
6
 10
2.80689773E+01
 20
-2.23714598E+02
 11
2.45404059E+01
 21
-2.20171741E+02
  0
LINE
  8
0
  6
PHANTOM
 62
6
 10
2.80689773E+01
 20
-2.23714598E+02
 11
2.73689773E+01
 21
-2.24414598E+02
  0
LINE
  8
0
  6
PHANTOM
 62
6
 10
2.73689773E+01
 20
-2.24414598E+02
 11
2.38261201E+01
 21
-2.20886027E+02
  0
LINE
  8
0
  6
PHANTOM
 62
6
 10
1.89404058E+01
 20
-2.14943170E+02
 11
1.89404058E+01
 21
-2.17243170E+02
  0
LINE
  8
0
  6
PHANTOM
 62
6
 10
2.39404058E+01
 20
-2.13614598E+02
 11
2.39404058E+01
 21
-2.17243170E+02
  0
LINE
  8
0
 62
4
 10
4.99404063E+01
 20
-1.58986026E+02
 11
5.84404064E+01
 21
-1.58986026E+02
  0
LINE
  8
0
 62
4
 10
4.99404063E+01
 20
-1.88986026E+02
 11
5.84404064E+01
 21
-1.88986026E+02
  0
LINE
  8
0
 62
4
 10
4.79404063E+01
 20
-1.60743169E+02
 11
4.79404063E+01
 21
-1.86992408E+02
  0
LINE
  8
0
 62
4
 10
6.04404065E+01
 20
-1.60986026E+02
 11
6.04404065E+01
 21
-1.86986026E+02
  0
LINE
  8
0
 62
4
 10
4.19404062E+01
 20
-1.66986026E+02
 11
4.19404062E+01
 21
-1.80986026E+02
  0
LINE
  8
0
 62
4
 10
4.79404063E+01
 20
-1.67414597E+02
 11
4.19404062E+01
 21
-1.67257454E+02
  0
LINE
  8
0
 62
6
 10
4.79404063E+01
 20
-1.68271740E+02
 11
4.39404062E+01
 21
-1.68157454E+02
  0
LINE
  8
0
 62
6
 10
4.39404062E+01
 20
-1.68157454E+02
 11
4.23832633E+01
 21
-1.67271740E+02
  0
LINE
  8
0
 62
4
 10
4.39404062E+01
 20
-1.67300312E+02
 11
4.39404062E+01
 21
-1.80671740E+02
  0
LINE
  8
0
 62
6
 10
4.79404063E+01
 20
-1.79714598E+02
 11
4.39404062E+01
 21
-1.79828883E+02
  0
LINE
  8
0
 62
4
 10
4.79404063E+01
 20
-1.80571740E+02
 11
4.19404062E+01
 21
-1.80728883E+02
  0
LINE
  8
0
 62
6
 10
4.39404062E+01
 20
-1.79828883E+02
 11
4.23832633E+01
 21
-1.80714598E+02
  0
ARC
  8
0
 62
4
 10
3.14407470E+01
 20
-1.49742827E+02
 40
1.99965903E+00
 50
3.59990228E+02
 51
9.00000002E+01
  0
ARC
  8
0
 62
4
 10
3.14459558E+01
 20
-1.98248719E+02
 40
1.99445795E+00
 50
2.69840568E+02
 51
1.59432253E-01
  0
ARC
  8
0
 62
4
 10
1.44597712E+00
 20
-1.50748740E+02
 40
3.00557687E+00
 50
9.01062134E+01
 51
1.79893787E+02
  0
ARC
  8
0
 62
4
 10
1.44075940E+00
 20
-1.97242815E+02
 40
3.00035400E+00
 50
1.80006759E+02
 51
2.70000000E+02
  0
ARC
  8
0
  6
PHANTOM
 62
6
 10
2.83459679E+01
 20
-2.30748732E+02
 40
4.94469353E-01
 50
2.69355507E+02
 51
6.44493461E-01
  0
ARC
  8
0
  6
PHANTOM
 62
6
 10
1.45407865E+01
 20
-2.30742789E+02
 40
5.00380950E-01
 50
1.80043603E+02
 51
2.70000000E+02
  0
ARC
  8
0
  6
PHANTOM
 62
6
 10
2.14404058E+01
 20
-2.28648353E+02
 40
4.99770995E+00
 50
2.40550663E+02
 51
2.99449337E+02
  0
ARC
  8
0
  6
PHANTOM
 62
6
 10
1.93103586E+01
 20
-2.32415637E+02
 40
6.69953629E-01
 50
1.79911222E+02
 51
2.40775276E+02
  0
ARC
  8
0
  6
PHANTOM
 62
6
 10
2.35792742E+01
 20
-2.32420800E+02
 40
6.61160747E-01
 50
2.98776060E+02
 51
5.37441871E-01
  0
ARC
  8
0
  6
PHANTOM
 62
6
 10
1.49452766E+01
 20
-2.17251141E+02
 40
3.99513711E+00
 50
3.19817826E+02
 51
1.14327709E-01
  0
ARC
  8
0
  6
PHANTOM
 62
6
 10
1.49492508E+01
 20
-2.17243754E+02
 40
5.99249369E+00
 50
3.18132959E+02
 51
3.36396589E+02
  0
ARC
  8
0
  6
PHANTOM
 62
6
 10
2.79459700E+01
 20
-2.17247336E+02
 40
4.00556630E+00
 50
1.79940397E+02
 51
2.20127449E+02
  0
ARC
  8
0
  6
PHANTOM
 62
6
 10
2.79399345E+01
 20
-2.17238371E+02
 40
6.00232242E+00
 50
2.03618492E+02
 51
2.21851960E+02
  0
ARC
  8
0
 62
4
 10
5.84371803E+01
 20
-1.60989252E+02
 40
2.00322879E+00
 50
9.22736526E-02
 51
8.99077265E+01
  0
ARC
  8
0
 62
4
 10
5.84495535E+01
 20
-1.86995173E+02
 40
1.99087401E+00
 50
2.69736755E+02
 51
2.63245541E-01
  0
ARC
  8
0
 62
4
 10
4.99495519E+01
 20
-1.60995171E+02
 40
2.00916650E+00
 50
9.02608089E+01
 51
1.79739191E+02
  0
ARC
  8
0
 62
4
 10
4.99372154E+01
 20
-1.86989217E+02
 40
1.99681172E+00
 50
1.79908442E+02
 51
2.70091557E+02
  0
LINE
  8
0
 62
2
 10
8.09404068E+01
 20
-1.27986025E+02
 11
8.09404068E+01
 21
-2.34357456E+02
  0
LINE
  8
0
  6
CENTER
 62
2
 10
2.06297551E+02
 20
-1.27986025E+02
 11
2.06297551E+02
 21
-2.22743170E+02
  0
LINE
  8
0
  6
CENTER
 62
2
 10
2.46365408E+02
 20
-1.73986026E+02
 11
1.66229694E+02
 21
-1.73986026E+02
  0
LINE
  8
0
 62
6
 10
2.02297551E+02
 20
-2.07271741E+02
 11
2.10297551E+02
 21
-2.10186027E+02
  0
LINE
  8
0
 62
6
 10
2.02297551E+02
 20
-2.09400312E+02
 11
2.10297551E+02
 21
-2.12314598E+02
  0
LINE
  8
0
 62
4
 10
2.04554694E+02
 20
-2.10214598E+02
 11
2.04554694E+02
 21
-2.22386027E+02
  0
LINE
  8
0
 62
4
 10
2.08040408E+02
 20
-2.11500312E+02
 11
2.08040408E+02
 21
-2.23128884E+02
  0
LINE
  8
0
 62
4
 10
2.20797551E+02
 20
-1.88986026E+02
 11
1.91797551E+02
 21
-1.88986026E+02
  0
LINE
  8
0
 62
4
 10
1.91297551E+02
 20
-1.88486026E+02
 11
1.91297551E+02
 21
-1.59486026E+02
  0
LINE
  8
0
 62
4
 10
2.21297551E+02
 20
-1.88486026E+02
 11
2.21297551E+02
 21
-1.59486026E+02
  0
ARC
  8
0
 62
4
 10
1.93047551E+02
 20
-1.60486026E+02
 40
1.00000000E+00
 50
9.00000002E+01
 51
1.80000000E+02
  0
ARC
  8
0
 62
4
 10
2.19547551E+02
 20
-1.60486026E+02
 40
1.00000000E+00
 50
0.00000000E+00
 51
9.00000002E+01
  0
LINE
  8
0
 62
4
 10
2.01897551E+02
 20
-1.93486026E+02
 11
2.01897551E+02
 21
-1.88986026E+02
  0
LINE
  8
0
 62
4
 10
2.10697551E+02
 20
-1.93486026E+02
 11
2.10697551E+02
 21
-1.88986026E+02
  0
LINE
  8
0
 62
4
 10
2.02397551E+02
 20
-1.89486026E+02
 11
2.02397551E+02
 21
-1.88986026E+02
  0
LINE
  8
0
 62
4
 10
2.10197551E+02
 20
-1.89486026E+02
 11
2.10197551E+02
 21
-1.88986026E+02
  0
LINE
  8
0
 62
4
 10
2.01897551E+02
 20
-1.89486026E+02
 11
2.10697551E+02
 21
-1.89486026E+02
  0
LINE
  8
0
 62
4
 10
2.19197551E+02
 20
-1.75336026E+02
 11
2.19197551E+02
 21
-1.64336026E+02
  0
LINE
  8
0
 62
4
 10
1.93397551E+02
 20
-1.75336026E+02
 11
1.93397551E+02
 21
-1.64336026E+02
  0
ARC
  8
0
 62
4
 10
2.19547551E+02
 20
-1.87486026E+02
 40
1.00000000E+00
 50
2.70000000E+02
 51
0.00000000E+00
  0
LINE
  8
0
 62
4
 10
2.20547551E+02
 20
-1.87486026E+02
 11
2.20547551E+02
 21
-1.60486026E+02
  0
LINE
  8
0
 62
4
 10
1.95422551E+02
 20
-1.84736026E+02
 11
1.99172551E+02
 21
-1.84736026E+02
  0
ARC
  8
0
 62
4
 10
2.13297551E+02
 20
-1.83736026E+02
 40
1.00000000E+00
 50
1.80000000E+02
 51
2.70000000E+02
  0
ARC
  8
0
 62
4
 10
2.13297551E+02
 20
-1.81986026E+02
 40
1.00000000E+00
 50
9.00000002E+01
 51
1.80000000E+02
  0
ARC
  8
0
 62
4
 10
2.17297551E+02
 20
-1.83736026E+02
 40
1.00000000E+00
 50
2.70000000E+02
 51
0.00000000E+00
  0
ARC
  8
0
 62
4
 10
2.17297551E+02
 20
-1.81986026E+02
 40
1.00000000E+00
 50
0.00000000E+00
 51
9.00000002E+01
  0
LINE
  8
0
 62
4
 10
2.18297551E+02
 20
-1.83736026E+02
 11
2.18297551E+02
 21
-1.81986026E+02
  0
LINE
  8
0
 62
4
 10
2.12297551E+02
 20
-1.83736026E+02
 11
2.12297551E+02
 21
-1.81986026E+02
  0
LINE
  8
0
 62
4
 10
2.13297551E+02
 20
-1.80986026E+02
 11
2.17297551E+02
 21
-1.80986026E+02
  0
LINE
  8
0
 62
4
 10
2.08172551E+02
 20
-1.81236026E+02
 11
2.06297551E+02
 21
-1.84736026E+02
  0
LINE
  8
0
 62
4
 10
2.04422551E+02
 20
-1.81236026E+02
 11
2.06297551E+02
 21
-1.84736026E+02
  0
LINE
  8
0
 62
4
 10
1.99172551E+02
 20
-1.84736026E+02
 11
1.97297551E+02
 21
-1.81236026E+02
  0
LINE
  8
0
 62
4
 10
1.97297551E+02
 20
-1.81236026E+02
 11
1.95422551E+02
 21
-1.84736026E+02
  0
LINE
  8
0
 62
4
 10
2.04422551E+02
 20
-1.81236026E+02
 11
2.08172551E+02
 21
-1.81236026E+02
  0
LINE
  8
0
 62
4
 10
2.13297551E+02
 20
-1.84736026E+02
 11
2.17297551E+02
 21
-1.84736026E+02
  0
LINE
  8
0
 62
4
 10
1.93397551E+02
 20
-1.75336026E+02
 11
2.19197551E+02
 21
-1.75336026E+02
  0
LINE
  8
0
 62
4
 10
1.92047551E+02
 20
-1.64336026E+02
 11
2.20547551E+02
 21
-1.64336026E+02
  0
LINE
  8
0
 62
4
 10
1.92047551E+02
 20
-1.63836026E+02
 11
2.20547551E+02
 21
-1.63836026E+02
  0
ARC
  8
0
 62
4
 10
1.93047551E+02
 20
-1.87486026E+02
 40
1.00000000E+00
 50
1.80000000E+02
 51
2.70000000E+02
  0
LINE
  8
0
 62
4
 10
1.93047551E+02
 20
-1.88486026E+02
 11
2.19547551E+02
 21
-1.88486026E+02
  0
LINE
  8
0
 62
4
 10
1.92047551E+02
 20
-1.87486026E+02
 11
1.92047551E+02
 21
-1.60486026E+02
  0
ARC
  8
0
 62
4
 10
2.20797551E+02
 20
-1.88486026E+02
 40
5.00000000E-01
 50
2.70000000E+02
 51
0.00000000E+00
  0
ARC
  8
0
 62
4
 10
1.91797551E+02
 20
-1.88486026E+02
 40
5.00000000E-01
 50
1.80000000E+02
 51
2.70000000E+02
  0
LINE
  8
0
 62
4
 10
2.04447551E+02
 20
-2.08040669E+02
 11
2.04447551E+02
 21
-1.93986026E+02
  0
LINE
  8
0
 62
4
 10
2.08147551E+02
 20
-2.09388527E+02
 11
2.08147551E+02
 21
-1.93986026E+02
  0
ARC
  8
0
 62
4
 10
2.10197551E+02
 20
-1.93486026E+02
 40
5.00000000E-01
 50
2.70000000E+02
 51
0.00000000E+00
  0
ARC
  8
0
 62
4
 10
2.02397551E+02
 20
-1.93486026E+02
 40
5.00000000E-01
 50
1.80000000E+02
 51
2.70000000E+02
  0
LINE
  8
0
 62
4
 10
2.10197551E+02
 20
-1.93986026E+02
 11
2.10197551E+02
 21
-1.92986026E+02
  0
LINE
  8
0
 62
4
 10
2.02397551E+02
 20
-1.93986026E+02
 11
2.02397551E+02
 21
-1.92986026E+02
  0
LINE
  8
0
 62
4
 10
2.01897551E+02
 20
-1.92986026E+02
 11
2.10697551E+02
 21
-1.92986026E+02
  0
LINE
  8
0
 62
4
 10
2.02397551E+02
 20
-1.93986026E+02
 11
2.10197551E+02
 21
-1.93986026E+02
  0
LINE
  8
0
 62
4
 10
1.93047551E+02
 20
-1.59486026E+02
 11
2.19547551E+02
 21
-1.59486026E+02
  0
LINE
  8
0
 62
4
 10
2.20797551E+02
 20
-1.58986026E+02
 11
1.91797551E+02
 21
-1.58986026E+02
  0
ARC
  8
0
 62
4
 10
1.91797551E+02
 20
-1.59486026E+02
 40
5.00000000E-01
 50
9.00000002E+01
 51
1.80000000E+02
  0
ARC
  8
0
 62
4
 10
2.20797551E+02
 20
-1.59486026E+02
 40
5.00000000E-01
 50
0.00000000E+00
 51
9.00000002E+01
  0
LINE
  8
0
  6
CENTER
 62
2
 10
3.40583267E+02
 20
-1.27986025E+02
 11
3.40583267E+02
 21
-2.34357456E+02
  0
LINE
  8
0
  6
CENTER
 62
2
 10
3.40583267E+02
 20
-1.73986026E+02
 11
2.81533952E+02
 21
-1.73986026E+02
  0
LINE
  8
0
 62
4
 10
3.07083266E+02
 20
-1.92486026E+02
 11
3.07083266E+02
 21
-1.89986026E+02
  0
LINE
  8
0
 62
4
 10
3.00383266E+02
 20
-1.92986026E+02
 11
3.00383266E+02
 21
-1.89486026E+02
  0
LINE
  8
0
 62
4
 10
3.06083266E+02
 20
-1.91986026E+02
 11
3.06083266E+02
 21
-1.90486026E+02
  0
LINE
  8
0
 62
4
 10
3.04583266E+02
 20
-1.91986026E+02
 11
3.04583266E+02
 21
-1.90486026E+02
  0
LINE
  8
0
 62
4
 10
3.05083266E+02
 20
-1.91986026E+02
 11
3.05083266E+02
 21
-1.90486026E+02
  0
LINE
  8
0
  6
CENTER
 62
2
 10
3.04083266E+02
 20
-2.14617710E+02
 11
3.04083266E+02
 21
-1.81142875E+02
  0
LINE
  8
0
 62
4
 10
3.01083267E+02
 20
-1.60986026E+02
 11
3.01083267E+02
 21
-1.86986026E+02
  0
LINE
  8
0
 62
4
 10
3.20083267E+02
 20
-1.60986026E+02
 11
3.20083267E+02
 21
-1.86986026E+02
  0
ARC
  8
0
 62
4
 10
3.18079997E+02
 20
-1.60989295E+02
 40
2.00327226E+00
 50
9.35128680E-02
 51
8.99064872E+01
  0
ARC
  8
0
 62
4
 10
3.18092370E+02
 20
-1.86995130E+02
 40
1.99091747E+00
 50
2.69738017E+02
 51
2.61983111E-01
  0
ARC
  8
0
 62
4
 10
3.03092377E+02
 20
-1.60995137E+02
 40
2.00913152E+00
 50
9.02598205E+01
 51
1.79740179E+02
  0
ARC
  8
0
 62
4
 10
3.03080041E+02
 20
-1.86989252E+02
 40
1.99677674E+00
 50
1.79907436E+02
 51
2.70092565E+02
  0
POLYLINE
  8
0
 62
4
 66
1
  0
VERTEX
  8
0
 62
4
 10
3.03089128E+02
 20
-1.68498369E+02
  0
VERTEX
  8
0
 62
4
 10
3.02958394E+02
 20
-1.68519298E+02
  0
VERTEX
  8
0
 62
4
 10
3.02828656E+02
 20
-1.68581927E+02
  0
VERTEX
  8
0
 62
4
 10
3.02700899E+02
 20
-1.68685777E+02
  0
VERTEX
  8
0
 62
4
 10
3.02576098E+02
 20
-1.68830060E+02
  0
VERTEX
  8
0
 62
4
 10
3.02455201E+02
 20
-1.69013676E+02
  0
VERTEX
  8
0
 62
4
 10
3.02339128E+02
 20
-1.69235229E+02
  0
VERTEX
  8
0
 62
4
 10
3.02228763E+02
 20
-1.69493033E+02
  0
VERTEX
  8
0
 62
4
 10
3.02124947E+02
 20
-1.69785125E+02
  0
VERTEX
  8
0
 62
4
 10
3.02028468E+02
 20
-1.70109282E+02
  0
VERTEX
  8
0
 62
4
 10
3.01940061E+02
 20
-1.70463037E+02
  0
VERTEX
  8
0
 62
4
 10
3.01860400E+02
 20
-1.70843699E+02
  0
VERTEX
  8
0
 62
4
 10
3.01790090E+02
 20
-1.71248369E+02
  0
VERTEX
  8
0
 62
4
 10
3.01729666E+02
 20
-1.71673969E+02
  0
VERTEX
  8
0
 62
4
 10
3.01679589E+02
 20
-1.72117259E+02
  0
VERTEX
  8
0
 62
4
 10
3.01640239E+02
 20
-1.72574865E+02
  0
VERTEX
  8
0
 62
4
 10
3.01611916E+02
 20
-1.73043304E+02
  0
VERTEX
  8
0
 62
4
 10
3.01594835E+02
 20
-1.73519013E+02
  0
VERTEX
  8
0
 62
4
 10
3.01589127E+02
 20
-1.73998370E+02
  0
VERTEX
  8
0
 62
4
 10
3.01594835E+02
 20
-1.74477726E+02
  0
VERTEX
  8
0
 62
4
 10
3.01611915E+02
 20
-1.74953435E+02
  0
VERTEX
  8
0
 62
4
 10
3.01640238E+02
 20
-1.75421874E+02
  0
VERTEX
  8
0
 62
4
 10
3.01679587E+02
 20
-1.75879481E+02
  0
VERTEX
  8
0
 62
4
 10
3.01729665E+02
 20
-1.76322770E+02
  0
VERTEX
  8
0
 62
4
 10
3.01790088E+02
 20
-1.76748370E+02
  0
VERTEX
  8
0
 62
4
 10
3.01860398E+02
 20
-1.77153040E+02
  0
VERTEX
  8
0
 62
4
 10
3.01940059E+02
 20
-1.77533702E+02
  0
VERTEX
  8
0
 62
4
 10
3.02028465E+02
 20
-1.77887457E+02
  0
VERTEX
  8
0
 62
4
 10
3.02124944E+02
 20
-1.78211615E+02
  0
VERTEX
  8
0
 62
4
 10
3.02228761E+02
 20
-1.78503706E+02
  0
VERTEX
  8
0
 62
4
 10
3.02339125E+02
 20
-1.78761510E+02
  0
VERTEX
  8
0
 62
4
 10
3.02455197E+02
 20
-1.78983063E+02
  0
VERTEX
  8
0
 62
4
 10
3.02576095E+02
 20
-1.79166680E+02
  0
VERTEX
  8
0
 62
4
 10
3.02700896E+02
 20
-1.79310963E+02
  0
VERTEX
  8
0
 62
4
 10
3.02828652E+02
 20
-1.79414813E+02
  0
VERTEX
  8
0
 62
4
 10
3.02958391E+02
 20
-1.79477441E+02
  0
VERTEX
  8
0
 62
4
 10
3.03089124E+02
 20
-1.79498371E+02
  0
VERTEX
  8
0
 62
4
 10
3.03219858E+02
 20
-1.79477442E+02
  0
VERTEX
  8
0
 62
4
 10
3.03349596E+02
 20
-1.79414813E+02
  0
VERTEX
  8
0
 62
4
 10
3.03477353E+02
 20
-1.79310963E+02
  0
VERTEX
  8
0
 62
4
 10
3.03602154E+02
 20
-1.79166680E+02
  0
VERTEX
  8
0
 62
4
 10
3.03723051E+02
 20
-1.78983064E+02
  0
VERTEX
  8
0
 62
4
 10
3.03839124E+02
 20
-1.78761511E+02
  0
VERTEX
  8
0
 62
4
 10
3.03949489E+02
 20
-1.78503707E+02
  0
VERTEX
  8
0
 62
4
 10
3.04053305E+02
 20
-1.78211615E+02
  0
VERTEX
  8
0
 62
4
 10
3.04149784E+02
 20
-1.77887458E+02
  0
VERTEX
  8
0
 62
4
 10
3.04238191E+02
 20
-1.77533703E+02
  0
VERTEX
  8
0
 62
4
 10
3.04317852E+02
 20
-1.77153041E+02
  0
VERTEX
  8
0
 62
4
 10
3.04388162E+02
 20
-1.76748371E+02
  0
VERTEX
  8
0
 62
4
 10
3.04448586E+02
 20
-1.76322771E+02
  0
VERTEX
  8
0
 62
4
 10
3.04498663E+02
 20
-1.75879481E+02
  0
VERTEX
  8
0
 62
4
 10
3.04538013E+02
 20
-1.75421875E+02
  0
VERTEX
  8
0
 62
4
 10
3.04566336E+02
 20
-1.74953436E+02
  0
VERTEX
  8
0
 62
4
 10
3.04583417E+02
 20
-1.74477727E+02
  0
VERTEX
  8
0
 62
4
 10
3.04589125E+02
 20
-1.73998370E+02
  0
VERTEX
  8
0
 62
4
 10
3.04583417E+02
 20
-1.73519014E+02
  0
VERTEX
  8
0
 62
4
 10
3.04566337E+02
 20
-1.73043305E+02
  0
VERTEX
  8
0
 62
4
 10
3.04538014E+02
 20
-1.72574866E+02
  0
VERTEX
  8
0
 62
4
 10
3.04498665E+02
 20
-1.72117259E+02
  0
VERTEX
  8
0
 62
4
 10
3.04448587E+02
 20
-1.71673970E+02
  0
VERTEX
  8
0
 62
4
 10
3.04388164E+02
 20
-1.71248370E+02
  0
VERTEX
  8
0
 62
4
 10
3.04317854E+02
 20
-1.70843700E+02
  0
VERTEX
  8
0
 62
4
 10
3.04238193E+02
 20
-1.70463038E+02
  0
VERTEX
  8
0
 62
4
 10
3.04149787E+02
 20
-1.70109283E+02
  0
VERTEX
  8
0
 62
4
 10
3.04053308E+02
 20
-1.69785125E+02
  0
VERTEX
  8
0
 62
4
 10
3.03949491E+02
 20
-1.69493034E+02
  0
VERTEX
  8
0
 62
4
 10
3.03839127E+02
 20
-1.69235230E+02
  0
VERTEX
  8
0
 62
4
 10
3.03723055E+02
 20
-1.69013677E+02
  0
VERTEX
  8
0
 62
4
 10
3.03602157E+02
 20
-1.68830060E+02
  0
VERTEX
  8
0
 62
4
 10
3.03477356E+02
 20
-1.68685777E+02
  0
VERTEX
  8
0
 62
4
 10
3.03349600E+02
 20
-1.68581927E+02
  0
VERTEX
  8
0
 62
4
 10
3.03219861E+02
 20
-1.68519299E+02
  0
VERTEX
  8
0
 62
4
 10
3.03089128E+02
 20
-1.68498369E+02
  0
SEQEND
  8
0
  0
LINE
  8
0
 62
4
 10
2.88583266E+02
 20
-1.88486026E+02
 11
2.88583266E+02
 21
-1.59486026E+02
  0
LINE
  8
0
 62
4
 10
2.89083266E+02
 20
-1.58986026E+02
 11
3.18095797E+02
 21
-1.58986026E+02
  0
ARC
  8
0
 62
4
 10
2.89083266E+02
 20
-1.59486026E+02
 40
5.00000000E-01
 50
9.00000002E+01
 51
1.80000000E+02
  0
LINE
  8
0
 62
4
 10
2.89083266E+02
 20
-1.88986026E+02
 11
3.18095780E+02
 21
-1.88986026E+02
  0
ARC
  8
0
 62
4
 10
2.89083266E+02
 20
-1.88486026E+02
 40
5.00000000E-01
 50
1.80000000E+02
 51
2.70000000E+02
  0
ARC
  8
0
 62
4
 10
3.03089513E+02
 20
-1.86979780E+02
 40
2.00625590E+00
 50
1.80178381E+02
 51
2.69821619E+02
  0
ARC
  8
0
 62
4
 10
3.06583266E+02
 20
-1.89986026E+02
 40
5.00000000E-01
 50
0.00000000E+00
 51
9.00000002E+01
  0
LINE
  8
0
 62
4
 10
3.04583266E+02
 20
-1.90486026E+02
 11
3.06083266E+02
 21
-1.90486026E+02
  0
LINE
  8
0
 62
4
 10
3.00583266E+02
 20
-1.89486026E+02
 11
3.00583266E+02
 21
-1.88986026E+02
  0
LINE
  8
0
 62
4
 10
3.00383266E+02
 20
-1.89486026E+02
 11
3.06583266E+02
 21
-1.89486026E+02
  0
LINE
  8
0
 62
6
 10
3.01083267E+02
 20
-2.08000312E+02
 11
3.07083267E+02
 21
-2.10186027E+02
  0
LINE
  8
0
 62
6
 10
3.01083267E+02
 20
-2.10128884E+02
 11
3.07083267E+02
 21
-2.12314598E+02
  0
ARC
  8
0
 62
4
 10
3.06583266E+02
 20
-1.92486026E+02
 40
5.00000000E-01
 50
2.70000000E+02
 51
0.00000000E+00
  0
LINE
  8
0
 62
4
 10
3.00783266E+02
 20
-1.93986026E+02
 11
3.07083266E+02
 21
-1.93986026E+02
  0
LINE
  8
0
 62
4
 10
3.02233266E+02
 20
-2.08419241E+02
 11
3.02233266E+02
 21
-1.93986026E+02
  0
LINE
  8
0
 62
4
 10
3.05933266E+02
 20
-2.09767098E+02
 11
3.05933266E+02
 21
-1.93986026E+02
  0
LINE
  8
0
 62
4
 10
3.04583266E+02
 20
-1.91986026E+02
 11
3.06083266E+02
 21
-1.91986026E+02
  0
LINE
  8
0
 62
4
 10
3.00383266E+02
 20
-1.92986026E+02
 11
3.06583266E+02
 21
-1.92986026E+02
  0
ARC
  8
0
 62
4
 10
3.00783266E+02
 20
-1.93786026E+02
 40
2.00000000E-01
 50
1.80000000E+02
 51
2.70000000E+02
  0
LINE
  8
0
 62
4
 10
3.00583266E+02
 20
-1.93786026E+02
 11
3.00583266E+02
 21
-1.92986026E+02
  0
ARC
  8
0
 62
4
 10
3.07083266E+02
 20
-1.93486026E+02
 40
5.00000000E-01
 50
2.70000000E+02
 51
0.00000000E+00
  0
LINE
  8
0
 62
7
 10
2.20797551E+02
 20
-1.88986026E+02
 11
2.48041287E+02
 21
-1.88986026E+02
  0
LINE
  8
0
 62
7
 10
1.91797551E+02
 20
-1.88986026E+02
 11
1.67909796E+02
 21
-1.88986026E+02
  0
LINE
  8
0
 62
7
 10
1.91797551E+02
 20
-1.58986026E+02
 11
1.63930248E+02
 21
-1.58986026E+02
  0
LINE
  8
0
 62
7
 10
2.20797551E+02
 20
-1.58986026E+02
 11
2.44058821E+02
 21
-1.58986026E+02
  0
LINE
  8
0
 62
7
 10
-3.50106742E+02
 20
-1.71557652E+02
 11
-3.50106742E+02
 21
-1.74437652E+02
  0
TEXT
  8
0
 62
7
 10
2.55481712E+02
 20
-2.67750000E+02
 40
6.00000000E+00
  1
-GS2
 41
1.00000000E+00
  7
MONOTXT
  0
TEXT
  8
0
 62
7
 10
-6.78682228E+01
 20
-2.67750000E+02
 40
6.00000000E+00
  1
-GS1A,-GS1B,-GS1C,-GS1D
 41
1.00000000E+00
  7
MONOTXT
  0
TEXT
  8
0
 62
7
 10
-2.77218158E+02
 20
-2.67750000E+02
 40
6.00000000E+00
  1
-G1A
 41
1.00000000E+00
  7
MONOTXT
  0
TEXT
  8
0
 62
7
 10
-3.88393125E+02
 20
-1.05416667E+02
 40
6.00000000E+00
  1
PRESSURE GAUGE
 41
1.04477612E+00
  7
MONOTXT
  0
LINE
  8
0
 62
7
 10
-3.99250000E+02
 20
-9.24166667E+01
 11
3.99799805E+02
 21
-9.24166667E+01
  0
TEXT
  8
0
 62
7
 10
-3.95800283E+02
 20
2.68100000E+02
 40
6.30000019E+00
  1
F.R.L.LARGE FLOW SERIES
 41
1.05504587E+00
  7
MONOTXT
  0
LINE
  8
0
 62
7
 10
-3.99250000E+02
 20
2.56250000E+02
 11
-2.49250000E+02
 21
2.56250000E+02
  0
TEXT
  8
0
 62
7
 10
-3.58000282E+02
 20
2.58100000E+02
 40
6.30000019E+00
  1
COMBINATION
 41
1.00000000E+00
  7
MONOTXT
  0
LINE
  8
0
 62
7
 10
-2.49250000E+02
 20
2.76250000E+02
 11
-2.49250000E+02
 21
2.56250000E+02
  0
LINE
  8
0
 62
7
 10
1.33449870E+02
 20
2.76250000E+02
 11
1.33449870E+02
 21
-9.24166667E+01
  0
ARC
  8
0
 62
7
 10
2.93863459E+02
 20
1.82260541E+01
 40
2.99491999E+00
 50
2.99909914E+02
 51
3.58162573E+02
  0
ARC
  8
0
 62
7
 10
2.78683492E+02
 20
9.45757985E+00
 40
2.98756125E+00
 50
2.69872421E+02
 51
2.99990413E+02
  0
ARC
  8
0
 62
7
 10
2.47890374E+02
 20
9.45828008E+00
 40
2.98826106E+00
 50
2.40013197E+02
 51
2.70123969E+02
  0
ARC
  8
0
 62
7
 10
2.32712269E+02
 20
1.82272841E+01
 40
2.99700864E+00
 50
1.81859673E+02
 51
2.40067840E+02
  0
LINE
  8
0
  6
CENTER
 62
2
 10
2.63276839E+02
 20
4.17500260E+01
 11
2.63276839E+02
 21
-2.62499740E+01
  0
LINE
  8
0
  6
CENTER
 62
2
 10
1.99276839E+02
 20
1.47190026E+02
 11
3.27276839E+02
 21
1.47190026E+02
  0
LINE
  8
0
  6
CENTER
 62
2
 10
2.63276839E+02
 20
1.77190026E+02
 11
2.63276839E+02
 21
1.32190026E+02
  0
LINE
  8
0
 62
7
 10
3.21776839E+02
 20
1.72190026E+02
 11
3.21776839E+02
 21
1.32190026E+02
  0
LINE
  8
0
 62
7
 10
2.04776839E+02
 20
1.72190026E+02
 11
2.04776839E+02
 21
1.32190026E+02
  0
LINE
  8
0
 62
7
 10
2.95356839E+02
 20
1.56300260E+01
 11
2.80176839E+02
 21
6.87002601E+00
  0
LINE
  8
0
 62
7
 10
2.31216839E+02
 20
1.56300260E+01
 11
2.46396839E+02
 21
6.87002601E+00
  0
LINE
  8
0
 62
7
 10
2.97676839E+02
 20
4.16500260E+01
 11
2.96856839E+02
 21
1.81300260E+01
  0
LINE
  8
0
 62
7
 10
2.28896839E+02
 20
4.16500260E+01
 11
2.29716839E+02
 21
1.81300260E+01
  0
LINE
  8
0
 62
7
 10
2.32276839E+02
 20
1.64700260E+01
 11
2.94276839E+02
 21
1.64700260E+01
  0
LINE
  8
0
 62
7
 10
2.47896839E+02
 20
6.47002601E+00
 11
2.78676839E+02
 21
6.47002601E+00
  0
LINE
  8
0
 62
7
 10
2.24276839E+02
 20
1.62190026E+02
 11
2.23396839E+02
 21
1.61350026E+02
  0
LINE
  8
0
 62
7
 10
2.10276839E+02
 20
1.62190026E+02
 11
2.11156839E+02
 21
1.61350026E+02
  0
LINE
  8
0
 62
7
 10
2.11156839E+02
 20
1.33030026E+02
 11
2.10276839E+02
 21
1.32190026E+02
  0
LINE
  8
0
 62
7
 10
2.24276839E+02
 20
1.32190026E+02
 11
2.23396839E+02
 21
1.33030026E+02
  0
LINE
  8
0
 62
7
 10
2.23396839E+02
 20
1.33030026E+02
 11
2.11156839E+02
 21
1.33030026E+02
  0
LINE
  8
0
 62
7
 10
2.23396839E+02
 20
1.61350026E+02
 11
2.11156839E+02
 21
1.61350026E+02
  0
LINE
  8
0
 62
7
 10
2.11156839E+02
 20
1.61350026E+02
 11
2.11156839E+02
 21
1.33030026E+02
  0
LINE
  8
0
 62
7
 10
2.23396839E+02
 20
1.61350026E+02
 11
2.23396839E+02
 21
1.33030026E+02
  0
LINE
  8
0
 62
7
 10
2.24276839E+02
 20
1.32190026E+02
 11
2.10276839E+02
 21
1.32190026E+02
  0
LINE
  8
0
 62
7
 10
2.24276839E+02
 20
1.62190026E+02
 11
2.10276839E+02
 21
1.62190026E+02
  0
LINE
  8
0
 62
7
 10
2.24276839E+02
 20
1.62190026E+02
 11
2.24276839E+02
 21
1.32190026E+02
  0
LINE
  8
0
 62
7
 10
2.10276839E+02
 20
1.62190026E+02
 11
2.10276839E+02
 21
1.32190026E+02
  0
LINE
  8
0
 62
7
 10
3.02276839E+02
 20
1.62190026E+02
 11
3.03156839E+02
 21
1.61350026E+02
  0
LINE
  8
0
 62
7
 10
3.16276839E+02
 20
1.62190026E+02
 11
3.15396839E+02
 21
1.61350026E+02
  0
LINE
  8
0
 62
7
 10
3.15396839E+02
 20
1.33030026E+02
 11
3.16276839E+02
 21
1.32190026E+02
  0
LINE
  8
0
 62
7
 10
3.02276839E+02
 20
1.32190026E+02
 11
3.03156839E+02
 21
1.33030026E+02
  0
LINE
  8
0
 62
7
 10
3.03156839E+02
 20
1.33030026E+02
 11
3.15396839E+02
 21
1.33030026E+02
  0
LINE
  8
0
 62
7
 10
3.03156839E+02
 20
1.61350026E+02
 11
3.15396839E+02
 21
1.61350026E+02
  0
LINE
  8
0
 62
7
 10
3.15396839E+02
 20
1.61350026E+02
 11
3.15396839E+02
 21
1.33030026E+02
  0
LINE
  8
0
 62
7
 10
3.03156839E+02
 20
1.61350026E+02
 11
3.03156839E+02
 21
1.33030026E+02
  0
LINE
  8
0
 62
7
 10
3.02276839E+02
 20
1.32190026E+02
 11
3.16276839E+02
 21
1.32190026E+02
  0
LINE
  8
0
 62
7
 10
3.02276839E+02
 20
1.62190026E+02
 11
3.16276839E+02
 21
1.62190026E+02
  0
LINE
  8
0
 62
7
 10
2.27456839E+02
 20
1.67690026E+02
 11
2.99116839E+02
 21
1.67690026E+02
  0
LINE
  8
0
 62
7
 10
2.99116839E+02
 20
1.67690026E+02
 11
2.97496839E+02
 21
1.69190026E+02
  0
LINE
  8
0
 62
7
 10
2.27456839E+02
 20
1.67690026E+02
 11
2.29056839E+02
 21
1.69190026E+02
  0
LINE
  8
0
 62
7
 10
3.00356839E+02
 20
1.32190026E+02
 11
2.99116839E+02
 21
1.67690026E+02
  0
LINE
  8
0
 62
7
 10
2.26216839E+02
 20
1.32190026E+02
 11
2.27456839E+02
 21
1.67690026E+02
  0
LINE
  8
0
 62
7
 10
3.02276839E+02
 20
1.62190026E+02
 11
3.02276839E+02
 21
1.32190026E+02
  0
LINE
  8
0
 62
7
 10
3.16276839E+02
 20
1.62190026E+02
 11
3.16276839E+02
 21
1.32190026E+02
  0
LINE
  8
0
 62
7
 10
2.29056839E+02
 20
1.69190026E+02
 11
2.97496839E+02
 21
1.69190026E+02
  0
LINE
  8
0
 62
7
 10
2.03276839E+02
 20
1.70690026E+02
 11
3.23276839E+02
 21
1.70690026E+02
  0
LINE
  8
0
 62
7
 10
3.21776839E+02
 20
1.72190026E+02
 11
3.23276839E+02
 21
1.70690026E+02
  0
LINE
  8
0
 62
7
 10
2.03276839E+02
 20
1.70690026E+02
 11
2.04776839E+02
 21
1.72190026E+02
  0
LINE
  8
0
 62
7
 10
2.03276839E+02
 20
1.70690026E+02
 11
2.03276839E+02
 21
1.32190026E+02
  0
LINE
  8
0
 62
7
 10
3.23276839E+02
 20
1.70690026E+02
 11
3.23276839E+02
 21
1.32190026E+02
  0
LINE
  8
0
 62
7
 10
2.04776839E+02
 20
1.72190026E+02
 11
3.21776839E+02
 21
1.72190026E+02
  0
TEXT
  8
0
 62
7
 10
2.54121749E+02
 20
2.37041358E+02
 40
6.30000019E+00
  1
-DU
 41
1.00000000E+00
  7
MONOTXT
  0
TEXT
  8
0
 62
7
 10
2.90625528E+02
 20
-2.30570359E+01
 40
6.30000019E+00
  1
-F1,-A
 41
1.00000000E+00
  7
MONOTXT
  0
TEXT
  8
0
 62
7
 10
-3.68551510E+02
 20
1.51641340E+02
 40
6.30000019E+00
  1
IN
 41
1.00000000E+00
  7
MONOTXT
  0
TEXT
  8
0
 62
7
 10
-1.20131510E+02
 20
1.51641340E+02
 40
6.30000019E+00
  1
OUT
 41
1.00000000E+00
  7
MONOTXT
  0
POLYLINE
  8
0
 62
2
 66
1
  0
VERTEX
  8
0
 62
2
 10
-3.51621627E+02
 20
-2.23950872E+02
  0
VERTEX
  8
0
 62
2
 10
-3.50394372E+02
 20
-2.23416876E+02
  0
VERTEX
  8
0
 62
2
 10
-3.49152788E+02
 20
-2.22915195E+02
  0
VERTEX
  8
0
 62
2
 10
-3.47898526E+02
 20
-2.22449672E+02
  0
VERTEX
  8
0
 62
2
 10
-3.46633239E+02
 20
-2.22024149E+02
  0
VERTEX
  8
0
 62
2
 10
-3.45358578E+02
 20
-2.21642470E+02
  0
VERTEX
  8
0
 62
2
 10
-3.44076193E+02
 20
-2.21308478E+02
  0
VERTEX
  8
0
 62
2
 10
-3.42787737E+02
 20
-2.21026014E+02
  0
VERTEX
  8
0
 62
2
 10
-3.41494862E+02
 20
-2.20798922E+02
  0
VERTEX
  8
0
 62
2
 10
-3.40199218E+02
 20
-2.20631045E+02
  0
VERTEX
  8
0
 62
2
 10
-3.38902457E+02
 20
-2.20526225E+02
  0
VERTEX
  8
0
 62
2
 10
-3.36602083E+02
 20
-2.20497836E+02
  0
VERTEX
  8
0
 62
2
 10
-3.34302580E+02
 20
-2.20645359E+02
  0
VERTEX
  8
0
 62
2
 10
-3.32003059E+02
 20
-2.20934477E+02
  0
VERTEX
  8
0
 62
2
 10
-3.29702627E+02
 20
-2.21330876E+02
  0
VERTEX
  8
0
 62
2
 10
-3.27400394E+02
 20
-2.21800240E+02
  0
VERTEX
  8
0
 62
2
 10
-3.25095469E+02
 20
-2.22308254E+02
  0
VERTEX
  8
0
 62
2
 10
-3.22786961E+02
 20
-2.22820603E+02
  0
VERTEX
  8
0
 62
2
 10
-3.20473978E+02
 20
-2.23302972E+02
  0
VERTEX
  8
0
 62
2
 10
-3.18155631E+02
 20
-2.23721047E+02
  0
VERTEX
  8
0
 62
2
 10
-3.15831028E+02
 20
-2.24040510E+02
  0
VERTEX
  8
0
 62
2
 10
-3.14612954E+02
 20
-2.24157794E+02
  0
VERTEX
  8
0
 62
2
 10
-3.13393385E+02
 20
-2.24240147E+02
  0
VERTEX
  8
0
 62
2
 10
-3.12172642E+02
 20
-2.24289143E+02
  0
VERTEX
  8
0
 62
2
 10
-3.10951045E+02
 20
-2.24306355E+02
  0
VERTEX
  8
0
 62
2
 10
-3.09728915E+02
 20
-2.24293355E+02
  0
VERTEX
  8
0
 62
2
 10
-3.08506573E+02
 20
-2.24251716E+02
  0
VERTEX
  8
0
 62
2
 10
-3.07284339E+02
 20
-2.24183012E+02
  0
VERTEX
  8
0
 62
2
 10
-3.06062536E+02
 20
-2.24088815E+02
  0
VERTEX
  8
0
 62
2
 10
-3.04841483E+02
 20
-2.23970698E+02
  0
VERTEX
  8
0
 62
2
 10
-3.03621501E+02
 20
-2.23830234E+02
  0
SEQEND
  8
0
  0
POLYLINE
  8
0
 62
2
 66
1
  0
VERTEX
  8
0
 62
2
 10
-2.87173958E+02
 20
-1.48009177E+02
  0
VERTEX
  8
0
 62
2
 10
-2.87687171E+02
 20
-1.49343461E+02
  0
VERTEX
  8
0
 62
2
 10
-2.88164489E+02
 20
-1.50693464E+02
  0
VERTEX
  8
0
 62
2
 10
-2.88600055E+02
 20
-1.52056768E+02
  0
VERTEX
  8
0
 62
2
 10
-2.88988016E+02
 20
-1.53430953E+02
  0
VERTEX
  8
0
 62
2
 10
-2.89322516E+02
 20
-1.54813599E+02
  0
VERTEX
  8
0
 62
2
 10
-2.89597699E+02
 20
-1.56202288E+02
  0
VERTEX
  8
0
 62
2
 10
-2.89807711E+02
 20
-1.57594600E+02
  0
VERTEX
  8
0
 62
2
 10
-2.89946697E+02
 20
-1.58988116E+02
  0
VERTEX
  8
0
 62
2
 10
-2.90008802E+02
 20
-1.60380416E+02
  0
VERTEX
  8
0
 62
2
 10
-2.89988170E+02
 20
-1.61769081E+02
  0
VERTEX
  8
0
 62
2
 10
-2.89801032E+02
 20
-1.63828060E+02
  0
VERTEX
  8
0
 62
2
 10
-2.89455767E+02
 20
-1.65876170E+02
  0
VERTEX
  8
0
 62
2
 10
-2.88990721E+02
 20
-1.67916143E+02
  0
VERTEX
  8
0
 62
2
 10
-2.88444237E+02
 20
-1.69950711E+02
  0
VERTEX
  8
0
 62
2
 10
-2.87854661E+02
 20
-1.71982608E+02
  0
VERTEX
  8
0
 62
2
 10
-2.87260337E+02
 20
-1.74014566E+02
  0
VERTEX
  8
0
 62
2
 10
-2.86699610E+02
 20
-1.76049316E+02
  0
VERTEX
  8
0
 62
2
 10
-2.86210824E+02
 20
-1.78089593E+02
  0
VERTEX
  8
0
 62
2
 10
-2.85832325E+02
 20
-1.80138127E+02
  0
VERTEX
  8
0
 62
2
 10
-2.85602456E+02
 20
-1.82197653E+02
  0
VERTEX
  8
0
 62
2
 10
-2.85546614E+02
 20
-1.83793347E+02
  0
VERTEX
  8
0
 62
2
 10
-2.85594210E+02
 20
-1.85394171E+02
  0
VERTEX
  8
0
 62
2
 10
-2.85737852E+02
 20
-1.86996989E+02
  0
VERTEX
  8
0
 62
2
 10
-2.85970145E+02
 20
-1.88598668E+02
  0
VERTEX
  8
0
 62
2
 10
-2.86283697E+02
 20
-1.90196075E+02
  0
VERTEX
  8
0
 62
2
 10
-2.86671114E+02
 20
-1.91786075E+02
  0
VERTEX
  8
0
 62
2
 10
-2.87125003E+02
 20
-1.93365536E+02
  0
VERTEX
  8
0
 62
2
 10
-2.87637971E+02
 20
-1.94931323E+02
  0
VERTEX
  8
0
 62
2
 10
-2.88202624E+02
 20
-1.96480302E+02
  0
VERTEX
  8
0
 62
2
 10
-2.88811569E+02
 20
-1.98009340E+02
  0
SEQEND
  8
0
  0
POLYLINE
  8
0
 62
2
 66
1
  0
VERTEX
  8
0
 62
2
 10
-2.38887796E+02
 20
-2.35393506E+02
  0
VERTEX
  8
0
 62
2
 10
-2.38563109E+02
 20
-2.35411779E+02
  0
VERTEX
  8
0
 62
2
 10
-2.38238441E+02
 20
-2.35425791E+02
  0
VERTEX
  8
0
 62
2
 10
-2.37913823E+02
 20
-2.35435412E+02
  0
VERTEX
  8
0
 62
2
 10
-2.37589284E+02
 20
-2.35440515E+02
  0
VERTEX
  8
0
 62
2
 10
-2.37264851E+02
 20
-2.35440972E+02
  0
VERTEX
  8
0
 62
2
 10
-2.36940555E+02
 20
-2.35436655E+02
  0
VERTEX
  8
0
 62
2
 10
-2.36616423E+02
 20
-2.35427436E+02
  0
VERTEX
  8
0
 62
2
 10
-2.36292487E+02
 20
-2.35413186E+02
  0
VERTEX
  8
0
 62
2
 10
-2.35968773E+02
 20
-2.35393777E+02
  0
VERTEX
  8
0
 62
2
 10
-2.35645312E+02
 20
-2.35369082E+02
  0
VERTEX
  8
0
 62
2
 10
-2.33809968E+02
 20
-2.35132701E+02
  0
VERTEX
  8
0
 62
2
 10
-2.31982753E+02
 20
-2.34761000E+02
  0
VERTEX
  8
0
 62
2
 10
-2.30162851E+02
 20
-2.34292755E+02
  0
VERTEX
  8
0
 62
2
 10
-2.28349443E+02
 20
-2.33766743E+02
  0
VERTEX
  8
0
 62
2
 10
-2.26541712E+02
 20
-2.33221742E+02
  0
VERTEX
  8
0
 62
2
 10
-2.24738840E+02
 20
-2.32696528E+02
  0
VERTEX
  8
0
 62
2
 10
-2.22940010E+02
 20
-2.32229878E+02
  0
VERTEX
  8
0
 62
2
 10
-2.21144405E+02
 20
-2.31860569E+02
  0
VERTEX
  8
0
 62
2
 10
-2.19351207E+02
 20
-2.31627378E+02
  0
VERTEX
  8
0
 62
2
 10
-2.17559597E+02
 20
-2.31569082E+02
  0
VERTEX
  8
0
 62
2
 10
-2.15739168E+02
 20
-2.31715271E+02
  0
VERTEX
  8
0
 62
2
 10
-2.13919634E+02
 20
-2.32039393E+02
  0
VERTEX
  8
0
 62
2
 10
-2.12099861E+02
 20
-2.32498135E+02
  0
VERTEX
  8
0
 62
2
 10
-2.10278718E+02
 20
-2.33048186E+02
  0
VERTEX
  8
0
 62
2
 10
-2.08455070E+02
 20
-2.33646233E+02
  0
VERTEX
  8
0
 62
2
 10
-2.06627784E+02
 20
-2.34248966E+02
  0
VERTEX
  8
0
 62
2
 10
-2.04795727E+02
 20
-2.34813072E+02
  0
VERTEX
  8
0
 62
2
 10
-2.02957766E+02
 20
-2.35295239E+02
  0
VERTEX
  8
0
 62
2
 10
-2.01112767E+02
 20
-2.35652156E+02
  0
VERTEX
  8
0
 62
2
 10
-1.99259597E+02
 20
-2.35840511E+02
  0
VERTEX
  8
0
 62
2
 10
-1.98153075E+02
 20
-2.35857060E+02
  0
VERTEX
  8
0
 62
2
 10
-1.97045235E+02
 20
-2.35803117E+02
  0
VERTEX
  8
0
 62
2
 10
-1.95937748E+02
 20
-2.35683298E+02
  0
VERTEX
  8
0
 62
2
 10
-1.94832285E+02
 20
-2.35502219E+02
  0
VERTEX
  8
0
 62
2
 10
-1.93730516E+02
 20
-2.35264495E+02
  0
VERTEX
  8
0
 62
2
 10
-1.92634112E+02
 20
-2.34974744E+02
  0
VERTEX
  8
0
 62
2
 10
-1.91544744E+02
 20
-2.34637580E+02
  0
VERTEX
  8
0
 62
2
 10
-1.90464081E+02
 20
-2.34257621E+02
  0
VERTEX
  8
0
 62
2
 10
-1.89393796E+02
 20
-2.33839481E+02
  0
VERTEX
  8
0
 62
2
 10
-1.88335558E+02
 20
-2.33387778E+02
  0
SEQEND
  8
0
  0
POLYLINE
  8
0
 62
2
 66
1
  0
VERTEX
  8
0
 62
2
 10
-3.67316813E+02
 20
-1.48009252E+02
  0
VERTEX
  8
0
 62
2
 10
-3.67830024E+02
 20
-1.49343595E+02
  0
VERTEX
  8
0
 62
2
 10
-3.68307338E+02
 20
-1.50693664E+02
  0
VERTEX
  8
0
 62
2
 10
-3.68742902E+02
 20
-1.52057030E+02
  0
VERTEX
  8
0
 62
2
 10
-3.69130860E+02
 20
-1.53431268E+02
  0
VERTEX
  8
0
 62
2
 10
-3.69465358E+02
 20
-1.54813951E+02
  0
VERTEX
  8
0
 62
2
 10
-3.69740541E+02
 20
-1.56202650E+02
  0
VERTEX
  8
0
 62
2
 10
-3.69950554E+02
 20
-1.57594940E+02
  0
VERTEX
  8
0
 62
2
 10
-3.70089543E+02
 20
-1.58988393E+02
  0
VERTEX
  8
0
 62
2
 10
-3.70151653E+02
 20
-1.60380582E+02
  0
VERTEX
  8
0
 62
2
 10
-3.70131029E+02
 20
-1.61769081E+02
  0
VERTEX
  8
0
 62
2
 10
-3.69943490E+02
 20
-1.63828068E+02
  0
VERTEX
  8
0
 62
2
 10
-3.69597139E+02
 20
-1.65876193E+02
  0
VERTEX
  8
0
 62
2
 10
-3.69130491E+02
 20
-1.67916185E+02
  0
VERTEX
  8
0
 62
2
 10
-3.68582063E+02
 20
-1.69950772E+02
  0
VERTEX
  8
0
 62
2
 10
-3.67990371E+02
 20
-1.71982686E+02
  0
VERTEX
  8
0
 62
2
 10
-3.67393932E+02
 20
-1.74014653E+02
  0
VERTEX
  8
0
 62
2
 10
-3.66831262E+02
 20
-1.76049404E+02
  0
VERTEX
  8
0
 62
2
 10
-3.66340878E+02
 20
-1.78089669E+02
  0
VERTEX
  8
0
 62
2
 10
-3.65961294E+02
 20
-1.80138175E+02
  0
VERTEX
  8
0
 62
2
 10
-3.65731029E+02
 20
-1.82197653E+02
  0
VERTEX
  8
0
 62
2
 10
-3.65675448E+02
 20
-1.83793348E+02
  0
VERTEX
  8
0
 62
2
 10
-3.65723767E+02
 20
-1.85394172E+02
  0
VERTEX
  8
0
 62
2
 10
-3.65868507E+02
 20
-1.86996990E+02
  0
VERTEX
  8
0
 62
2
 10
-3.66102184E+02
 20
-1.88598669E+02
  0
VERTEX
  8
0
 62
2
 10
-3.66417317E+02
 20
-1.90196076E+02
  0
VERTEX
  8
0
 62
2
 10
-3.66806424E+02
 20
-1.91786077E+02
  0
VERTEX
  8
0
 62
2
 10
-3.67262025E+02
 20
-1.93365537E+02
  0
VERTEX
  8
0
 62
2
 10
-3.67776636E+02
 20
-1.94931323E+02
  0
VERTEX
  8
0
 62
2
 10
-3.68342778E+02
 20
-1.96480303E+02
  0
VERTEX
  8
0
 62
2
 10
-3.68952967E+02
 20
-1.98009341E+02
  0
SEQEND
  8
0
  0
LINE
  8
0
 62
7
 10
-2.96616742E+02
 20
-1.31997652E+02
 11
-3.58616743E+02
 21
-1.31997652E+02
  0
LINE
  8
0
 62
7
 10
-3.60616743E+02
 20
-1.33997652E+02
 11
-3.60616743E+02
 21
-1.57997652E+02
  0
LINE
  8
0
 62
7
 10
-2.94616742E+02
 20
-1.33997652E+02
 11
-2.94616742E+02
 21
-1.57997652E+02
  0
LINE
  8
0
 62
7
 10
-2.94616742E+02
 20
-1.98297653E+02
 11
-2.94616742E+02
 21
-2.10297653E+02
  0
LINE
  8
0
 62
7
 10
-3.60616743E+02
 20
-1.98297653E+02
 11
-3.60616743E+02
 21
-2.10297653E+02
  0
LINE
  8
0
 62
7
 10
-2.96616742E+02
 20
-2.12297653E+02
 11
-3.58616743E+02
 21
-2.12297653E+02
  0
LINE
  8
0
 62
7
 10
-3.59873886E+02
 20
-2.05297653E+02
 11
-3.50616743E+02
 21
-2.05297653E+02
  0
LINE
  8
0
 62
7
 10
-3.50616743E+02
 20
-2.05297653E+02
 11
-3.50616743E+02
 21
-2.10297653E+02
  0
LINE
  8
0
  6
CENTER
 62
2
 10
-3.55616743E+02
 20
-2.04297653E+02
 11
-3.55616743E+02
 21
-2.13297653E+02
  0
LINE
  8
0
 62
7
 10
-3.59873886E+02
 20
-1.38997652E+02
 11
-3.50616743E+02
 21
-1.38997652E+02
  0
LINE
  8
0
  6
CENTER
 62
2
 10
-3.55616743E+02
 20
-1.39997652E+02
 11
-3.55616743E+02
 21
-1.30997652E+02
  0
LINE
  8
0
 62
7
 10
-3.50616743E+02
 20
-1.38997652E+02
 11
-3.50616743E+02
 21
-1.33997652E+02
  0
LINE
  8
0
 62
7
 10
-3.04616742E+02
 20
-2.05297653E+02
 11
-3.04616742E+02
 21
-2.10297653E+02
  0
LINE
  8
0
 62
7
 10
-2.95373885E+02
 20
-2.05297653E+02
 11
-3.04616742E+02
 21
-2.05297653E+02
  0
LINE
  8
0
  6
CENTER
 62
2
 10
-2.99616742E+02
 20
-2.04297653E+02
 11
-2.99616742E+02
 21
-2.13297653E+02
  0
LINE
  8
0
 62
7
 10
-2.95373885E+02
 20
-1.38997652E+02
 11
-3.04616742E+02
 21
-1.38997652E+02
  0
LINE
  8
0
  6
CENTER
 62
2
 10
-2.99616742E+02
 20
-1.39997652E+02
 11
-2.99616742E+02
 21
-1.30997652E+02
  0
LINE
  8
0
 62
7
 10
-3.04616742E+02
 20
-1.38997652E+02
 11
-3.04616742E+02
 21
-1.33997652E+02
  0
LINE
  8
0
 62
7
 10
-3.60616743E+02
 20
-1.47997652E+02
 11
-2.87173884E+02
 21
-1.47997652E+02
  0
LINE
  8
0
 62
7
 10
-3.60616743E+02
 20
-1.97997653E+02
 11
-2.88816742E+02
 21
-1.97997653E+02
  0
LINE
  8
0
 62
7
 10
-3.59616743E+02
 20
-1.97997653E+02
 11
-3.59616743E+02
 21
-1.98297653E+02
  0
LINE
  8
0
 62
7
 10
-2.95616742E+02
 20
-1.97997653E+02
 11
-2.95616742E+02
 21
-1.98297653E+02
  0
LINE
  8
0
 62
7
 10
-3.60616743E+02
 20
-1.87997653E+02
 11
-3.60616743E+02
 21
-1.97997653E+02
  0
LINE
  8
0
 62
7
 10
-2.94616742E+02
 20
-1.87997653E+02
 11
-2.94616742E+02
 21
-1.97997653E+02
  0
LINE
  8
0
 62
7
 10
-3.51616743E+02
 20
-2.12297653E+02
 11
-3.51616743E+02
 21
-2.23940510E+02
  0
LINE
  8
0
 62
7
 10
-3.03616742E+02
 20
-2.12297653E+02
 11
-3.03616742E+02
 21
-2.23840510E+02
  0
LINE
  8
0
 62
7
 10
-3.03616742E+02
 20
-2.14297653E+02
 11
-3.51616743E+02
 21
-2.14297653E+02
  0
LINE
  8
0
 62
7
 10
-3.62116743E+02
 20
-1.48011938E+02
 11
-3.60616743E+02
 21
-1.49511938E+02
  0
LINE
  8
0
 62
7
 10
-3.62116743E+02
 20
-1.47997652E+02
 11
-3.62116743E+02
 21
-1.57997652E+02
  0
LINE
  8
0
 62
7
 10
-3.62116743E+02
 20
-1.87997653E+02
 11
-3.62116743E+02
 21
-1.97997653E+02
  0
LINE
  8
0
 62
7
 10
-3.66002457E+02
 20
-1.87997653E+02
 11
-3.42668735E+02
 21
-1.87997653E+02
  0
LINE
  8
0
 62
7
 10
-3.60616743E+02
 20
-1.98297653E+02
 11
-2.94616742E+02
 21
-1.98297653E+02
  0
ARC
  8
0
 62
7
 10
-3.58614703E+02
 20
-1.33999692E+02
 40
2.00204125E+00
 50
9.00583869E+01
 51
1.79941613E+02
  0
ARC
  8
0
 62
7
 10
-2.96627095E+02
 20
-1.34008005E+02
 40
2.01038016E+00
 50
2.95074788E-01
 51
8.97049252E+01
  0
ARC
  8
0
 62
7
 10
-2.96614746E+02
 20
-2.10299649E+02
 40
1.99800534E+00
 50
2.69942771E+02
 51
5.72294753E-02
  0
ARC
  8
0
 62
7
 10
-3.58627103E+02
 20
-2.10308014E+02
 40
1.98966642E+00
 50
1.79701648E+02
 51
2.70298352E+02
  0
ARC
  8
0
 62
7
 10
-3.58627108E+02
 20
-2.03308018E+02
 40
1.98966209E+00
 50
1.79701522E+02
 51
2.70298478E+02
  0
ARC
  8
0
 62
7
 10
-3.48627103E+02
 20
-2.10308014E+02
 40
1.98966642E+00
 50
1.79701648E+02
 51
2.70298352E+02
  0
ARC
  8
0
 62
7
 10
-3.58614707E+02
 20
-1.40999688E+02
 40
2.00203686E+00
 50
9.00582620E+01
 51
1.79941738E+02
  0
ARC
  8
0
 62
7
 10
-3.48614702E+02
 20
-1.33999692E+02
 40
2.00204125E+00
 50
9.00583869E+01
 51
1.79941613E+02
  0
ARC
  8
0
 62
7
 10
-3.06614746E+02
 20
-2.10299649E+02
 40
1.99800534E+00
 50
2.69942771E+02
 51
5.72294753E-02
  0
ARC
  8
0
 62
7
 10
-2.96614742E+02
 20
-2.03299653E+02
 40
1.99800101E+00
 50
2.69942646E+02
 51
5.73539725E-02
  0
ARC
  8
0
 62
7
 10
-2.96627091E+02
 20
-1.41008001E+02
 40
2.01037577E+00
 50
2.94951054E-01
 51
8.97050490E+01
  0
ARC
  8
0
 62
7
 10
-3.06627095E+02
 20
-1.34008005E+02
 40
2.01038016E+00
 50
2.95074788E-01
 51
8.97049252E+01
  0
ARC
  8
0
 62
7
 10
-3.61627054E+02
 20
-1.99007964E+02
 40
1.01036344E+00
 50
5.84716591E-01
 51
8.94152836E+01
  0
ARC
  8
0
 62
7
 10
-3.52616764E+02
 20
-1.72997644E+02
 40
5.49999928E+00
 50
4.22101828E+01
 51
3.17789750E+02
  0
CIRCLE
  8
0
 62
7
 10
-3.52616742E+02
 20
-1.72997652E+02
 40
2.89829731E+00
  0
ARC
  8
0
 62
7
 10
-3.52616742E+02
 20
-1.72997652E+02
 40
3.96076870E+00
 50
1.72553325E+01
 51
3.42744664E+02
  0
ARC
  8
0
 62
7
 10
-3.52616742E+02
 20
-1.72997652E+02
 40
5.00000000E+00
 50
3.74626511E+01
 51
3.22537349E+02
  0
LINE
  8
0
 62
7
 10
-3.55126742E+02
 20
-1.74437652E+02
 11
-3.52616742E+02
 21
-1.75887652E+02
  0
LINE
  8
0
 62
7
 10
-3.55126742E+02
 20
-1.71557652E+02
 11
-3.52616742E+02
 21
-1.70107652E+02
  0
ARC
  8
0
 62
7
 10
-3.02616742E+02
 20
-1.72997652E+02
 40
5.00000000E+00
 50
2.17462651E+02
 51
1.42537349E+02
  0
ARC
  8
0
 62
7
 10
-3.02616742E+02
 20
-1.72997652E+02
 40
3.96076870E+00
 50
1.97255336E+02
 51
1.62744668E+02
  0
ARC
  8
0
 62
7
 10
-3.02616764E+02
 20
-1.72997644E+02
 40
5.49999928E+00
 50
2.22210816E+02
 51
1.37789251E+02
  0
LINE
  8
0
 62
7
 10
-3.05126742E+02
 20
-1.71557652E+02
 11
-3.05126742E+02
 21
-1.74437652E+02
  0
LINE
  8
0
 62
7
 10
-3.00106742E+02
 20
-1.71557652E+02
 11
-3.00106742E+02
 21
-1.74437652E+02
  0
LINE
  8
0
 62
7
 10
-3.05126742E+02
 20
-1.71557652E+02
 11
-3.02616742E+02
 21
-1.70107652E+02
  0
LINE
  8
0
 62
7
 10
-3.02616742E+02
 20
-1.75887652E+02
 11
-3.00106742E+02
 21
-1.74437652E+02
  0
LINE
  8
0
 62
7
 10
-3.02616742E+02
 20
-1.70107652E+02
 11
-3.00106742E+02
 21
-1.71557652E+02
  0
LINE
  8
0
 62
7
 10
-3.05126742E+02
 20
-1.74437652E+02
 11
-3.02616742E+02
 21
-1.75887652E+02
  0
CIRCLE
  8
0
 62
7
 10
-3.02616742E+02
 20
-1.72997652E+02
 40
2.89829731E+00
  0
LINE
  8
0
 62
7
 10
-3.55126742E+02
 20
-1.71557652E+02
 11
-3.55126742E+02
 21
-1.74437652E+02
  0
LINE
  8
0
 62
7
 10
-3.52616742E+02
 20
-1.75887652E+02
 11
-3.50106742E+02
 21
-1.74437652E+02
  0
LINE
  8
0
 62
7
 10
-3.52616742E+02
 20
-1.70107652E+02
 11
-3.50106742E+02
 21
-1.71557652E+02
  0
LINE
  8
0
  6
CENTER
 62
2
 10
-3.52616742E+02
 20
-1.65497652E+02
 11
-3.52616742E+02
 21
-1.80497653E+02
  0
LINE
  8
0
  6
CENTER
 62
2
 10
-3.02616742E+02
 20
-1.65497652E+02
 11
-3.02616742E+02
 21
-1.80497653E+02
  0
LINE
  8
0
 62
7
 10
-3.12564749E+02
 20
-1.57997652E+02
 11
-2.89859599E+02
 21
-1.57997652E+02
  0
LINE
  8
0
 62
7
 10
-3.12564749E+02
 20
-1.87997653E+02
 11
-2.85873884E+02
 21
-1.87997653E+02
  0
LINE
  8
0
 62
7
 10
-2.21316740E+02
 20
-1.33997652E+02
 11
-2.21316740E+02
 21
-1.57254795E+02
  0
LINE
  8
0
 62
7
 10
-2.21316740E+02
 20
-1.88754796E+02
 11
-2.21316740E+02
 21
-2.10297653E+02
  0
LINE
  8
0
 62
7
 10
-2.13331026E+02
 20
-1.52997652E+02
 11
-2.13331026E+02
 21
-1.57997652E+02
  0
LINE
  8
0
 62
7
 10
-2.01588169E+02
 20
-1.92997653E+02
 11
-1.88331025E+02
 21
-1.92997653E+02
  0
LINE
  8
0
 62
7
 10
-2.20816740E+02
 20
-1.57754795E+02
 11
-2.13331026E+02
 21
-1.57754795E+02
  0
LINE
  8
0
 62
7
 10
-2.20816740E+02
 20
-1.88254796E+02
 11
-2.13331026E+02
 21
-1.88254796E+02
  0
LINE
  8
0
 62
7
 10
-1.90131026E+02
 20
-1.77397653E+02
 11
-1.90131026E+02
 21
-1.79769081E+02
  0
LINE
  8
0
 62
7
 10
-2.13331026E+02
 20
-1.87997653E+02
 11
-2.13331026E+02
 21
-1.92997653E+02
  0
LINE
  8
0
 62
7
 10
-2.03588169E+02
 20
-1.97497653E+02
 11
-2.03588169E+02
 21
-1.94997653E+02
  0
LINE
  8
0
 62
7
 10
-1.88331025E+02
 20
-1.31997652E+02
 11
-2.19316740E+02
 21
-1.31997652E+02
  0
LINE
  8
0
 62
7
 10
-2.19316740E+02
 20
-2.12297653E+02
 11
-1.88331025E+02
 21
-2.12297653E+02
  0
LINE
  8
0
 62
7
 10
-2.21316740E+02
 20
-1.98297653E+02
 11
-1.88331025E+02
 21
-1.98297653E+02
  0
LINE
  8
0
 62
7
 10
-2.01588169E+02
 20
-1.52997652E+02
 11
-1.88331025E+02
 21
-1.52997652E+02
  0
LINE
  8
0
 62
7
 10
-2.03588169E+02
 20
-1.50997652E+02
 11
-2.03588169E+02
 21
-1.48497652E+02
  0
LINE
  8
0
 62
7
 10
-2.21316740E+02
 20
-1.47997652E+02
 11
-1.88331025E+02
 21
-1.47997652E+02
  0
LINE
  8
0
  6
CENTER
 62
2
 10
-2.16316740E+02
 20
-2.04297653E+02
 11
-2.16316740E+02
 21
-2.13297653E+02
  0
LINE
  8
0
 62
7
 10
-2.20573883E+02
 20
-2.05297653E+02
 11
-2.11331026E+02
 21
-2.05297653E+02
  0
LINE
  8
0
 62
7
 10
-2.11331026E+02
 20
-2.05297653E+02
 11
-2.11331026E+02
 21
-2.10297653E+02
  0
LINE
  8
0
 62
7
 10
-2.20573883E+02
 20
-1.38997652E+02
 11
-2.11331026E+02
 21
-1.38997652E+02
  0
LINE
  8
0
  6
CENTER
 62
2
 10
-2.16316740E+02
 20
-1.39997652E+02
 11
-2.16316740E+02
 21
-1.30997652E+02
  0
LINE
  8
0
 62
7
 10
-2.11331026E+02
 20
-1.38997652E+02
 11
-2.11331026E+02
 21
-1.33997652E+02
  0
LINE
  8
0
 62
7
 10
-2.10716740E+02
 20
-2.28297653E+02
 11
-2.10502454E+02
 21
-2.32983368E+02
  0
LINE
  8
0
 62
7
 10
-2.13245312E+02
 20
-2.12297653E+02
 11
-2.13245312E+02
 21
-2.14297653E+02
  0
LINE
  8
0
 62
2
 10
-2.13245312E+02
 20
-2.14297653E+02
 11
-2.13245312E+02
 21
-2.27383368E+02
  0
LINE
  8
0
 62
7
 10
-2.14331026E+02
 20
-2.14297653E+02
 11
-2.14331026E+02
 21
-2.26297653E+02
  0
LINE
  8
0
 62
7
 10
-2.14331026E+02
 20
-2.26297653E+02
 11
-2.12331026E+02
 21
-2.28297653E+02
  0
LINE
  8
0
 62
7
 10
-2.14331026E+02
 20
-2.26297653E+02
 11
-1.88331025E+02
 21
-2.26297653E+02
  0
LINE
  8
0
 62
7
 10
-2.12331026E+02
 20
-2.28297653E+02
 11
-1.88331025E+02
 21
-2.28297653E+02
  0
LINE
  8
0
 62
7
 10
-2.02331026E+02
 20
-2.28297653E+02
 11
-2.02173883E+02
 21
-2.35540511E+02
  0
LINE
  8
0
 62
7
 10
-1.95331026E+02
 20
-2.28297653E+02
 11
-1.95331026E+02
 21
-2.35554796E+02
  0
LINE
  8
0
 62
7
 10
-1.88331025E+02
 20
-2.14297653E+02
 11
-2.14331026E+02
 21
-2.14297653E+02
  0
LINE
  8
0
 62
7
 10
-2.21316740E+02
 20
-1.97997653E+02
 11
-1.88331025E+02
 21
-1.97997653E+02
  0
LINE
  8
0
 62
7
 10
-2.31731026E+02
 20
-1.52497652E+02
 11
-2.21316740E+02
 21
-1.52497652E+02
  0
LINE
  8
0
 62
7
 10
-2.31731026E+02
 20
-1.52497652E+02
 11
-2.30116740E+02
 21
-1.50997652E+02
  0
LINE
  8
0
 62
7
 10
-2.30116740E+02
 20
-1.50997652E+02
 11
-2.21316740E+02
 21
-1.50997652E+02
  0
LINE
  8
0
 62
7
 10
-2.41316741E+02
 20
-1.97997653E+02
 11
-2.21316740E+02
 21
-1.97997653E+02
  0
LINE
  8
0
 62
7
 10
-2.43316741E+02
 20
-1.99997653E+02
 11
-2.43316741E+02
 21
-2.22997653E+02
  0
LINE
  8
0
 62
7
 10
-2.39245312E+02
 20
-2.24940510E+02
 11
-2.38888169E+02
 21
-2.35397654E+02
  0
LINE
  8
0
 62
7
 10
-2.13245312E+02
 20
-2.22997653E+02
 11
-2.43316741E+02
 21
-2.22997653E+02
  0
LINE
  8
0
 62
7
 10
-2.43316741E+02
 20
-2.12997653E+02
 11
-2.13245312E+02
 21
-2.12997653E+02
  0
LINE
  8
0
 62
7
 10
-2.41316741E+02
 20
-2.06597653E+02
 11
-2.26316740E+02
 21
-2.06597653E+02
  0
LINE
  8
0
 62
7
 10
-2.25816740E+02
 20
-1.99997653E+02
 11
-2.25816740E+02
 21
-2.06097653E+02
  0
LINE
  8
0
 62
7
 10
-2.39816741E+02
 20
-1.99097653E+02
 11
-2.39816741E+02
 21
-2.06597653E+02
  0
LINE
  8
0
 62
7
 10
-2.26816740E+02
 20
-1.99097653E+02
 11
-2.39816741E+02
 21
-1.99097653E+02
  0
LINE
  8
0
 62
7
 10
-2.27688169E+02
 20
-1.98597653E+02
 11
-2.38945312E+02
 21
-1.98597653E+02
  0
LINE
  8
0
 62
7
 10
-2.26816740E+02
 20
-1.99097653E+02
 11
-2.27688169E+02
 21
-1.98597653E+02
  0
LINE
  8
0
 62
7
 10
-2.26816740E+02
 20
-1.99097653E+02
 11
-2.26816740E+02
 21
-2.06597653E+02
  0
LINE
  8
0
  6
CENTER
 62
2
 10
-2.33316741E+02
 20
-1.93497653E+02
 11
-2.33316741E+02
 21
-2.10597653E+02
  0
LINE
  8
0
 62
7
 10
-2.33251227E+02
 20
-1.96069081E+02
 11
-2.32694084E+02
 21
-1.79997653E+02
  0
LINE
  8
0
 62
7
 10
-2.32208370E+02
 20
-1.65997652E+02
 11
-2.31736941E+02
 21
-1.52497652E+02
  0
ARC
  8
0
 62
7
 10
-1.88331025E+02
 20
-1.73004795E+02
 40
1.20642874E+01
 50
9.00000002E+01
 51
2.70000000E+02
  0
ARC
  8
0
 62
2
 10
-1.88331025E+02
 20
-1.73004795E+02
 40
1.32214301E+01
 50
9.00000002E+01
 51
2.70000000E+02
  0
ARC
  8
0
 62
7
 10
-2.19314744E+02
 20
-1.33999648E+02
 40
2.00199761E+00
 50
9.00571407E+01
 51
1.79942859E+02
  0
ARC
  8
0
 62
7
 10
-2.19327101E+02
 20
-2.10308014E+02
 40
1.98966638E+00
 50
1.79701647E+02
 51
2.70298353E+02
  0
ARC
  8
0
 62
7
 10
-2.08321901E+02
 20
-1.53006777E+02
 40
5.00913288E+00
 50
9.01043685E+01
 51
1.79895632E+02
  0
ARC
  8
0
 62
7
 10
-2.08334227E+02
 20
-1.93000854E+02
 40
4.99679984E+00
 50
1.79963293E+02
 51
2.70036708E+02
  0
ARC
  8
0
 62
7
 10
-2.04075474E+02
 20
-1.97510348E+02
 40
4.87470588E-01
 50
2.68507730E+02
 51
1.49226992E+00
  0
ARC
  8
0
 62
7
 10
-2.01575495E+02
 20
-1.95010326E+02
 40
2.01271304E+00
 50
9.03607671E+01
 51
1.79639233E+02
  0
ARC
  8
0
 62
7
 10
-2.20823523E+02
 20
-1.57261578E+02
 40
4.93263831E-01
 50
1.79212107E+02
 51
2.70787893E+02
  0
ARC
  8
0
 62
7
 10
-2.20818289E+02
 20
-1.88753246E+02
 40
4.98453292E-01
 50
8.98219323E+01
 51
1.80178068E+02
  0
ARC
  8
0
 62
7
 10
-2.04087968E+02
 20
-1.48497451E+02
 40
4.99799354E-01
 50
3.59976993E+02
 51
9.00000002E+01
  0
ARC
  8
0
 62
7
 10
-2.01587788E+02
 20
-1.50997272E+02
 40
2.00038026E+00
 50
1.80010889E+02
 51
2.70000000E+02
  0
ARC
  8
0
 62
7
 10
-1.88331025E+02
 20
-1.72997652E+02
 40
7.00000261E+00
 50
9.00000002E+01
 51
2.70000000E+02
  0
ARC
  8
0
 62
7
 10
-1.88325122E+02
 20
-1.77397653E+02
 40
1.10001586E+00
 50
9.03074849E+01
 51
2.69692515E+02
  0
ARC
  8
0
 62
7
 10
-1.88331025E+02
 20
-1.77397653E+02
 40
1.80000971E+00
 50
9.00000002E+01
 51
2.70000000E+02
  0
ARC
  8
0
 62
7
 10
-2.19327105E+02
 20
-2.03308018E+02
 40
1.98966205E+00
 50
1.79701521E+02
 51
2.70298479E+02
  0
ARC
  8
0
 62
7
 10
-2.09334224E+02
 20
-2.10300851E+02
 40
1.99680458E+00
 50
1.79908237E+02
 51
2.70091763E+02
  0
ARC
  8
0
 62
7
 10
-2.19314748E+02
 20
-1.40999644E+02
 40
2.00199322E+00
 50
9.00570152E+01
 51
1.79942985E+02
  0
ARC
  8
0
 62
7
 10
-2.09321911E+02
 20
-1.34006767E+02
 40
2.00913586E+00
 50
9.02599431E+01
 51
1.79740057E+02
  0
ARC
  8
0
 62
7
 10
-2.41314761E+02
 20
-2.08599633E+02
 40
2.00198112E+00
 50
9.00566697E+01
 51
1.79943330E+02
  0
ARC
  8
0
 62
7
 10
-2.41256462E+02
 20
-2.25009972E+02
 40
2.01234944E+00
 50
1.97810281E+00
 51
8.96825283E+01
  0
ARC
  8
0
 62
7
 10
-2.23814731E+02
 20
-1.99999662E+02
 40
2.00201049E+00
 50
9.00575085E+01
 51
1.79942491E+02
  0
ARC
  8
0
 62
7
 10
-2.26314851E+02
 20
-2.06099543E+02
 40
4.98113902E-01
 50
2.69782637E+02
 51
2.17363103E-01
  0
LINE
  8
0
 62
7
 10
-2.39816741E+02
 20
-1.99097653E+02
 11
-2.38945312E+02
 21
-1.98597653E+02
  0
ARC
  8
0
 62
7
 10
-2.41316741E+02
 20
-1.99997653E+02
 40
2.00000003E+00
 50
9.00000002E+01
 51
1.80000000E+02
  0
ARC
  8
0
 62
7
 10
-2.35244036E+02
 20
-1.95997653E+02
 40
2.00000003E+00
 50
2.70000000E+02
 51
0.00000000E+00
  0
LINE
  8
0
 62
7
 10
-2.12075133E+02
 20
-2.10009977E+02
 11
-2.12075132E+02
 21
-2.05309977E+02
  0
LINE
  8
0
 62
7
 10
-2.12075133E+02
 20
-2.10009977E+02
 11
-2.12595133E+02
 21
-2.10309977E+02
  0
LINE
  8
0
 62
7
 10
-2.20575133E+02
 20
-2.10009975E+02
 11
-2.12075133E+02
 21
-2.10009977E+02
  0
LINE
  8
0
 62
7
 10
-2.20055133E+02
 20
-2.10309975E+02
 11
-2.12595133E+02
 21
-2.10309977E+02
  0
LINE
  8
0
 62
7
 10
-2.20575133E+02
 20
-2.10009975E+02
 11
-2.20055133E+02
 21
-2.10309975E+02
  0
LINE
  8
0
 62
7
 10
-2.20575133E+02
 20
-2.10009975E+02
 11
-2.20575132E+02
 21
-2.05309975E+02
  0
LINE
  8
0
 62
7
 10
-2.20575133E+02
 20
-1.34309993E+02
 11
-2.20575132E+02
 21
-1.39009993E+02
  0
LINE
  8
0
 62
7
 10
-2.20575133E+02
 20
-1.34309993E+02
 11
-2.20055133E+02
 21
-1.34009993E+02
  0
LINE
  8
0
 62
7
 10
-2.12075133E+02
 20
-1.34309990E+02
 11
-2.20575133E+02
 21
-1.34309993E+02
  0
LINE
  8
0
 62
7
 10
-2.12595133E+02
 20
-1.34009990E+02
 11
-2.20055133E+02
 21
-1.34009993E+02
  0
LINE
  8
0
 62
7
 10
-2.12075133E+02
 20
-1.34309990E+02
 11
-2.12595133E+02
 21
-1.34009990E+02
  0
LINE
  8
0
 62
7
 10
-2.12075133E+02
 20
-1.34309990E+02
 11
-2.12075132E+02
 21
-1.39009990E+02
  0
LINE
  8
0
 62
7
 10
-3.51375136E+02
 20
-2.10010021E+02
 11
-3.51375134E+02
 21
-2.05310021E+02
  0
LINE
  8
0
 62
7
 10
-3.51375136E+02
 20
-2.10010021E+02
 11
-3.51895136E+02
 21
-2.10310021E+02
  0
LINE
  8
0
 62
7
 10
-3.59875136E+02
 20
-2.10010018E+02
 11
-3.51375136E+02
 21
-2.10010021E+02
  0
LINE
  8
0
 62
7
 10
-3.59355136E+02
 20
-2.10310018E+02
 11
-3.51895136E+02
 21
-2.10310021E+02
  0
LINE
  8
0
 62
7
 10
-3.59875136E+02
 20
-2.10010018E+02
 11
-3.59355136E+02
 21
-2.10310018E+02
  0
LINE
  8
0
 62
7
 10
-3.59875136E+02
 20
-2.10010018E+02
 11
-3.59875134E+02
 21
-2.05310018E+02
  0
LINE
  8
0
 62
7
 10
-2.95375030E+02
 20
-2.10010021E+02
 11
-2.95375029E+02
 21
-2.05310021E+02
  0
LINE
  8
0
 62
7
 10
-2.95375030E+02
 20
-2.10010021E+02
 11
-2.95895030E+02
 21
-2.10310021E+02
  0
LINE
  8
0
 62
7
 10
-3.03875030E+02
 20
-2.10010018E+02
 11
-2.95375030E+02
 21
-2.10010021E+02
  0
LINE
  8
0
 62
7
 10
-3.03355030E+02
 20
-2.10310018E+02
 11
-2.95895030E+02
 21
-2.10310021E+02
  0
LINE
  8
0
 62
7
 10
-3.03875030E+02
 20
-2.10010018E+02
 11
-3.03355030E+02
 21
-2.10310018E+02
  0
LINE
  8
0
 62
7
 10
-3.03875030E+02
 20
-2.10010018E+02
 11
-3.03875029E+02
 21
-2.05310018E+02
  0
LINE
  8
0
 62
7
 10
-3.03875030E+02
 20
-1.34310036E+02
 11
-3.03875029E+02
 21
-1.39010036E+02
  0
LINE
  8
0
 62
7
 10
-3.03875030E+02
 20
-1.34310036E+02
 11
-3.03355030E+02
 21
-1.34010036E+02
  0
LINE
  8
0
 62
7
 10
-2.95375030E+02
 20
-1.34310034E+02
 11
-3.03875030E+02
 21
-1.34310036E+02
  0
LINE
  8
0
 62
7
 10
-2.95895030E+02
 20
-1.34010034E+02
 11
-3.03355030E+02
 21
-1.34010036E+02
  0
LINE
  8
0
 62
7
 10
-2.95375030E+02
 20
-1.34310034E+02
 11
-2.95895030E+02
 21
-1.34010034E+02
  0
LINE
  8
0
 62
7
 10
-2.95375030E+02
 20
-1.34310034E+02
 11
-2.95375029E+02
 21
-1.39010034E+02
  0
LINE
  8
0
 62
7
 10
-3.59875136E+02
 20
-1.34310036E+02
 11
-3.59875134E+02
 21
-1.39010036E+02
  0
LINE
  8
0
 62
7
 10
-3.59875136E+02
 20
-1.34310036E+02
 11
-3.59355136E+02
 21
-1.34010036E+02
  0
LINE
  8
0
 62
7
 10
-3.51375136E+02
 20
-1.34310034E+02
 11
-3.59875136E+02
 21
-1.34310036E+02
  0
LINE
  8
0
 62
7
 10
-3.51895136E+02
 20
-1.34010034E+02
 11
-3.59355136E+02
 21
-1.34010036E+02
  0
LINE
  8
0
 62
7
 10
-3.51375136E+02
 20
-1.34310034E+02
 11
-3.51895136E+02
 21
-1.34010034E+02
  0
LINE
  8
0
 62
7
 10
-3.51375136E+02
 20
-1.34310034E+02
 11
-3.51375134E+02
 21
-1.39010034E+02
  0
LINE
  8
0
 62
7
 10
-3.70045314E+02
 20
-1.57997652E+02
 11
-3.42668735E+02
 21
-1.57997652E+02
  0
LINE
  8
0
 62
7
 10
-3.68959600E+02
 20
-1.97997653E+02
 11
-3.61616743E+02
 21
-1.97997653E+02
  0
LINE
  8
0
 62
7
 10
-3.60616743E+02
 20
-1.49497652E+02
 11
-3.67902457E+02
 21
-1.49497652E+02
  0
LINE
  8
0
 62
7
 10
-3.67316743E+02
 20
-1.47997652E+02
 11
-3.62116743E+02
 21
-1.47997652E+02
  0
POLYLINE
  8
0
 62
2
 66
1
  0
VERTEX
  8
0
 62
2
 10
-8.73501853E+01
 20
-2.24939245E+02
  0
VERTEX
  8
0
 62
2
 10
-8.61229248E+01
 20
-2.24405249E+02
  0
VERTEX
  8
0
 62
2
 10
-8.48813353E+01
 20
-2.23903567E+02
  0
VERTEX
  8
0
 62
2
 10
-8.36270690E+01
 20
-2.23438044E+02
  0
VERTEX
  8
0
 62
2
 10
-8.23617777E+01
 20
-2.23012521E+02
  0
VERTEX
  8
0
 62
2
 10
-8.10871137E+01
 20
-2.22630842E+02
  0
VERTEX
  8
0
 62
2
 10
-7.98047290E+01
 20
-2.22296849E+02
  0
VERTEX
  8
0
 62
2
 10
-7.85162757E+01
 20
-2.22014386E+02
  0
VERTEX
  8
0
 62
2
 10
-7.72234058E+01
 20
-2.21787294E+02
  0
VERTEX
  8
0
 62
2
 10
-7.59277714E+01
 20
-2.21619418E+02
  0
VERTEX
  8
0
 62
2
 10
-7.46310247E+01
 20
-2.21514598E+02
  0
VERTEX
  8
0
 62
2
 10
-7.23306764E+01
 20
-2.21486211E+02
  0
VERTEX
  8
0
 62
2
 10
-7.00311934E+01
 20
-2.21633734E+02
  0
VERTEX
  8
0
 62
2
 10
-6.77316851E+01
 20
-2.21922851E+02
  0
VERTEX
  8
0
 62
2
 10
-6.54312606E+01
 20
-2.22319249E+02
  0
VERTEX
  8
0
 62
2
 10
-6.31290294E+01
 20
-2.22788612E+02
  0
VERTEX
  8
0
 62
2
 10
-6.08241006E+01
 20
-2.23296625E+02
  0
VERTEX
  8
0
 62
2
 10
-5.85155836E+01
 20
-2.23808974E+02
  0
VERTEX
  8
0
 62
2
 10
-5.62025876E+01
 20
-2.24291343E+02
  0
VERTEX
  8
0
 62
2
 10
-5.38842218E+01
 20
-2.24709418E+02
  0
VERTEX
  8
0
 62
2
 10
-5.15595957E+01
 20
-2.25028884E+02
  0
VERTEX
  8
0
 62
2
 10
-5.03415104E+01
 20
-2.25146169E+02
  0
VERTEX
  8
0
 62
2
 10
-4.91219321E+01
 20
-2.25228523E+02
  0
VERTEX
  8
0
 62
2
 10
-4.79011815E+01
 20
-2.25277520E+02
  0
VERTEX
  8
0
 62
2
 10
-4.66795791E+01
 20
-2.25294732E+02
  0
VERTEX
  8
0
 62
2
 10
-4.54574457E+01
 20
-2.25281733E+02
  0
VERTEX
  8
0
 62
2
 10
-4.42351019E+01
 20
-2.25240094E+02
  0
VERTEX
  8
0
 62
2
 10
-4.30128682E+01
 20
-2.25171390E+02
  0
VERTEX
  8
0
 62
2
 10
-4.17910655E+01
 20
-2.25077193E+02
  0
VERTEX
  8
0
 62
2
 10
-4.05700142E+01
 20
-2.24959076E+02
  0
VERTEX
  8
0
 62
2
 10
-3.93500351E+01
 20
-2.24818611E+02
  0
SEQEND
  8
0
  0
POLYLINE
  8
0
 62
2
 66
1
  0
VERTEX
  8
0
 62
2
 10
-1.03032519E+02
 20
-1.48997523E+02
  0
VERTEX
  8
0
 62
2
 10
-1.03546971E+02
 20
-1.50331784E+02
  0
VERTEX
  8
0
 62
2
 10
-1.04025777E+02
 20
-1.51681764E+02
  0
VERTEX
  8
0
 62
2
 10
-1.04462992E+02
 20
-1.53045045E+02
  0
VERTEX
  8
0
 62
2
 10
-1.04852671E+02
 20
-1.54419210E+02
  0
VERTEX
  8
0
 62
2
 10
-1.05188869E+02
 20
-1.55801843E+02
  0
VERTEX
  8
0
 62
2
 10
-1.05465643E+02
 20
-1.57190529E+02
  0
VERTEX
  8
0
 62
2
 10
-1.05677047E+02
 20
-1.58582849E+02
  0
VERTEX
  8
0
 62
2
 10
-1.05817137E+02
 20
-1.59976387E+02
  0
VERTEX
  8
0
 62
2
 10
-1.05879968E+02
 20
-1.61368728E+02
  0
VERTEX
  8
0
 62
2
 10
-1.05859597E+02
 20
-1.62757454E+02
  0
VERTEX
  8
0
 62
2
 10
-1.05672058E+02
 20
-1.64816437E+02
  0
VERTEX
  8
0
 62
2
 10
-1.05325707E+02
 20
-1.66864560E+02
  0
VERTEX
  8
0
 62
2
 10
-1.04859059E+02
 20
-1.68904550E+02
  0
VERTEX
  8
0
 62
2
 10
-1.04310631E+02
 20
-1.70939137E+02
  0
VERTEX
  8
0
 62
2
 10
-1.03718940E+02
 20
-1.72971051E+02
  0
VERTEX
  8
0
 62
2
 10
-1.03122501E+02
 20
-1.75003020E+02
  0
VERTEX
  8
0
 62
2
 10
-1.02559831E+02
 20
-1.77037773E+02
  0
VERTEX
  8
0
 62
2
 10
-1.02069446E+02
 20
-1.79078039E+02
  0
VERTEX
  8
0
 62
2
 10
-1.01689862E+02
 20
-1.81126547E+02
  0
VERTEX
  8
0
 62
2
 10
-1.01459597E+02
 20
-1.83186026E+02
  0
VERTEX
  8
0
 62
2
 10
-1.01404015E+02
 20
-1.84781722E+02
  0
VERTEX
  8
0
 62
2
 10
-1.01452335E+02
 20
-1.86382547E+02
  0
VERTEX
  8
0
 62
2
 10
-1.01597074E+02
 20
-1.87985366E+02
  0
VERTEX
  8
0
 62
2
 10
-1.01830751E+02
 20
-1.89587045E+02
  0
VERTEX
  8
0
 62
2
 10
-1.02145884E+02
 20
-1.91184452E+02
  0
VERTEX
  8
0
 62
2
 10
-1.02534992E+02
 20
-1.92774452E+02
  0
VERTEX
  8
0
 62
2
 10
-1.02990592E+02
 20
-1.94353912E+02
  0
VERTEX
  8
0
 62
2
 10
-1.03505204E+02
 20
-1.95919698E+02
  0
VERTEX
  8
0
 62
2
 10
-1.04071346E+02
 20
-1.97468677E+02
  0
VERTEX
  8
0
 62
2
 10
-1.04681535E+02
 20
-1.98997715E+02
  0
SEQEND
  8
0
  0
POLYLINE
  8
0
 62
2
 66
1
  0
VERTEX
  8
0
 62
2
 10
-2.29025256E+01
 20
-1.48997550E+02
  0
VERTEX
  8
0
 62
2
 10
-2.34157391E+01
 20
-1.50331835E+02
  0
VERTEX
  8
0
 62
2
 10
-2.38930567E+01
 20
-1.51681838E+02
  0
VERTEX
  8
0
 62
2
 10
-2.43286233E+01
 20
-1.53045143E+02
  0
VERTEX
  8
0
 62
2
 10
-2.47165839E+01
 20
-1.54419328E+02
  0
VERTEX
  8
0
 62
2
 10
-2.50510834E+01
 20
-1.55801974E+02
  0
VERTEX
  8
0
 62
2
 10
-2.53262669E+01
 20
-1.57190663E+02
  0
VERTEX
  8
0
 62
2
 10
-2.55362791E+01
 20
-1.58582975E+02
  0
VERTEX
  8
0
 62
2
 10
-2.56752651E+01
 20
-1.59976491E+02
  0
VERTEX
  8
0
 62
2
 10
-2.57373698E+01
 20
-1.61368790E+02
  0
VERTEX
  8
0
 62
2
 10
-2.57167381E+01
 20
-1.62757454E+02
  0
VERTEX
  8
0
 62
2
 10
-2.55295999E+01
 20
-1.64816432E+02
  0
VERTEX
  8
0
 62
2
 10
-2.51843352E+01
 20
-1.66864541E+02
  0
VERTEX
  8
0
 62
2
 10
-2.47192887E+01
 20
-1.68904513E+02
  0
VERTEX
  8
0
 62
2
 10
-2.41728052E+01
 20
-1.70939082E+02
  0
VERTEX
  8
0
 62
2
 10
-2.35832291E+01
 20
-1.72970978E+02
  0
VERTEX
  8
0
 62
2
 10
-2.29889051E+01
 20
-1.75002936E+02
  0
VERTEX
  8
0
 62
2
 10
-2.24281780E+01
 20
-1.77037687E+02
  0
VERTEX
  8
0
 62
2
 10
-2.19393923E+01
 20
-1.79077964E+02
  0
VERTEX
  8
0
 62
2
 10
-2.15608927E+01
 20
-1.81126500E+02
  0
VERTEX
  8
0
 62
2
 10
-2.13310237E+01
 20
-1.83186026E+02
  0
VERTEX
  8
0
 62
2
 10
-2.12751818E+01
 20
-1.84781722E+02
  0
VERTEX
  8
0
 62
2
 10
-2.13227781E+01
 20
-1.86382546E+02
  0
VERTEX
  8
0
 62
2
 10
-2.14664195E+01
 20
-1.87985364E+02
  0
VERTEX
  8
0
 62
2
 10
-2.16987127E+01
 20
-1.89587044E+02
  0
VERTEX
  8
0
 62
2
 10
-2.20122644E+01
 20
-1.91184450E+02
  0
VERTEX
  8
0
 62
2
 10
-2.23996814E+01
 20
-1.92774451E+02
  0
VERTEX
  8
0
 62
2
 10
-2.28535705E+01
 20
-1.94353911E+02
  0
VERTEX
  8
0
 62
2
 10
-2.33665383E+01
 20
-1.95919697E+02
  0
VERTEX
  8
0
 62
2
 10
-2.39311916E+01
 20
-1.97468676E+02
  0
VERTEX
  8
0
 62
2
 10
-2.45401372E+01
 20
-1.98997714E+02
  0
SEQEND
  8
0
  0
POLYLINE
  8
0
 62
2
 66
1
  0
VERTEX
  8
0
 62
2
 10
3.03693621E+01
 20
-2.36381878E+02
  0
VERTEX
  8
0
 62
2
 10
3.06940492E+01
 20
-2.36400152E+02
  0
VERTEX
  8
0
 62
2
 10
3.10187160E+01
 20
-2.36414163E+02
  0
VERTEX
  8
0
 62
2
 10
3.13433335E+01
 20
-2.36423785E+02
  0
VERTEX
  8
0
 62
2
 10
3.16678725E+01
 20
-2.36428888E+02
  0
VERTEX
  8
0
 62
2
 10
3.19923040E+01
 20
-2.36429345E+02
  0
VERTEX
  8
0
 62
2
 10
3.23165991E+01
 20
-2.36425028E+02
  0
VERTEX
  8
0
 62
2
 10
3.26407288E+01
 20
-2.36415809E+02
  0
VERTEX
  8
0
 62
2
 10
3.29646639E+01
 20
-2.36401559E+02
  0
VERTEX
  8
0
 62
2
 10
3.32883755E+01
 20
-2.36382151E+02
  0
VERTEX
  8
0
 62
2
 10
3.36118346E+01
 20
-2.36357456E+02
  0
VERTEX
  8
0
 62
2
 10
3.54472875E+01
 20
-2.36121079E+02
  0
VERTEX
  8
0
 62
2
 10
3.72748008E+01
 20
-2.35749385E+02
  0
VERTEX
  8
0
 62
2
 10
3.90951116E+01
 20
-2.35281150E+02
  0
VERTEX
  8
0
 62
2
 10
4.09089573E+01
 20
-2.34755148E+02
  0
VERTEX
  8
0
 62
2
 10
4.27170751E+01
 20
-2.34210156E+02
  0
VERTEX
  8
0
 62
2
 10
4.45202022E+01
 20
-2.33684947E+02
  0
VERTEX
  8
0
 62
2
 10
4.63190759E+01
 20
-2.33218298E+02
  0
VERTEX
  8
0
 62
2
 10
4.81144335E+01
 20
-2.32848983E+02
  0
VERTEX
  8
0
 62
2
 10
4.99070121E+01
 20
-2.32615777E+02
  0
VERTEX
  8
0
 62
2
 10
5.16975492E+01
 20
-2.32557456E+02
  0
VERTEX
  8
0
 62
2
 10
5.35182550E+01
 20
-2.32703639E+02
  0
VERTEX
  8
0
 62
2
 10
5.53385586E+01
 20
-2.33027745E+02
  0
VERTEX
  8
0
 62
2
 10
5.71595046E+01
 20
-2.33486467E+02
  0
VERTEX
  8
0
 62
2
 10
5.89821371E+01
 20
-2.34036496E+02
  0
VERTEX
  8
0
 62
2
 10
6.08075007E+01
 20
-2.34634524E+02
  0
VERTEX
  8
0
 62
2
 10
6.26366395E+01
 20
-2.35237244E+02
  0
VERTEX
  8
0
 62
2
 10
6.44705980E+01
 20
-2.35801348E+02
  0
VERTEX
  8
0
 62
2
 10
6.63104206E+01
 20
-2.36283528E+02
  0
VERTEX
  8
0
 62
2
 10
6.81571515E+01
 20
-2.36640476E+02
  0
VERTEX
  8
0
 62
2
 10
7.00118352E+01
 20
-2.36828884E+02
  0
VERTEX
  8
0
 62
2
 10
7.11183578E+01
 20
-2.36845434E+02
  0
VERTEX
  8
0
 62
2
 10
7.22261978E+01
 20
-2.36791491E+02
  0
VERTEX
  8
0
 62
2
 10
7.33336846E+01
 20
-2.36671672E+02
  0
VERTEX
  8
0
 62
2
 10
7.44391477E+01
 20
-2.36490592E+02
  0
VERTEX
  8
0
 62
2
 10
7.55409165E+01
 20
-2.36252869E+02
  0
VERTEX
  8
0
 62
2
 10
7.66373203E+01
 20
-2.35963117E+02
  0
VERTEX
  8
0
 62
2
 10
7.77266886E+01
 20
-2.35625954E+02
  0
VERTEX
  8
0
 62
2
 10
7.88073508E+01
 20
-2.35245994E+02
  0
VERTEX
  8
0
 62
2
 10
7.98776363E+01
 20
-2.34827855E+02
  0
VERTEX
  8
0
 62
2
 10
8.09358744E+01
 20
-2.34376152E+02
  0
SEQEND
  8
0
  0
LINE
  8
0
 62
7
 10
-9.63453107E+01
 20
-1.99286026E+02
 11
-8.75310249E+01
 21
-1.99286026E+02
  0
LINE
  8
0
 62
7
 10
-3.23453096E+01
 20
-1.32986025E+02
 11
-9.43453107E+01
 21
-1.32986025E+02
  0
LINE
  8
0
 62
7
 10
-9.63453107E+01
 20
-1.34986025E+02
 11
-9.63453107E+01
 21
-1.58986026E+02
  0
LINE
  8
0
 62
7
 10
-3.03453096E+01
 20
-1.34986025E+02
 11
-3.03453096E+01
 21
-1.58986026E+02
  0
LINE
  8
0
 62
7
 10
-3.03453096E+01
 20
-1.99286026E+02
 11
-3.03453096E+01
 21
-2.11286027E+02
  0
LINE
  8
0
 62
7
 10
-9.63453107E+01
 20
-1.99286026E+02
 11
-9.63453107E+01
 21
-2.11286027E+02
  0
LINE
  8
0
 62
7
 10
-3.23453096E+01
 20
-2.13286027E+02
 11
-9.43453107E+01
 21
-2.13286027E+02
  0
LINE
  8
0
 62
7
 10
-9.56024536E+01
 20
-2.06286027E+02
 11
-8.63453106E+01
 21
-2.06286027E+02
  0
LINE
  8
0
 62
7
 10
-8.63453106E+01
 20
-2.06286027E+02
 11
-8.63453106E+01
 21
-2.11286027E+02
  0
LINE
  8
0
 62
2
 10
-9.13453107E+01
 20
-2.05286027E+02
 11
-9.13453107E+01
 21
-2.14286027E+02
  0
LINE
  8
0
 62
7
 10
-9.56024536E+01
 20
-1.39986025E+02
 11
-8.63453106E+01
 21
-1.39986025E+02
  0
LINE
  8
0
  6
CENTER
 62
2
 10
-9.13453107E+01
 20
-1.40986025E+02
 11
-9.13453107E+01
 21
-1.31986025E+02
  0
LINE
  8
0
 62
7
 10
-8.63453106E+01
 20
-1.39986025E+02
 11
-8.63453106E+01
 21
-1.34986025E+02
  0
LINE
  8
0
 62
7
 10
-4.03453098E+01
 20
-2.06286027E+02
 11
-4.03453098E+01
 21
-2.11286027E+02
  0
LINE
  8
0
 62
7
 10
-3.10881668E+01
 20
-2.06286027E+02
 11
-4.03453098E+01
 21
-2.06286027E+02
  0
LINE
  8
0
 62
2
 10
-3.53453097E+01
 20
-2.05286027E+02
 11
-3.53453097E+01
 21
-2.14286027E+02
  0
LINE
  8
0
 62
7
 10
-3.10881668E+01
 20
-1.39986025E+02
 11
-4.03453098E+01
 21
-1.39986025E+02
  0
LINE
  8
0
  6
CENTER
 62
2
 10
-3.53453097E+01
 20
-1.40986025E+02
 11
-3.53453097E+01
 21
-1.31986025E+02
  0
LINE
  8
0
 62
7
 10
-4.03453098E+01
 20
-1.39986025E+02
 11
-4.03453098E+01
 21
-1.34986025E+02
  0
LINE
  8
0
 62
7
 10
-9.63453107E+01
 20
-1.48986026E+02
 11
-8.79024535E+01
 21
-1.48986026E+02
  0
LINE
  8
0
 62
7
 10
-9.63453107E+01
 20
-1.98986026E+02
 11
-8.79024535E+01
 21
-1.98986026E+02
  0
LINE
  8
0
 62
7
 10
-9.53453107E+01
 20
-1.98986026E+02
 11
-9.53453107E+01
 21
-1.99286026E+02
  0
LINE
  8
0
 62
7
 10
-3.13453096E+01
 20
-1.98986026E+02
 11
-3.13453096E+01
 21
-1.99286026E+02
  0
LINE
  8
0
 62
7
 10
-9.63453107E+01
 20
-1.88986026E+02
 11
-9.63453107E+01
 21
-1.98986026E+02
  0
LINE
  8
0
 62
7
 10
-3.03453096E+01
 20
-1.88986026E+02
 11
-3.03453096E+01
 21
-1.98986026E+02
  0
LINE
  8
0
 62
7
 10
-2.55881667E+01
 20
-1.58986026E+02
 11
-3.71024526E+01
 21
-1.58986026E+02
  0
LINE
  8
0
 62
7
 10
-2.16024523E+01
 20
-1.88986026E+02
 11
-3.71024526E+01
 21
-1.88986026E+02
  0
LINE
  8
0
 62
7
 10
-3.87881669E+01
 20
-1.48986026E+02
 11
-2.29024523E+01
 21
-1.48986026E+02
  0
LINE
  8
0
 62
7
 10
-8.96024535E+01
 20
-1.58986026E+02
 11
-1.05716739E+02
 21
-1.58986026E+02
  0
LINE
  8
0
 62
7
 10
-8.96024535E+01
 20
-1.88986026E+02
 11
-1.01731025E+02
 21
-1.88986026E+02
  0
LINE
  8
0
 62
7
 10
-3.87881669E+01
 20
-1.98986026E+02
 11
-2.45453095E+01
 21
-1.98986026E+02
  0
LINE
  8
0
 62
7
 10
-3.91595955E+01
 20
-1.99286026E+02
 11
-3.03453096E+01
 21
-1.99286026E+02
  0
LINE
  8
0
 62
7
 10
-9.08595964E+01
 20
-1.72543169E+02
 11
-9.08595964E+01
 21
-1.75443169E+02
  0
LINE
  8
0
 62
7
 10
-9.08595964E+01
 20
-1.72543169E+02
 11
-8.96024535E+01
 21
-1.71814597E+02
  0
LINE
  8
0
 62
7
 10
-9.08595964E+01
 20
-1.75443169E+02
 11
-8.96024535E+01
 21
-1.76171740E+02
  0
LINE
  8
0
 62
7
 10
-3.58310240E+01
 20
-1.72543169E+02
 11
-3.58310240E+01
 21
-1.75443169E+02
  0
LINE
  8
0
 62
7
 10
-3.71024526E+01
 20
-1.76171740E+02
 11
-3.58310240E+01
 21
-1.75443169E+02
  0
LINE
  8
0
 62
7
 10
-3.71024526E+01
 20
-1.71814597E+02
 11
-3.58310240E+01
 21
-1.72543169E+02
  0
LINE
  8
0
 62
7
 10
-8.73453106E+01
 20
-2.13286027E+02
 11
-8.73453106E+01
 21
-2.24928884E+02
  0
LINE
  8
0
 62
7
 10
-3.93453098E+01
 20
-2.13286027E+02
 11
-3.93453098E+01
 21
-2.24828884E+02
  0
LINE
  8
0
 62
7
 10
-3.93453098E+01
 20
-2.15286027E+02
 11
-8.73453106E+01
 21
-2.15286027E+02
  0
LINE
  8
0
 62
7
 10
-1.03045311E+02
 20
-1.48986026E+02
 11
-9.78453108E+01
 21
-1.48986026E+02
  0
LINE
  8
0
 62
7
 10
-9.63453107E+01
 20
-1.50486026E+02
 11
-1.03631025E+02
 21
-1.50486026E+02
  0
LINE
  8
0
 62
7
 10
-9.78453108E+01
 20
-1.49000311E+02
 11
-9.63453107E+01
 21
-1.50500311E+02
  0
LINE
  8
0
 62
7
 10
-9.78453108E+01
 20
-1.48986026E+02
 11
-9.78453108E+01
 21
-1.58986026E+02
  0
LINE
  8
0
 62
7
 10
-9.78453108E+01
 20
-1.88986026E+02
 11
-9.78453108E+01
 21
-1.98986026E+02
  0
LINE
  8
0
 62
7
 10
-1.04673882E+02
 20
-1.98986026E+02
 11
-9.73453108E+01
 21
-1.98986026E+02
  0
LINE
  8
0
 62
7
 10
4.79404063E+01
 20
-1.34986025E+02
 11
4.79404063E+01
 21
-1.58243169E+02
  0
LINE
  8
0
 62
7
 10
4.79404063E+01
 20
-1.89743169E+02
 11
4.79404063E+01
 21
-2.11286027E+02
  0
LINE
  8
0
 62
7
 10
5.59404064E+01
 20
-1.53986026E+02
 11
5.59404064E+01
 21
-1.58986026E+02
  0
LINE
  8
0
 62
7
 10
6.76975495E+01
 20
-1.93986026E+02
 11
8.09404068E+01
 21
-1.93986026E+02
  0
LINE
  8
0
 62
7
 10
4.84404063E+01
 20
-1.58743169E+02
 11
5.59404064E+01
 21
-1.58743169E+02
  0
LINE
  8
0
 62
7
 10
4.84404063E+01
 20
-1.89243169E+02
 11
5.59404064E+01
 21
-1.89243169E+02
  0
LINE
  8
0
 62
7
 10
7.91404068E+01
 20
-1.78386026E+02
 11
7.91404068E+01
 21
-1.80757455E+02
  0
LINE
  8
0
 62
7
 10
5.59404064E+01
 20
-1.88986026E+02
 11
5.59404064E+01
 21
-1.93986026E+02
  0
LINE
  8
0
 62
7
 10
6.56975494E+01
 20
-1.98486026E+02
 11
6.56975494E+01
 21
-1.95986026E+02
  0
LINE
  8
0
 62
7
 10
8.09404068E+01
 20
-1.32986025E+02
 11
4.99404063E+01
 21
-1.32986025E+02
  0
LINE
  8
0
 62
7
 10
4.99404063E+01
 20
-2.13286027E+02
 11
8.09404068E+01
 21
-2.13286027E+02
  0
LINE
  8
0
 62
7
 10
4.79404063E+01
 20
-1.99286026E+02
 11
8.09404068E+01
 21
-1.99286026E+02
  0
LINE
  8
0
 62
7
 10
6.76975495E+01
 20
-1.53986026E+02
 11
8.09404068E+01
 21
-1.53986026E+02
  0
LINE
  8
0
 62
7
 10
6.56975494E+01
 20
-1.51986026E+02
 11
6.56975494E+01
 21
-1.49486026E+02
  0
LINE
  8
0
 62
7
 10
4.79404063E+01
 20
-1.48986026E+02
 11
8.09404068E+01
 21
-1.48986026E+02
  0
LINE
  8
0
  6
CENTER
 62
2
 10
5.29404063E+01
 20
-2.05286027E+02
 11
5.29404063E+01
 21
-2.14286027E+02
  0
LINE
  8
0
 62
7
 10
4.86975491E+01
 20
-2.06286027E+02
 11
5.79404064E+01
 21
-2.06286027E+02
  0
LINE
  8
0
 62
7
 10
5.79404064E+01
 20
-2.06286027E+02
 11
5.79404064E+01
 21
-2.11286027E+02
  0
LINE
  8
0
 62
7
 10
4.86975491E+01
 20
-1.39986025E+02
 11
5.79404064E+01
 21
-1.39986025E+02
  0
LINE
  8
0
  6
CENTER
 62
2
 10
5.29404063E+01
 20
-1.40986025E+02
 11
5.29404063E+01
 21
-1.31986025E+02
  0
LINE
  8
0
 62
7
 10
5.79404064E+01
 20
-1.39986025E+02
 11
5.79404064E+01
 21
-1.34986025E+02
  0
LINE
  8
0
 62
7
 10
5.85546922E+01
 20
-2.29286027E+02
 11
5.87832636E+01
 21
-2.34214598E+02
  0
LINE
  8
0
 62
7
 10
5.60261207E+01
 20
-2.13286027E+02
 11
5.60261207E+01
 21
-2.15286027E+02
  0
LINE
  8
0
 62
2
 10
5.60261207E+01
 20
-2.15286027E+02
 11
5.60261207E+01
 21
-2.28371741E+02
  0
LINE
  8
0
 62
7
 10
5.49404064E+01
 20
-2.15286027E+02
 11
5.49404064E+01
 21
-2.27286027E+02
  0
LINE
  8
0
 62
7
 10
5.49404064E+01
 20
-2.27286027E+02
 11
5.69404064E+01
 21
-2.29286027E+02
  0
LINE
  8
0
 62
7
 10
5.49404064E+01
 20
-2.27286027E+02
 11
8.09404068E+01
 21
-2.27286027E+02
  0
LINE
  8
0
 62
7
 10
5.69404064E+01
 20
-2.29286027E+02
 11
8.09404068E+01
 21
-2.29286027E+02
  0
LINE
  8
0
 62
7
 10
6.69404066E+01
 20
-2.29286027E+02
 11
6.70975494E+01
 21
-2.36528884E+02
  0
LINE
  8
0
 62
7
 10
7.39404067E+01
 20
-2.29286027E+02
 11
7.39404067E+01
 21
-2.36543170E+02
  0
LINE
  8
0
 62
7
 10
8.09404068E+01
 20
-2.15286027E+02
 11
5.49404064E+01
 21
-2.15286027E+02
  0
LINE
  8
0
 62
7
 10
6.09404065E+01
 20
-1.98986026E+02
 11
8.09404068E+01
 21
-1.98986026E+02
  0
LINE
  8
0
 62
7
 10
3.75261204E+01
 20
-1.53486026E+02
 11
4.79404063E+01
 21
-1.53486026E+02
  0
LINE
  8
0
 62
7
 10
3.75261204E+01
 20
-1.53486026E+02
 11
3.91404061E+01
 21
-1.51986026E+02
  0
LINE
  8
0
 62
7
 10
3.91404061E+01
 20
-1.51986026E+02
 11
4.79404063E+01
 21
-1.51986026E+02
  0
LINE
  8
0
 62
7
 10
3.60118346E+01
 20
-1.97057455E+02
 11
3.65689775E+01
 21
-1.80986026E+02
  0
LINE
  8
0
  6
CENTER
 62
2
 10
3.59404061E+01
 20
-1.94986026E+02
 11
3.59404061E+01
 21
-2.11586027E+02
  0
LINE
  8
0
 62
7
 10
3.32975489E+01
 20
-1.98986026E+02
 11
4.79404063E+01
 21
-1.98986026E+02
  0
LINE
  8
0
 62
7
 10
2.59404059E+01
 20
-2.00986026E+02
 11
2.59404059E+01
 21
-2.23986027E+02
  0
LINE
  8
0
 62
7
 10
3.00118345E+01
 20
-2.25928884E+02
 11
3.03689774E+01
 21
-2.36386027E+02
  0
LINE
  8
0
 62
7
 10
5.60261207E+01
 20
-2.23986027E+02
 11
2.59404059E+01
 21
-2.23986027E+02
  0
LINE
  8
0
 62
7
 10
2.59404059E+01
 20
-2.13986027E+02
 11
5.60261207E+01
 21
-2.13986027E+02
  0
LINE
  8
0
 62
7
 10
2.79404059E+01
 20
-2.07586027E+02
 11
4.29404062E+01
 21
-2.07586027E+02
  0
LINE
  8
0
 62
7
 10
4.34404062E+01
 20
-2.00986026E+02
 11
4.34404062E+01
 21
-2.07086027E+02
  0
LINE
  8
0
 62
7
 10
2.94404059E+01
 20
-2.00243169E+02
 11
2.94404059E+01
 21
-2.07586027E+02
  0
LINE
  8
0
 62
7
 10
2.98404060E+01
 20
-2.07586027E+02
 11
2.98404060E+01
 21
-2.00243169E+02
  0
LINE
  8
0
 62
7
 10
4.24404062E+01
 20
-2.00086026E+02
 11
3.21975488E+01
 21
-2.00086026E+02
  0
LINE
  8
0
 62
7
 10
4.15689776E+01
 20
-1.99586026E+02
 11
3.29118346E+01
 21
-1.99586026E+02
  0
LINE
  8
0
 62
7
 10
4.24404062E+01
 20
-2.00086026E+02
 11
4.15689776E+01
 21
-1.99586026E+02
  0
LINE
  8
0
 62
7
 10
4.24404062E+01
 20
-2.00086026E+02
 11
4.24404062E+01
 21
-2.07586027E+02
  0
LINE
  8
0
 62
7
 10
3.70546918E+01
 20
-1.66986026E+02
 11
3.75261204E+01
 21
-1.53486026E+02
  0
ARC
  8
0
 62
7
 10
-9.43361410E+01
 20
-1.34995195E+02
 40
2.00919062E+00
 50
9.02614907E+01
 51
1.79738509E+02
  0
ARC
  8
0
 62
7
 10
-3.23485729E+01
 20
-1.34989289E+02
 40
2.00326596E+00
 50
9.33332446E-02
 51
8.99066665E+01
  0
ARC
  8
0
 62
7
 10
-3.23361796E+01
 20
-2.11295157E+02
 40
1.99089094E+00
 50
2.69737247E+02
 51
2.62753555E-01
  0
ARC
  8
0
 62
7
 10
-9.43484977E+01
 20
-2.11289214E+02
 40
1.99681561E+00
 50
1.79908555E+02
 51
2.70091445E+02
  0
ARC
  8
0
 62
7
 10
-9.43485020E+01
 20
-2.04289218E+02
 40
1.99681128E+00
 50
1.79908430E+02
 51
2.70091570E+02
  0
ARC
  8
0
 62
7
 10
-8.43484975E+01
 20
-2.11289214E+02
 40
1.99681561E+00
 50
1.79908555E+02
 51
2.70091445E+02
  0
ARC
  8
0
 62
7
 10
-9.43361454E+01
 20
-1.41995191E+02
 40
2.00918624E+00
 50
9.02613669E+01
 51
1.79738633E+02
  0
ARC
  8
0
 62
7
 10
-8.43361409E+01
 20
-1.34995195E+02
 40
2.00919062E+00
 50
9.02614907E+01
 51
1.79738509E+02
  0
ARC
  8
0
 62
7
 10
-4.23361798E+01
 20
-2.11295157E+02
 40
1.99089094E+00
 50
2.69737247E+02
 51
2.62753555E-01
  0
ARC
  8
0
 62
7
 10
-3.23361753E+01
 20
-2.04295161E+02
 40
1.99088661E+00
 50
2.69737121E+02
 51
2.62879393E-01
  0
ARC
  8
0
 62
7
 10
-3.23485685E+01
 20
-1.41989284E+02
 40
2.00326157E+00
 50
9.32081863E-02
 51
8.99067920E+01
  0
ARC
  8
0
 62
7
 10
-4.23485731E+01
 20
-1.34989289E+02
 40
2.00326596E+00
 50
9.33332446E-02
 51
8.99066665E+01
  0
ARC
  8
0
 62
7
 10
-3.83393637E+01
 20
-1.73993169E+02
 40
5.49112467E+00
 50
2.83017957E+02
 51
7.69820421E+01
  0
ARC
  8
0
 62
7
 10
-8.83393635E+01
 20
-1.73993169E+02
 40
5.49708080E+00
 50
1.03283807E+02
 51
2.56716193E+02
  0
ARC
  8
0
 62
7
 10
-8.83393634E+01
 20
-1.73993169E+02
 40
4.99795259E+00
 50
1.04638616E+02
 51
2.55361384E+02
  0
ARC
  8
0
 62
7
 10
-8.83393630E+01
 20
-1.73993169E+02
 40
3.97054721E+00
 50
1.08548965E+02
 51
2.51451035E+02
  0
ARC
  8
0
 62
7
 10
-8.83393620E+01
 20
-1.73993169E+02
 40
2.90986048E+00
 50
1.15726313E+02
 51
2.44273687E+02
  0
ARC
  8
0
 62
7
 10
-3.83393639E+01
 20
-1.73993169E+02
 40
4.99140090E+00
 50
2.84347865E+02
 51
7.56521355E+01
  0
ARC
  8
0
 62
7
 10
-3.83393642E+01
 20
-1.73993169E+02
 40
3.96229705E+00
 50
2.88190075E+02
 51
7.18099252E+01
  0
ARC
  8
0
 62
7
 10
-3.83393652E+01
 20
-1.73993169E+02
 40
2.89859289E+00
 50
2.95260130E+02
 51
6.47398706E+01
  0
ARC
  8
0
 62
7
 10
-9.73485506E+01
 20
-1.99989266E+02
 40
1.00324511E+00
 50
1.85030259E-01
 51
8.98149698E+01
  0
ARC
  8
0
 62
7
 10
8.09404068E+01
 20
-1.73993169E+02
 40
1.20642874E+01
 50
9.00000002E+01
 51
2.70000000E+02
  0
ARC
  8
0
 62
2
 10
8.09404068E+01
 20
-1.73993169E+02
 40
1.32214301E+01
 50
9.00000002E+01
 51
2.70000000E+02
  0
ARC
  8
0
 62
7
 10
4.99495541E+01
 20
-1.34995173E+02
 40
2.00916869E+00
 50
9.02608713E+01
 51
1.79739129E+02
  0
ARC
  8
0
 62
7
 10
4.99372193E+01
 20
-2.11289214E+02
 40
1.99681561E+00
 50
1.79908555E+02
 51
2.70091445E+02
  0
ARC
  8
0
 62
7
 10
6.09495637E+01
 20
-1.53995183E+02
 40
5.00916563E+00
 50
9.01047415E+01
 51
1.79895259E+02
  0
ARC
  8
0
 62
7
 10
6.09372162E+01
 20
-1.93989217E+02
 40
4.99681079E+00
 50
1.79963418E+02
 51
2.70036582E+02
  0
ARC
  8
0
 62
7
 10
6.52030883E+01
 20
-1.98491565E+02
 40
4.94492170E-01
 50
2.69358210E+02
 51
6.41789639E-01
  0
ARC
  8
0
 62
7
 10
6.77031239E+01
 20
-1.95991601E+02
 40
2.00558224E+00
 50
9.01592521E+01
 51
1.79840748E+02
  0
ARC
  8
0
 62
7
 10
4.84408058E+01
 20
-1.58242769E+02
 40
5.00399677E-01
 50
1.80045744E+02
 51
2.70000000E+02
  0
ARC
  8
0
 62
7
 10
4.84459868E+01
 20
-1.89748750E+02
 40
5.05611297E-01
 50
9.06323932E+01
 51
1.79367607E+02
  0
ARC
  8
0
 62
7
 10
6.51907481E+01
 20
-1.49492827E+02
 40
5.06846905E-01
 50
7.68861983E-01
 51
8.92311378E+01
  0
ARC
  8
0
 62
7
 10
6.76907653E+01
 20
-1.51992810E+02
 40
1.99322740E+00
 50
1.79804987E+02
 51
2.70195013E+02
  0
ARC
  8
0
 62
7
 10
8.09404068E+01
 20
-1.73986026E+02
 40
7.00000265E+00
 50
9.00000002E+01
 51
2.70000000E+02
  0
ARC
  8
0
 62
7
 10
8.09463538E+01
 20
-1.78386026E+02
 40
1.10001609E+00
 50
9.03097561E+01
 51
2.69690244E+02
  0
ARC
  8
0
 62
7
 10
8.09404068E+01
 20
-1.78386026E+02
 40
1.80000985E+00
 50
9.00000002E+01
 51
2.70000000E+02
  0
ARC
  8
0
 62
7
 10
4.99372150E+01
 20
-2.04289218E+02
 40
1.99681128E+00
 50
1.79908430E+02
 51
2.70091570E+02
  0
ARC
  8
0
 62
7
 10
5.99372195E+01
 20
-2.11289214E+02
 40
1.99681561E+00
 50
1.79908555E+02
 51
2.70091445E+02
  0
ARC
  8
0
 62
7
 10
4.99495498E+01
 20
-1.41995169E+02
 40
2.00916431E+00
 50
9.02607470E+01
 51
1.79739253E+02
  0
ARC
  8
0
 62
7
 10
5.99495543E+01
 20
-1.34995173E+02
 40
2.00916869E+00
 50
9.02608713E+01
 51
1.79739129E+02
  0
ARC
  8
0
 62
7
 10
2.79485072E+01
 20
-2.00987035E+02
 40
2.00810160E+00
 50
1.58257721E+02
 51
1.79971225E+02
  0
ARC
  8
0
 62
7
 10
2.79495263E+01
 20
-2.09595147E+02
 40
2.00914111E+00
 50
9.02600915E+01
 51
1.79739908E+02
  0
ARC
  8
0
 62
7
 10
2.80075859E+01
 20
-2.25991241E+02
 40
2.00521837E+00
 50
1.78202621E+00
 51
8.98786048E+01
  0
ARC
  8
0
 62
7
 10
4.54495561E+01
 20
-2.00995176E+02
 40
2.00917080E+00
 50
9.02609309E+01
 51
1.79739069E+02
  0
ARC
  8
0
 62
7
 10
4.29495574E+01
 20
-2.07095178E+02
 40
4.90934036E-01
 50
2.68931914E+02
 51
1.06808571E+00
  0
ARC
  8
0
 62
7
 10
3.40202091E+01
 20
-1.96993388E+02
 40
1.99265567E+00
 50
2.69759202E+02
 51
3.58157544E+02
  0
LINE
  8
0
 62
7
 10
5.71963427E+01
 20
-2.10998373E+02
 11
5.71963442E+01
 21
-2.06298373E+02
  0
LINE
  8
0
 62
7
 10
5.71963427E+01
 20
-2.10998373E+02
 11
5.66763426E+01
 21
-2.11298373E+02
  0
LINE
  8
0
 62
7
 10
4.86963427E+01
 20
-2.10998370E+02
 11
5.71963427E+01
 21
-2.10998373E+02
  0
LINE
  8
0
 62
7
 10
4.92163426E+01
 20
-2.11298370E+02
 11
5.66763426E+01
 21
-2.11298373E+02
  0
LINE
  8
0
 62
7
 10
4.86963427E+01
 20
-2.10998370E+02
 11
4.92163426E+01
 21
-2.11298370E+02
  0
LINE
  8
0
 62
7
 10
4.86963427E+01
 20
-2.10998370E+02
 11
4.86963442E+01
 21
-2.06298370E+02
  0
LINE
  8
0
 62
7
 10
4.86963427E+01
 20
-1.35298388E+02
 11
4.86963442E+01
 21
-1.39998388E+02
  0
LINE
  8
0
 62
7
 10
4.86963427E+01
 20
-1.35298388E+02
 11
4.92163426E+01
 21
-1.34998388E+02
  0
LINE
  8
0
 62
7
 10
5.71963427E+01
 20
-1.35298385E+02
 11
4.86963427E+01
 21
-1.35298388E+02
  0
LINE
  8
0
 62
7
 10
5.66763426E+01
 20
-1.34998386E+02
 11
4.92163426E+01
 21
-1.34998388E+02
  0
LINE
  8
0
 62
7
 10
5.71963427E+01
 20
-1.35298385E+02
 11
5.66763426E+01
 21
-1.34998386E+02
  0
LINE
  8
0
 62
7
 10
5.71963427E+01
 20
-1.35298385E+02
 11
5.71963442E+01
 21
-1.39998385E+02
  0
LINE
  8
0
 62
7
 10
-8.70894179E+01
 20
-2.10998373E+02
 11
-8.70894164E+01
 21
-2.06298373E+02
  0
LINE
  8
0
 62
7
 10
-8.70894179E+01
 20
-2.10998373E+02
 11
-8.76094180E+01
 21
-2.11298373E+02
  0
LINE
  8
0
 62
7
 10
-9.55894179E+01
 20
-2.10998370E+02
 11
-8.70894179E+01
 21
-2.10998373E+02
  0
LINE
  8
0
 62
7
 10
-9.50694180E+01
 20
-2.11298370E+02
 11
-8.76094180E+01
 21
-2.11298373E+02
  0
LINE
  8
0
 62
7
 10
-9.55894179E+01
 20
-2.10998370E+02
 11
-9.50694180E+01
 21
-2.11298370E+02
  0
LINE
  8
0
 62
7
 10
-9.55894179E+01
 20
-2.10998370E+02
 11
-9.55894164E+01
 21
-2.06298370E+02
  0
LINE
  8
0
 62
7
 10
-3.10893995E+01
 20
-2.10998373E+02
 11
-3.10893980E+01
 21
-2.06298373E+02
  0
LINE
  8
0
 62
7
 10
-3.10893995E+01
 20
-2.10998373E+02
 11
-3.16093996E+01
 21
-2.11298373E+02
  0
LINE
  8
0
 62
7
 10
-3.95893995E+01
 20
-2.10998370E+02
 11
-3.10893995E+01
 21
-2.10998373E+02
  0
LINE
  8
0
 62
7
 10
-3.90693996E+01
 20
-2.11298370E+02
 11
-3.16093996E+01
 21
-2.11298373E+02
  0
LINE
  8
0
 62
7
 10
-3.95893995E+01
 20
-2.10998370E+02
 11
-3.90693996E+01
 21
-2.11298370E+02
  0
LINE
  8
0
 62
7
 10
-3.95893995E+01
 20
-2.10998370E+02
 11
-3.95893980E+01
 21
-2.06298370E+02
  0
LINE
  8
0
 62
7
 10
-3.95893995E+01
 20
-1.35298388E+02
 11
-3.95893980E+01
 21
-1.39998388E+02
  0
LINE
  8
0
 62
7
 10
-3.95893995E+01
 20
-1.35298388E+02
 11
-3.90693996E+01
 21
-1.34998388E+02
  0
LINE
  8
0
 62
7
 10
-3.10893995E+01
 20
-1.35298385E+02
 11
-3.95893995E+01
 21
-1.35298388E+02
  0
LINE
  8
0
 62
7
 10
-3.16093996E+01
 20
-1.34998386E+02
 11
-3.90693996E+01
 21
-1.34998388E+02
  0
LINE
  8
0
 62
7
 10
-3.10893995E+01
 20
-1.35298385E+02
 11
-3.16093996E+01
 21
-1.34998386E+02
  0
LINE
  8
0
 62
7
 10
-3.10893995E+01
 20
-1.35298385E+02
 11
-3.10893980E+01
 21
-1.39998385E+02
  0
LINE
  8
0
 62
7
 10
-9.55894179E+01
 20
-1.35298388E+02
 11
-9.55894164E+01
 21
-1.39998388E+02
  0
LINE
  8
0
 62
7
 10
-9.55894179E+01
 20
-1.35298388E+02
 11
-9.50694180E+01
 21
-1.34998388E+02
  0
LINE
  8
0
 62
7
 10
-8.70894179E+01
 20
-1.35298385E+02
 11
-9.55894179E+01
 21
-1.35298388E+02
  0
LINE
  8
0
 62
7
 10
-8.76094180E+01
 20
-1.34998386E+02
 11
-9.50694180E+01
 21
-1.34998388E+02
  0
LINE
  8
0
 62
7
 10
-8.70894179E+01
 20
-1.35298385E+02
 11
-8.76094180E+01
 21
-1.34998386E+02
  0
LINE
  8
0
 62
7
 10
-8.70894179E+01
 20
-1.35298385E+02
 11
-8.70894164E+01
 21
-1.39998385E+02
  0
POLYLINE
  8
0
 62
2
 66
1
  0
VERTEX
  8
0
 62
2
 10
1.82292676E+02
 20
-2.24939245E+02
  0
VERTEX
  8
0
 62
2
 10
1.83519936E+02
 20
-2.24405249E+02
  0
VERTEX
  8
0
 62
2
 10
1.84761525E+02
 20
-2.23903567E+02
  0
VERTEX
  8
0
 62
2
 10
1.86015791E+02
 20
-2.23438044E+02
  0
VERTEX
  8
0
 62
2
 10
1.87281082E+02
 20
-2.23012521E+02
  0
VERTEX
  8
0
 62
2
 10
1.88555746E+02
 20
-2.22630842E+02
  0
VERTEX
  8
0
 62
2
 10
1.89838131E+02
 20
-2.22296850E+02
  0
VERTEX
  8
0
 62
2
 10
1.91126584E+02
 20
-2.22014386E+02
  0
VERTEX
  8
0
 62
2
 10
1.92419454E+02
 20
-2.21787294E+02
  0
VERTEX
  8
0
 62
2
 10
1.93715089E+02
 20
-2.21619418E+02
  0
VERTEX
  8
0
 62
2
 10
1.95011836E+02
 20
-2.21514598E+02
  0
VERTEX
  8
0
 62
2
 10
1.97312186E+02
 20
-2.21486211E+02
  0
VERTEX
  8
0
 62
2
 10
1.99611670E+02
 20
-2.21633733E+02
  0
VERTEX
  8
0
 62
2
 10
2.01911180E+02
 20
-2.21922851E+02
  0
VERTEX
  8
0
 62
2
 10
2.04211606E+02
 20
-2.22319249E+02
  0
VERTEX
  8
0
 62
2
 10
2.06513838E+02
 20
-2.22788612E+02
  0
VERTEX
  8
0
 62
2
 10
2.08818768E+02
 20
-2.23296625E+02
  0
VERTEX
  8
0
 62
2
 10
2.11127284E+02
 20
-2.23808974E+02
  0
VERTEX
  8
0
 62
2
 10
2.13440279E+02
 20
-2.24291343E+02
  0
VERTEX
  8
0
 62
2
 10
2.15758643E+02
 20
-2.24709418E+02
  0
VERTEX
  8
0
 62
2
 10
2.18083265E+02
 20
-2.25028884E+02
  0
VERTEX
  8
0
 62
2
 10
2.19301348E+02
 20
-2.25146169E+02
  0
VERTEX
  8
0
 62
2
 10
2.20520925E+02
 20
-2.25228523E+02
  0
VERTEX
  8
0
 62
2
 10
2.21741675E+02
 20
-2.25277520E+02
  0
VERTEX
  8
0
 62
2
 10
2.22963276E+02
 20
-2.25294732E+02
  0
VERTEX
  8
0
 62
2
 10
2.24185409E+02
 20
-2.25281732E+02
  0
VERTEX
  8
0
 62
2
 10
2.25407752E+02
 20
-2.25240094E+02
  0
VERTEX
  8
0
 62
2
 10
2.26629986E+02
 20
-2.25171390E+02
  0
VERTEX
  8
0
 62
2
 10
2.27851789E+02
 20
-2.25077193E+02
  0
VERTEX
  8
0
 62
2
 10
2.29072840E+02
 20
-2.24959075E+02
  0
VERTEX
  8
0
 62
2
 10
2.30292820E+02
 20
-2.24818611E+02
  0
SEQEND
  8
0
  0
POLYLINE
  8
0
 62
2
 66
1
  0
VERTEX
  8
0
 62
2
 10
1.66611762E+02
 20
-1.48997549E+02
  0
VERTEX
  8
0
 62
2
 10
1.66098549E+02
 20
-1.50331832E+02
  0
VERTEX
  8
0
 62
2
 10
1.65621231E+02
 20
-1.51681835E+02
  0
VERTEX
  8
0
 62
2
 10
1.65185665E+02
 20
-1.53045138E+02
  0
VERTEX
  8
0
 62
2
 10
1.64797704E+02
 20
-1.54419323E+02
  0
VERTEX
  8
0
 62
2
 10
1.64463204E+02
 20
-1.55801969E+02
  0
VERTEX
  8
0
 62
2
 10
1.64188021E+02
 20
-1.57190658E+02
  0
VERTEX
  8
0
 62
2
 10
1.63978009E+02
 20
-1.58582970E+02
  0
VERTEX
  8
0
 62
2
 10
1.63839023E+02
 20
-1.59976486E+02
  0
VERTEX
  8
0
 62
2
 10
1.63776918E+02
 20
-1.61368788E+02
  0
VERTEX
  8
0
 62
2
 10
1.63797550E+02
 20
-1.62757454E+02
  0
VERTEX
  8
0
 62
2
 10
1.63984691E+02
 20
-1.64816468E+02
  0
VERTEX
  8
0
 62
2
 10
1.64329961E+02
 20
-1.66864660E+02
  0
VERTEX
  8
0
 62
2
 10
1.64795015E+02
 20
-1.68904744E+02
  0
VERTEX
  8
0
 62
2
 10
1.65341507E+02
 20
-1.70939429E+02
  0
VERTEX
  8
0
 62
2
 10
1.65931090E+02
 20
-1.72971428E+02
  0
VERTEX
  8
0
 62
2
 10
1.66525419E+02
 20
-1.75003451E+02
  0
VERTEX
  8
0
 62
2
 10
1.67086146E+02
 20
-1.77038212E+02
  0
VERTEX
  8
0
 62
2
 10
1.67574927E+02
 20
-1.79078420E+02
  0
VERTEX
  8
0
 62
2
 10
1.67953415E+02
 20
-1.81126788E+02
  0
VERTEX
  8
0
 62
2
 10
1.68183264E+02
 20
-1.83186026E+02
  0
VERTEX
  8
0
 62
2
 10
1.68238846E+02
 20
-1.84781723E+02
  0
VERTEX
  8
0
 62
2
 10
1.68190526E+02
 20
-1.86382547E+02
  0
VERTEX
  8
0
 62
2
 10
1.68045786E+02
 20
-1.87985366E+02
  0
VERTEX
  8
0
 62
2
 10
1.67812109E+02
 20
-1.89587045E+02
  0
VERTEX
  8
0
 62
2
 10
1.67496976E+02
 20
-1.91184452E+02
  0
VERTEX
  8
0
 62
2
 10
1.67107869E+02
 20
-1.92774452E+02
  0
VERTEX
  8
0
 62
2
 10
1.66652268E+02
 20
-1.94353912E+02
  0
VERTEX
  8
0
 62
2
 10
1.66137657E+02
 20
-1.95919699E+02
  0
VERTEX
  8
0
 62
2
 10
1.65571515E+02
 20
-1.97468677E+02
  0
VERTEX
  8
0
 62
2
 10
1.64961326E+02
 20
-1.98997715E+02
  0
SEQEND
  8
0
  0
POLYLINE
  8
0
 62
2
 66
1
  0
VERTEX
  8
0
 62
2
 10
2.46740335E+02
 20
-1.48997550E+02
  0
VERTEX
  8
0
 62
2
 10
2.46227122E+02
 20
-1.50331834E+02
  0
VERTEX
  8
0
 62
2
 10
2.45749804E+02
 20
-1.51681837E+02
  0
VERTEX
  8
0
 62
2
 10
2.45314237E+02
 20
-1.53045140E+02
  0
VERTEX
  8
0
 62
2
 10
2.44926277E+02
 20
-1.54419324E+02
  0
VERTEX
  8
0
 62
2
 10
2.44591777E+02
 20
-1.55801971E+02
  0
VERTEX
  8
0
 62
2
 10
2.44316594E+02
 20
-1.57190660E+02
  0
VERTEX
  8
0
 62
2
 10
2.44106582E+02
 20
-1.58582972E+02
  0
VERTEX
  8
0
 62
2
 10
2.43967596E+02
 20
-1.59976488E+02
  0
VERTEX
  8
0
 62
2
 10
2.43905491E+02
 20
-1.61368788E+02
  0
VERTEX
  8
0
 62
2
 10
2.43926123E+02
 20
-1.62757454E+02
  0
VERTEX
  8
0
 62
2
 10
2.44113261E+02
 20
-1.64816435E+02
  0
VERTEX
  8
0
 62
2
 10
2.44458526E+02
 20
-1.66864545E+02
  0
VERTEX
  8
0
 62
2
 10
2.44923572E+02
 20
-1.68904518E+02
  0
VERTEX
  8
0
 62
2
 10
2.45470056E+02
 20
-1.70939086E+02
  0
VERTEX
  8
0
 62
2
 10
2.46059632E+02
 20
-1.72970983E+02
  0
VERTEX
  8
0
 62
2
 10
2.46653956E+02
 20
-1.75002939E+02
  0
VERTEX
  8
0
 62
2
 10
2.47214683E+02
 20
-1.77037689E+02
  0
VERTEX
  8
0
 62
2
 10
2.47703469E+02
 20
-1.79077965E+02
  0
VERTEX
  8
0
 62
2
 10
2.48081968E+02
 20
-1.81126500E+02
  0
VERTEX
  8
0
 62
2
 10
2.48311837E+02
 20
-1.83186026E+02
  0
VERTEX
  8
0
 62
2
 10
2.48367679E+02
 20
-1.84781722E+02
  0
VERTEX
  8
0
 62
2
 10
2.48320083E+02
 20
-1.86382546E+02
  0
VERTEX
  8
0
 62
2
 10
2.48176441E+02
 20
-1.87985364E+02
  0
VERTEX
  8
0
 62
2
 10
2.47944148E+02
 20
-1.89587044E+02
  0
VERTEX
  8
0
 62
2
 10
2.47630596E+02
 20
-1.91184450E+02
  0
VERTEX
  8
0
 62
2
 10
2.47243179E+02
 20
-1.92774450E+02
  0
VERTEX
  8
0
 62
2
 10
2.46789290E+02
 20
-1.94353911E+02
  0
VERTEX
  8
0
 62
2
 10
2.46276322E+02
 20
-1.95919697E+02
  0
VERTEX
  8
0
 62
2
 10
2.45711669E+02
 20
-1.97468676E+02
  0
VERTEX
  8
0
 62
2
 10
2.45102724E+02
 20
-1.98997714E+02
  0
SEQEND
  8
0
  0
POLYLINE
  8
0
 62
2
 66
1
  0
VERTEX
  8
0
 62
2
 10
2.90012223E+02
 20
-2.36381878E+02
  0
VERTEX
  8
0
 62
2
 10
2.90336910E+02
 20
-2.36400152E+02
  0
VERTEX
  8
0
 62
2
 10
2.90661577E+02
 20
-2.36414163E+02
  0
VERTEX
  8
0
 62
2
 10
2.90986194E+02
 20
-2.36423785E+02
  0
VERTEX
  8
0
 62
2
 10
2.91310733E+02
 20
-2.36428888E+02
  0
VERTEX
  8
0
 62
2
 10
2.91635164E+02
 20
-2.36429345E+02
  0
VERTEX
  8
0
 62
2
 10
2.91959460E+02
 20
-2.36425028E+02
  0
VERTEX
  8
0
 62
2
 10
2.92283589E+02
 20
-2.36415809E+02
  0
VERTEX
  8
0
 62
2
 10
2.92607524E+02
 20
-2.36401559E+02
  0
VERTEX
  8
0
 62
2
 10
2.92931236E+02
 20
-2.36382151E+02
  0
VERTEX
  8
0
 62
2
 10
2.93254695E+02
 20
-2.36357456E+02
  0
VERTEX
  8
0
 62
2
 10
2.95090148E+02
 20
-2.36121079E+02
  0
VERTEX
  8
0
 62
2
 10
2.96917661E+02
 20
-2.35749385E+02
  0
VERTEX
  8
0
 62
2
 10
2.98737972E+02
 20
-2.35281150E+02
  0
VERTEX
  8
0
 62
2
 10
3.00551818E+02
 20
-2.34755148E+02
  0
VERTEX
  8
0
 62
2
 10
3.02359936E+02
 20
-2.34210156E+02
  0
VERTEX
  8
0
 62
2
 10
3.04163063E+02
 20
-2.33684947E+02
  0
VERTEX
  8
0
 62
2
 10
3.05961936E+02
 20
-2.33218298E+02
  0
VERTEX
  8
0
 62
2
 10
3.07757294E+02
 20
-2.32848983E+02
  0
VERTEX
  8
0
 62
2
 10
3.09549873E+02
 20
-2.32615777E+02
  0
VERTEX
  8
0
 62
2
 10
3.11340410E+02
 20
-2.32557456E+02
  0
VERTEX
  8
0
 62
2
 10
3.13161115E+02
 20
-2.32703639E+02
  0
VERTEX
  8
0
 62
2
 10
3.14981419E+02
 20
-2.33027745E+02
  0
VERTEX
  8
0
 62
2
 10
3.16802365E+02
 20
-2.33486467E+02
  0
VERTEX
  8
0
 62
2
 10
3.18624998E+02
 20
-2.34036496E+02
  0
VERTEX
  8
0
 62
2
 10
3.20450361E+02
 20
-2.34634524E+02
  0
VERTEX
  8
0
 62
2
 10
3.22279500E+02
 20
-2.35237244E+02
  0
VERTEX
  8
0
 62
2
 10
3.24113458E+02
 20
-2.35801348E+02
  0
VERTEX
  8
0
 62
2
 10
3.25953281E+02
 20
-2.36283528E+02
  0
VERTEX
  8
0
 62
2
 10
3.27800012E+02
 20
-2.36640476E+02
  0
VERTEX
  8
0
 62
2
 10
3.29654696E+02
 20
-2.36828884E+02
  0
VERTEX
  8
0
 62
2
 10
3.30761218E+02
 20
-2.36845434E+02
  0
VERTEX
  8
0
 62
2
 10
3.31869058E+02
 20
-2.36791491E+02
  0
VERTEX
  8
0
 62
2
 10
3.32976545E+02
 20
-2.36671672E+02
  0
VERTEX
  8
0
 62
2
 10
3.34082008E+02
 20
-2.36490592E+02
  0
VERTEX
  8
0
 62
2
 10
3.35183777E+02
 20
-2.36252869E+02
  0
VERTEX
  8
0
 62
2
 10
3.36280181E+02
 20
-2.35963117E+02
  0
VERTEX
  8
0
 62
2
 10
3.37369549E+02
 20
-2.35625954E+02
  0
VERTEX
  8
0
 62
2
 10
3.38450211E+02
 20
-2.35245994E+02
  0
VERTEX
  8
0
 62
2
 10
3.39520497E+02
 20
-2.34827855E+02
  0
VERTEX
  8
0
 62
2
 10
3.40578735E+02
 20
-2.34376152E+02
  0
SEQEND
  8
0
  0
LINE
  8
0
 62
7
 10
3.07583267E+02
 20
-1.34986025E+02
 11
3.07583267E+02
 21
-1.58243169E+02
  0
LINE
  8
0
 62
7
 10
3.07583267E+02
 20
-1.89743169E+02
 11
3.07583267E+02
 21
-2.11292401E+02
  0
LINE
  8
0
 62
7
 10
3.15583267E+02
 20
-1.53986026E+02
 11
3.15583267E+02
 21
-1.58986026E+02
  0
LINE
  8
0
 62
7
 10
3.27326124E+02
 20
-1.93986026E+02
 11
3.40583267E+02
 21
-1.93986026E+02
  0
LINE
  8
0
 62
7
 10
3.08083267E+02
 20
-1.58743169E+02
 11
3.15583267E+02
 21
-1.58743169E+02
  0
LINE
  8
0
 62
7
 10
3.08083267E+02
 20
-1.89243169E+02
 11
3.15583267E+02
 21
-1.89243169E+02
  0
LINE
  8
0
 62
7
 10
3.38783267E+02
 20
-1.78386026E+02
 11
3.38783267E+02
 21
-1.80757455E+02
  0
LINE
  8
0
 62
7
 10
3.15583267E+02
 20
-1.88986026E+02
 11
3.15583267E+02
 21
-1.93986026E+02
  0
LINE
  8
0
 62
7
 10
3.25340410E+02
 20
-1.98486026E+02
 11
3.25340410E+02
 21
-1.95986026E+02
  0
LINE
  8
0
 62
7
 10
3.40583267E+02
 20
-1.32986025E+02
 11
3.09583267E+02
 21
-1.32986025E+02
  0
LINE
  8
0
 62
7
 10
3.09583267E+02
 20
-2.13286027E+02
 11
3.40583267E+02
 21
-2.13286027E+02
  0
LINE
  8
0
 62
7
 10
3.07583267E+02
 20
-1.99286026E+02
 11
3.40583267E+02
 21
-1.99286026E+02
  0
LINE
  8
0
 62
7
 10
3.27326124E+02
 20
-1.53986026E+02
 11
3.40583267E+02
 21
-1.53986026E+02
  0
LINE
  8
0
 62
7
 10
3.25340410E+02
 20
-1.51986026E+02
 11
3.25340410E+02
 21
-1.49486026E+02
  0
LINE
  8
0
 62
7
 10
3.07583267E+02
 20
-1.48986026E+02
 11
3.40583267E+02
 21
-1.48986026E+02
  0
LINE
  8
0
  6
CENTER
 62
2
 10
3.12583267E+02
 20
-2.05286027E+02
 11
3.12583267E+02
 21
-2.14286027E+02
  0
LINE
  8
0
 62
7
 10
3.08340410E+02
 20
-2.06286027E+02
 11
3.17583267E+02
 21
-2.06286027E+02
  0
LINE
  8
0
 62
7
 10
3.17583267E+02
 20
-2.06286027E+02
 11
3.17583267E+02
 21
-2.11286027E+02
  0
LINE
  8
0
 62
7
 10
3.08340410E+02
 20
-1.39986025E+02
 11
3.17583267E+02
 21
-1.39986025E+02
  0
LINE
  8
0
  6
CENTER
 62
2
 10
3.12583267E+02
 20
-1.40986025E+02
 11
3.12583267E+02
 21
-1.31986025E+02
  0
LINE
  8
0
 62
7
 10
3.17583267E+02
 20
-1.39986025E+02
 11
3.17583267E+02
 21
-1.34986025E+02
  0
LINE
  8
0
 62
7
 10
3.18197553E+02
 20
-2.29286027E+02
 11
3.18411838E+02
 21
-2.33971741E+02
  0
LINE
  8
0
 62
7
 10
3.15668981E+02
 20
-2.13286027E+02
 11
3.15668981E+02
 21
-2.15286027E+02
  0
LINE
  8
0
 62
2
 10
3.15668981E+02
 20
-2.15286027E+02
 11
3.15668981E+02
 21
-2.28371741E+02
  0
LINE
  8
0
 62
7
 10
3.14583267E+02
 20
-2.15286027E+02
 11
3.14583267E+02
 21
-2.27286027E+02
  0
LINE
  8
0
 62
7
 10
3.14583267E+02
 20
-2.27286027E+02
 11
3.16583267E+02
 21
-2.29286027E+02
  0
LINE
  8
0
 62
7
 10
3.14583267E+02
 20
-2.27286027E+02
 11
3.40583267E+02
 21
-2.27286027E+02
  0
LINE
  8
0
 62
7
 10
3.16583267E+02
 20
-2.29286027E+02
 11
3.40583267E+02
 21
-2.29286027E+02
  0
LINE
  8
0
 62
7
 10
3.26583267E+02
 20
-2.29286027E+02
 11
3.26740410E+02
 21
-2.36528884E+02
  0
LINE
  8
0
 62
7
 10
3.33583267E+02
 20
-2.29286027E+02
 11
3.33583267E+02
 21
-2.36543170E+02
  0
LINE
  8
0
 62
7
 10
3.40583267E+02
 20
-2.15286027E+02
 11
3.14583267E+02
 21
-2.15286027E+02
  0
LINE
  8
0
 62
7
 10
1.66597550E+02
 20
-1.48986026E+02
 11
1.71797550E+02
 21
-1.48986026E+02
  0
LINE
  8
0
 62
7
 10
1.73297550E+02
 20
-1.50486026E+02
 11
1.66011836E+02
 21
-1.50486026E+02
  0
LINE
  8
0
 62
7
 10
1.71797550E+02
 20
-1.48986026E+02
 11
1.73297550E+02
 21
-1.50486026E+02
  0
LINE
  8
0
 62
7
 10
1.71797550E+02
 20
-1.48986026E+02
 11
1.71797550E+02
 21
-1.58986026E+02
  0
LINE
  8
0
 62
7
 10
1.71797550E+02
 20
-1.88986026E+02
 11
1.71797550E+02
 21
-1.98986026E+02
  0
LINE
  8
0
 62
7
 10
1.73297550E+02
 20
-1.99286026E+02
 11
2.04554694E+02
 21
-1.99286026E+02
  0
LINE
  8
0
 62
7
 10
2.37297551E+02
 20
-1.32986025E+02
 11
1.75297550E+02
 21
-1.32986025E+02
  0
LINE
  8
0
 62
7
 10
1.73297550E+02
 20
-1.34986025E+02
 11
1.73297550E+02
 21
-1.58986026E+02
  0
LINE
  8
0
 62
7
 10
2.39297551E+02
 20
-1.34986025E+02
 11
2.39297551E+02
 21
-1.58986026E+02
  0
LINE
  8
0
 62
7
 10
2.39297551E+02
 20
-1.99286026E+02
 11
2.39297551E+02
 21
-2.11286027E+02
  0
LINE
  8
0
 62
7
 10
1.73297550E+02
 20
-1.99286026E+02
 11
1.73297550E+02
 21
-2.11286027E+02
  0
LINE
  8
0
 62
7
 10
2.37297551E+02
 20
-2.13286027E+02
 11
2.08040408E+02
 21
-2.13286027E+02
  0
LINE
  8
0
 62
7
 10
1.74054693E+02
 20
-2.06286027E+02
 11
1.83297550E+02
 21
-2.06286027E+02
  0
LINE
  8
0
 62
7
 10
1.83297550E+02
 20
-2.06286027E+02
 11
1.83297550E+02
 21
-2.11286027E+02
  0
LINE
  8
0
  6
CENTER
 62
2
 10
1.78297550E+02
 20
-2.05286027E+02
 11
1.78297550E+02
 21
-2.14286027E+02
  0
LINE
  8
0
 62
7
 10
1.74054693E+02
 20
-1.39986025E+02
 11
1.83297550E+02
 21
-1.39986025E+02
  0
LINE
  8
0
  6
CENTER
 62
2
 10
1.78297550E+02
 20
-1.40986025E+02
 11
1.78297550E+02
 21
-1.31986025E+02
  0
LINE
  8
0
 62
7
 10
1.83297550E+02
 20
-1.39986025E+02
 11
1.83297550E+02
 21
-1.34986025E+02
  0
LINE
  8
0
 62
7
 10
2.29297551E+02
 20
-2.06286027E+02
 11
2.29297551E+02
 21
-2.11286027E+02
  0
LINE
  8
0
 62
7
 10
2.38554694E+02
 20
-2.06286027E+02
 11
2.29297551E+02
 21
-2.06286027E+02
  0
LINE
  8
0
  6
CENTER
 62
2
 10
2.34297551E+02
 20
-2.05286027E+02
 11
2.34297551E+02
 21
-2.14286027E+02
  0
LINE
  8
0
 62
7
 10
2.38554694E+02
 20
-1.39986025E+02
 11
2.29297551E+02
 21
-1.39986025E+02
  0
LINE
  8
0
  6
CENTER
 62
2
 10
2.34297551E+02
 20
-1.40986025E+02
 11
2.34297551E+02
 21
-1.31986025E+02
  0
LINE
  8
0
 62
7
 10
2.29297551E+02
 20
-1.39986025E+02
 11
2.29297551E+02
 21
-1.34986025E+02
  0
LINE
  8
0
 62
7
 10
1.73297550E+02
 20
-1.48986026E+02
 11
2.46740409E+02
 21
-1.48986026E+02
  0
LINE
  8
0
 62
7
 10
1.73297550E+02
 20
-1.98986026E+02
 11
2.04554694E+02
 21
-1.98986026E+02
  0
LINE
  8
0
 62
7
 10
1.74297550E+02
 20
-1.98986026E+02
 11
1.74297550E+02
 21
-1.99286026E+02
  0
LINE
  8
0
 62
7
 10
2.38297551E+02
 20
-1.98986026E+02
 11
2.38297551E+02
 21
-1.99286026E+02
  0
LINE
  8
0
 62
7
 10
1.73297550E+02
 20
-1.88986026E+02
 11
1.73297550E+02
 21
-1.98986026E+02
  0
LINE
  8
0
 62
7
 10
2.39297551E+02
 20
-1.88986026E+02
 11
2.39297551E+02
 21
-1.98986026E+02
  0
LINE
  8
0
  6
CENTER
 62
2
 10
2.31297551E+02
 20
-1.66486026E+02
 11
2.31297551E+02
 21
-1.81486026E+02
  0
LINE
  8
0
  6
CENTER
 62
2
 10
1.81297550E+02
 20
-1.66486026E+02
 11
1.81297550E+02
 21
-1.81486026E+02
  0
LINE
  8
0
 62
7
 10
2.08040408E+02
 20
-1.98986026E+02
 11
2.45097551E+02
 21
-1.98986026E+02
  0
LINE
  8
0
 62
7
 10
2.08040408E+02
 20
-1.99286026E+02
 11
2.39297551E+02
 21
-1.99286026E+02
  0
LINE
  8
0
 62
7
 10
2.04554694E+02
 20
-2.13286027E+02
 11
1.75297550E+02
 21
-2.13286027E+02
  0
LINE
  8
0
 62
7
 10
1.82297550E+02
 20
-2.13286027E+02
 11
1.82297550E+02
 21
-2.24928884E+02
  0
LINE
  8
0
 62
7
 10
2.30297551E+02
 20
-2.13286027E+02
 11
2.30297551E+02
 21
-2.24828884E+02
  0
LINE
  8
0
 62
7
 10
2.30297551E+02
 20
-2.15286027E+02
 11
2.08040408E+02
 21
-2.15286027E+02
  0
LINE
  8
0
 62
7
 10
2.04554694E+02
 20
-2.15286027E+02
 11
1.82297550E+02
 21
-2.15286027E+02
  0
LINE
  8
0
 62
7
 10
1.64968979E+02
 20
-1.98986026E+02
 11
1.72297550E+02
 21
-1.98986026E+02
  0
LINE
  8
0
 62
7
 10
2.89654695E+02
 20
-2.25928884E+02
 11
2.90011838E+02
 21
-2.36386027E+02
  0
LINE
  8
0
 62
7
 10
2.97168981E+02
 20
-1.53486026E+02
 11
2.98783267E+02
 21
-1.51986026E+02
  0
LINE
  8
0
 62
7
 10
2.85583266E+02
 20
-2.13986027E+02
 11
3.15668981E+02
 21
-2.13986027E+02
  0
LINE
  8
0
 62
7
 10
2.85583266E+02
 20
-2.00986026E+02
 11
2.85583266E+02
 21
-2.23986027E+02
  0
LINE
  8
0
 62
7
 10
2.95654695E+02
 20
-1.97057455E+02
 11
2.95926124E+02
 21
-1.88986026E+02
  0
LINE
  8
0
 62
7
 10
2.87583266E+02
 20
-2.07586027E+02
 11
3.02233266E+02
 21
-2.07586027E+02
  0
LINE
  8
0
  6
CENTER
 62
2
 10
2.95583267E+02
 20
-1.94986026E+02
 11
2.95583267E+02
 21
-2.11586027E+02
  0
LINE
  8
0
 62
7
 10
2.87583266E+02
 20
-1.98986026E+02
 11
3.02233266E+02
 21
-1.98986026E+02
  0
LINE
  8
0
 62
7
 10
3.15668981E+02
 20
-2.23986027E+02
 11
2.85583266E+02
 21
-2.23986027E+02
  0
LINE
  8
0
 62
7
 10
2.98783267E+02
 20
-1.51986026E+02
 11
3.07583267E+02
 21
-1.51986026E+02
  0
LINE
  8
0
 62
7
 10
2.97168981E+02
 20
-1.53486026E+02
 11
3.07583267E+02
 21
-1.53486026E+02
  0
LINE
  8
0
 62
7
 10
3.20583267E+02
 20
-1.98986026E+02
 11
3.40583267E+02
 21
-1.98986026E+02
  0
LINE
  8
0
 62
7
 10
2.96983267E+02
 20
-1.58986026E+02
 11
2.97168981E+02
 21
-1.53486026E+02
  0
LINE
  8
0
 62
7
 10
3.05933266E+02
 20
-1.98986026E+02
 11
3.07583267E+02
 21
-1.98986026E+02
  0
LINE
  8
0
 62
7
 10
2.89083266E+02
 20
-2.00086026E+02
 11
2.89083266E+02
 21
-2.07586027E+02
  0
LINE
  8
0
 62
7
 10
2.89083266E+02
 20
-2.00086026E+02
 11
2.89954695E+02
 21
-1.99586026E+02
  0
LINE
  8
0
 62
7
 10
3.02111838E+02
 20
-2.00086026E+02
 11
2.89083266E+02
 21
-2.00086026E+02
  0
LINE
  8
0
 62
7
 10
3.01211838E+02
 20
-1.99586026E+02
 11
2.89954695E+02
 21
-1.99586026E+02
  0
LINE
  8
0
 62
7
 10
3.02111838E+02
 20
-2.00086026E+02
 11
3.01211838E+02
 21
-1.99586026E+02
  0
ARC
  8
0
 62
7
 10
3.40583267E+02
 20
-1.73993169E+02
 40
1.20642873E+01
 50
9.00000002E+01
 51
2.70000000E+02
  0
ARC
  8
0
 62
2
 10
3.40583267E+02
 20
-1.73993169E+02
 40
1.32214301E+01
 50
9.00000002E+01
 51
2.70000000E+02
  0
ARC
  8
0
 62
7
 10
3.09592415E+02
 20
-1.34995173E+02
 40
2.00916869E+00
 50
9.02608713E+01
 51
1.79739129E+02
  0
ARC
  8
0
 62
7
 10
3.09580080E+02
 20
-2.11289214E+02
 40
1.99681561E+00
 50
1.79908555E+02
 51
2.70091445E+02
  0
ARC
  8
0
 62
7
 10
3.20592381E+02
 20
-1.53995139E+02
 40
5.00912198E+00
 50
9.01042441E+01
 51
1.79895756E+02
  0
ARC
  8
0
 62
7
 10
3.20580033E+02
 20
-1.93989260E+02
 40
4.99676714E+00
 50
1.79962917E+02
 51
2.70037083E+02
  0
ARC
  8
0
 62
7
 10
3.24838699E+02
 20
-1.98498601E+02
 40
4.87587251E-01
 50
2.68522171E+02
 51
1.47782949E+00
  0
ARC
  8
0
 62
7
 10
3.27338699E+02
 20
-1.95998601E+02
 40
2.01261432E+00
 50
9.03579917E+01
 51
1.79642008E+02
  0
ARC
  8
0
 62
7
 10
3.08083622E+02
 20
-1.58242813E+02
 40
5.00355562E-01
 50
1.80040700E+02
 51
2.70000000E+02
  0
ARC
  8
0
 62
7
 10
3.08088804E+02
 20
-1.89748706E+02
 40
5.05567193E-01
 50
9.06275036E+01
 51
1.79372496E+02
  0
ARC
  8
0
 62
7
 10
3.24826186E+02
 20
-1.49485964E+02
 40
4.99937975E-01
 50
3.59992890E+02
 51
9.00000002E+01
  0
ARC
  8
0
 62
7
 10
3.27326384E+02
 20
-1.51985766E+02
 40
2.00025973E+00
 50
1.80007439E+02
 51
2.70000000E+02
  0
ARC
  8
0
 62
7
 10
3.40583267E+02
 20
-1.73986026E+02
 40
7.00000257E+00
 50
9.00000002E+01
 51
2.70000000E+02
  0
ARC
  8
0
 62
7
 10
3.40589127E+02
 20
-1.78386026E+02
 40
1.10001563E+00
 50
9.03052142E+01
 51
2.69694786E+02
  0
ARC
  8
0
 62
7
 10
3.40583267E+02
 20
-1.78386026E+02
 40
1.80000957E+00
 50
9.00000002E+01
 51
2.70000000E+02
  0
ARC
  8
0
 62
7
 10
3.09580075E+02
 20
-2.04289218E+02
 40
1.99681128E+00
 50
1.79908430E+02
 51
2.70091570E+02
  0
ARC
  8
0
 62
7
 10
3.19580080E+02
 20
-2.11289214E+02
 40
1.99681561E+00
 50
1.79908555E+02
 51
2.70091445E+02
  0
ARC
  8
0
 62
7
 10
3.09592410E+02
 20
-1.41995169E+02
 40
2.00916431E+00
 50
9.02607470E+01
 51
1.79739253E+02
  0
ARC
  8
0
 62
7
 10
3.19592415E+02
 20
-1.34995173E+02
 40
2.00916869E+00
 50
9.02608713E+01
 51
1.79739129E+02
  0
ARC
  8
0
 62
7
 10
1.72294321E+02
 20
-1.99989256E+02
 40
1.00323447E+00
 50
1.84426735E-01
 51
8.98155731E+01
  0
ARC
  8
0
 62
7
 10
1.75306731E+02
 20
-1.34995206E+02
 40
2.00920152E+00
 50
9.02617989E+01
 51
1.79738201E+02
  0
ARC
  8
0
 62
7
 10
2.37294234E+02
 20
-1.34989343E+02
 40
2.00332019E+00
 50
9.48793632E-02
 51
8.99051207E+01
  0
ARC
  8
0
 62
7
 10
2.37306627E+02
 20
-2.11295102E+02
 40
1.99094531E+00
 50
2.69738826E+02
 51
2.61174508E-01
  0
ARC
  8
0
 62
7
 10
1.75294374E+02
 20
-2.11289203E+02
 40
1.99682665E+00
 50
1.79908872E+02
 51
2.70091128E+02
  0
ARC
  8
0
 62
7
 10
1.75294370E+02
 20
-2.04289207E+02
 40
1.99682231E+00
 50
1.79908748E+02
 51
2.70091253E+02
  0
ARC
  8
0
 62
7
 10
1.85294374E+02
 20
-2.11289203E+02
 40
1.99682665E+00
 50
1.79908872E+02
 51
2.70091128E+02
  0
ARC
  8
0
 62
7
 10
1.75306726E+02
 20
-1.41995202E+02
 40
2.00919713E+00
 50
9.02616746E+01
 51
1.79738325E+02
  0
ARC
  8
0
 62
7
 10
1.85306731E+02
 20
-1.34995206E+02
 40
2.00920152E+00
 50
9.02617989E+01
 51
1.79738201E+02
  0
ARC
  8
0
 62
7
 10
2.27306626E+02
 20
-2.11295102E+02
 40
1.99094531E+00
 50
2.69738826E+02
 51
2.61174508E-01
  0
ARC
  8
0
 62
7
 10
2.37306631E+02
 20
-2.04295106E+02
 40
1.99094098E+00
 50
2.69738700E+02
 51
2.61300335E-01
  0
ARC
  8
0
 62
7
 10
2.37294238E+02
 20
-1.41989338E+02
 40
2.00331581E+00
 50
9.47543163E-02
 51
8.99052456E+01
  0
ARC
  8
0
 62
7
 10
2.27294234E+02
 20
-1.34989343E+02
 40
2.00332019E+00
 50
9.48793632E-02
 51
8.99051207E+01
  0
ARC
  8
0
 62
7
 10
1.89794299E+02
 20
-1.59989277E+02
 40
1.00325694E+00
 50
1.85701645E-01
 51
8.98142983E+01
  0
ARC
  8
0
 62
7
 10
1.89806701E+02
 20
-1.87995177E+02
 40
9.90891222E-01
 50
2.69470856E+02
 51
5.29143937E-01
  0
ARC
  8
0
 62
7
 10
2.22806712E+02
 20
-1.59995187E+02
 40
1.00920295E+00
 50
9.05201273E+01
 51
1.79479873E+02
  0
ARC
  8
0
 62
7
 10
2.22794383E+02
 20
-1.87989194E+02
 40
9.96837232E-01
 50
1.79817921E+02
 51
2.70182079E+02
  0
CIRCLE
  8
0
 62
7
 10
2.31303411E+02
 20
-1.73998370E+02
 40
5.49999928E+00
  0
CIRCLE
  8
0
 62
7
 10
1.81303540E+02
 20
-1.73998370E+02
 40
5.49999928E+00
  0
ARC
  8
0
 62
7
 10
2.93662922E+02
 20
-1.96993235E+02
 40
1.99280796E+00
 50
2.69763460E+02
 51
3.58153287E+02
  0
ARC
  8
0
 62
7
 10
2.87592286E+02
 20
-2.00995046E+02
 40
2.00903963E+00
 50
9.02572239E+01
 51
1.79742776E+02
  0
ARC
  8
0
 62
7
 10
2.87592300E+02
 20
-2.09595060E+02
 40
2.00905367E+00
 50
9.02576203E+01
 51
1.79742380E+02
  0
ARC
  8
0
 62
7
 10
2.87650404E+02
 20
-2.25991284E+02
 40
2.00526188E+00
 50
1.78322861E+00
 51
8.98774021E+01
  0
LINE
  8
0
 62
7
 10
1.90797550E+02
 20
-1.59986026E+02
 11
1.90797550E+02
 21
-1.87986026E+02
  0
LINE
  8
0
 62
7
 10
2.21797551E+02
 20
-1.59986026E+02
 11
2.21797551E+02
 21
-1.87986026E+02
  0
ARC
  8
0
 62
7
 10
2.22797544E+02
 20
-1.87986033E+02
 40
9.99993478E-01
 50
1.79999625E+02
 51
2.70000000E+02
  0
ARC
  8
0
 62
7
 10
1.89797535E+02
 20
-1.87986011E+02
 40
1.00001528E+00
 50
2.70000000E+02
 51
3.59999126E+02
  0
LINE
  8
0
  6
CENTER
 62
2
 10
3.04083266E+02
 20
-2.14617710E+02
 11
3.04083266E+02
 21
-1.81142875E+02
  0
LINE
  8
0
 62
7
 10
3.02111838E+02
 20
-2.07586027E+02
 11
3.02111838E+02
 21
-2.00086026E+02
  0
CIRCLE
  8
0
 62
7
 10
2.31303411E+02
 20
-1.73998370E+02
 40
2.89829731E+00
  0
CIRCLE
  8
0
 62
7
 10
2.31303411E+02
 20
-1.73998370E+02
 40
3.96076870E+00
  0
CIRCLE
  8
0
 62
7
 10
2.31303411E+02
 20
-1.73998370E+02
 40
5.00000000E+00
  0
LINE
  8
0
 62
7
 10
2.28793411E+02
 20
-1.75438370E+02
 11
2.31303411E+02
 21
-1.76888370E+02
  0
LINE
  8
0
 62
7
 10
2.31303411E+02
 20
-1.71108370E+02
 11
2.33813411E+02
 21
-1.72558370E+02
  0
LINE
  8
0
 62
7
 10
2.31303411E+02
 20
-1.76888370E+02
 11
2.33813411E+02
 21
-1.75438370E+02
  0
LINE
  8
0
 62
7
 10
2.28793411E+02
 20
-1.72558370E+02
 11
2.31303411E+02
 21
-1.71108370E+02
  0
LINE
  8
0
 62
7
 10
2.33813411E+02
 20
-1.72558370E+02
 11
2.33813411E+02
 21
-1.75438370E+02
  0
LINE
  8
0
 62
7
 10
2.28793411E+02
 20
-1.72558370E+02
 11
2.28793411E+02
 21
-1.75438370E+02
  0
CIRCLE
  8
0
 62
7
 10
1.81303540E+02
 20
-1.73998370E+02
 40
2.89829731E+00
  0
CIRCLE
  8
0
 62
7
 10
1.81303540E+02
 20
-1.73998370E+02
 40
3.96076870E+00
  0
CIRCLE
  8
0
 62
7
 10
1.81303540E+02
 20
-1.73998370E+02
 40
5.00000000E+00
  0
LINE
  8
0
 62
7
 10
1.78793540E+02
 20
-1.75438370E+02
 11
1.81303540E+02
 21
-1.76888370E+02
  0
LINE
  8
0
 62
7
 10
1.81303540E+02
 20
-1.71108370E+02
 11
1.83813540E+02
 21
-1.72558370E+02
  0
LINE
  8
0
 62
7
 10
1.81303540E+02
 20
-1.76888370E+02
 11
1.83813540E+02
 21
-1.75438370E+02
  0
LINE
  8
0
 62
7
 10
1.78793540E+02
 20
-1.72558370E+02
 11
1.81303540E+02
 21
-1.71108370E+02
  0
LINE
  8
0
 62
7
 10
1.83813540E+02
 20
-1.72558370E+02
 11
1.83813540E+02
 21
-1.75438370E+02
  0
LINE
  8
0
 62
7
 10
1.78793540E+02
 20
-1.72558370E+02
 11
1.78793540E+02
 21
-1.75438370E+02
  0
LINE
  8
0
 62
7
 10
3.16838985E+02
 20
-2.10998373E+02
 11
3.16838987E+02
 21
-2.06298373E+02
  0
LINE
  8
0
 62
7
 10
3.16838985E+02
 20
-2.10998373E+02
 11
3.16318985E+02
 21
-2.11298373E+02
  0
LINE
  8
0
 62
7
 10
3.08338985E+02
 20
-2.10998370E+02
 11
3.16838985E+02
 21
-2.10998373E+02
  0
LINE
  8
0
 62
7
 10
3.08858985E+02
 20
-2.11298370E+02
 11
3.16318985E+02
 21
-2.11298373E+02
  0
LINE
  8
0
 62
7
 10
3.08338985E+02
 20
-2.10998370E+02
 11
3.08858985E+02
 21
-2.11298370E+02
  0
LINE
  8
0
 62
7
 10
3.08338985E+02
 20
-2.10998370E+02
 11
3.08338987E+02
 21
-2.06298370E+02
  0
LINE
  8
0
 62
7
 10
3.08338985E+02
 20
-1.35298388E+02
 11
3.08338987E+02
 21
-1.39998388E+02
  0
LINE
  8
0
 62
7
 10
3.08338985E+02
 20
-1.35298388E+02
 11
3.08858985E+02
 21
-1.34998388E+02
  0
LINE
  8
0
 62
7
 10
3.16838985E+02
 20
-1.35298385E+02
 11
3.08338985E+02
 21
-1.35298388E+02
  0
LINE
  8
0
 62
7
 10
3.16318985E+02
 20
-1.34998386E+02
 11
3.08858985E+02
 21
-1.34998388E+02
  0
LINE
  8
0
 62
7
 10
3.16838985E+02
 20
-1.35298385E+02
 11
3.16318985E+02
 21
-1.34998386E+02
  0
LINE
  8
0
 62
7
 10
3.16838985E+02
 20
-1.35298385E+02
 11
3.16838987E+02
 21
-1.39998385E+02
  0
LINE
  8
0
 62
7
 10
1.82553487E+02
 20
-2.10998394E+02
 11
1.82553488E+02
 21
-2.06298394E+02
  0
LINE
  8
0
 62
7
 10
1.82553487E+02
 20
-2.10998394E+02
 11
1.82033487E+02
 21
-2.11298394E+02
  0
LINE
  8
0
 62
7
 10
1.74053487E+02
 20
-2.10998392E+02
 11
1.82553487E+02
 21
-2.10998394E+02
  0
LINE
  8
0
 62
7
 10
1.74573487E+02
 20
-2.11298392E+02
 11
1.82033487E+02
 21
-2.11298394E+02
  0
LINE
  8
0
 62
7
 10
1.74053487E+02
 20
-2.10998392E+02
 11
1.74573487E+02
 21
-2.11298392E+02
  0
LINE
  8
0
 62
7
 10
1.74053487E+02
 20
-2.10998392E+02
 11
1.74053488E+02
 21
-2.06298392E+02
  0
LINE
  8
0
 62
7
 10
2.38553200E+02
 20
-2.10998394E+02
 11
2.38553201E+02
 21
-2.06298394E+02
  0
LINE
  8
0
 62
7
 10
2.38553200E+02
 20
-2.10998394E+02
 11
2.38033200E+02
 21
-2.11298394E+02
  0
LINE
  8
0
 62
7
 10
2.30053200E+02
 20
-2.10998392E+02
 11
2.38553200E+02
 21
-2.10998394E+02
  0
LINE
  8
0
 62
7
 10
2.30573200E+02
 20
-2.11298392E+02
 11
2.38033200E+02
 21
-2.11298394E+02
  0
LINE
  8
0
 62
7
 10
2.30053200E+02
 20
-2.10998392E+02
 11
2.30573200E+02
 21
-2.11298392E+02
  0
LINE
  8
0
 62
7
 10
2.30053200E+02
 20
-2.10998392E+02
 11
2.30053201E+02
 21
-2.06298392E+02
  0
LINE
  8
0
 62
7
 10
2.30053200E+02
 20
-1.35298410E+02
 11
2.30053201E+02
 21
-1.39998410E+02
  0
LINE
  8
0
 62
7
 10
2.30053200E+02
 20
-1.35298410E+02
 11
2.30573200E+02
 21
-1.34998410E+02
  0
LINE
  8
0
 62
7
 10
2.38553200E+02
 20
-1.35298407E+02
 11
2.30053200E+02
 21
-1.35298410E+02
  0
LINE
  8
0
 62
7
 10
2.38033200E+02
 20
-1.34998407E+02
 11
2.30573200E+02
 21
-1.34998410E+02
  0
LINE
  8
0
 62
7
 10
2.38553200E+02
 20
-1.35298407E+02
 11
2.38033200E+02
 21
-1.34998407E+02
  0
LINE
  8
0
 62
7
 10
2.38553200E+02
 20
-1.35298407E+02
 11
2.38553201E+02
 21
-1.39998407E+02
  0
LINE
  8
0
 62
7
 10
1.74053487E+02
 20
-1.35298410E+02
 11
1.74053488E+02
 21
-1.39998410E+02
  0
LINE
  8
0
 62
7
 10
1.74053487E+02
 20
-1.35298410E+02
 11
1.74573487E+02
 21
-1.34998410E+02
  0
LINE
  8
0
 62
7
 10
1.82553487E+02
 20
-1.35298407E+02
 11
1.74053487E+02
 21
-1.35298410E+02
  0
LINE
  8
0
 62
7
 10
1.82033487E+02
 20
-1.34998407E+02
 11
1.74573487E+02
 21
-1.34998410E+02
  0
LINE
  8
0
 62
7
 10
1.82553487E+02
 20
-1.35298407E+02
 11
1.82033487E+02
 21
-1.34998407E+02
  0
LINE
  8
0
 62
7
 10
1.82553487E+02
 20
-1.35298407E+02
 11
1.82553488E+02
 21
-1.39998407E+02
  0
LINE
  8
0
 62
7
 10
2.79799927E+02
 20
-2.56750000E+02
 11
3.99799805E+02
 21
-2.56750000E+02
  0
LINE
  8
0
 62
7
 10
2.79799927E+02
 20
-2.56750000E+02
 11
2.79799927E+02
 21
-2.76750000E+02
  0
TEXT
  8
0
 62
7
 10
2.87585240E+02
 20
-2.71250000E+02
 40
9.00000000E+00
  1
KOGANEI CORP.
 41
1.04838710E+00
  7
MONOTXT
  0
TEXT
  8
0
 62
7
 10
3.15499645E+02
 20
2.63100000E+02
 40
6.30000019E+00
  1
Ver. 1.0
 41
1.08108108E+00
  7
MONOTXT
  0
LINE
  8
0
 62
7
 10
2.79799927E+02
 20
2.56250000E+02
 11
3.99799805E+02
 21
2.56250000E+02
  0
LINE
  8
0
 62
7
 10
2.79799927E+02
 20
2.76250000E+02
 11
2.79799927E+02
 21
2.56250000E+02
  0
TEXT
  8
0
 62
7
 10
-3.85600562E+02
 20
2.38100000E+02
 40
6.30000019E+00
  1
MODEL:CZ900-06-G1B
 41
1.00000000E+00
  7
MONOTXT
  0
LINE
  8
0
 62
7
 10
-3.99250000E+02
 20
-2.76750000E+02
 11
3.99799805E+02
 21
-2.76750000E+02
  0
LINE
  8
0
 62
7
 10
-3.99250000E+02
 20
2.76250000E+02
 11
3.99799805E+02
 21
2.76250000E+02
  0
LINE
  8
0
 62
7
 10
-3.99250000E+02
 20
2.76250000E+02
 11
-3.99250000E+02
 21
-2.76750000E+02
  0
LINE
  8
0
 62
7
 10
3.99799805E+02
 20
2.76250000E+02
 11
3.99799805E+02
 21
-2.76750000E+02
  0
ENDSEC
  0
EOF
