  0
SECTION
  2
HEADER
  9
$ACADVER
  1
AC1002
  9
$INSBASE
 10
0.0
 20
0.0
  9
$EXTMIN
 10
-185.4368
 20
-127.2792
  9
$EXTMAX
 10
185.4368
 20
127.2792
  9
$LIMMIN
 10
0.0
 20
0.0
  9
$LIMMAX
 10
12.0
 20
9.0
  9
$VIEWCTR
 10
14.30458208
 20
0.0
  9
$VIEWSIZE
 40
254.5584
  9
$SNAPMODE
 70
     0
  9
$SNAPUNIT
 10
1.0
 20
1.0
  9
$SNAPBASE
 10
0.0
 20
0.0
  9
$SNAPANG
 50
0.0
  9
$SNAPSTYLE
 70
     0
  9
$SNAPISOPAIR
 70
     0
  9
$GRIDMODE
 70
     0
  9
$GRIDUNIT
 10
0.0
 20
0.0
  9
$ORTHOMODE
 70
     0
  9
$REGENMODE
 70
     1
  9
$FILLMODE
 70
     1
  9
$QTEXTMODE
 70
     0
  9
$DRAGMODE
 70
     2
  9
$LTSCALE
 40
1.0
  9
$OSMODE
 70
     0
  9
$ATTMODE
 70
     1
  9
$TEXTSIZE
 40
0.2
  9
$TRACEWID
 40
0.05
  9
$TEXTSTYLE
  7
AAA
  9
$CLAYER
  8
0
  9
$CELTYPE
  6
BYLAYER
  9
$CECOLOR
 62
   256
  9
$DIMSCALE
 40
1.0
  9
$DIMASZ
 40
0.18
  9
$DIMEXO
 40
0.0625
  9
$DIMDLI
 40
0.38
  9
$DIMRND
 40
0.0
  9
$DIMDLE
 40
0.0
  9
$DIMEXE
 40
0.18
  9
$DIMTP
 40
0.0
  9
$DIMTM
 40
0.0
  9
$DIMTXT
 40
0.18
  9
$DIMCEN
 40
0.09
  9
$DIMTSZ
 40
0.0
  9
$DIMTOL
 70
     0
  9
$DIMLIM
 70
     0
  9
$DIMTIH
 70
     1
  9
$DIMTOH
 70
     1
  9
$DIMSE1
 70
     0
  9
$DIMSE2
 70
     0
  9
$DIMTAD
 70
     0
  9
$DIMZIN
 70
     0
  9
$DIMBLK
  1

  9
$LUNITS
 70
     2
  9
$LUPREC
 70
     4
  9
$AXISMODE
 70
     0
  9
$AXISUNIT
 10
0.0
 20
0.0
  9
$SKETCHINC
 40
0.1
  9
$FILLETRAD
 40
0.0
  9
$AUNITS
 70
     0
  9
$AUPREC
 70
     0
  9
$MENU
  1
ACAD
  9
$ELEVATION
 40
0.0
  9
$THICKNESS
 40
0.0
  9
$VIEWDIR
 10
0.0
 20
0.0
 30
1.0
  9
$LIMCHECK
 70
     0
  9
$BLIPMODE
 70
     1
  9
$CHAMFERA
 40
0.0
  9
$CHAMFERB
 40
0.0
  9
$FASTZOOM
 70
     1
  9
$SKPOLY
 70
     0
  9
$TDCREATE
 40
2447797.5486574572
  9
$TDUPDATE
 40
2447797.5486574572
  9
$TDINDWG
 40
0.0010995370
  9
$TDUSRTIMER
 40
0.0010995370
  9
$USRTIMER
 70
     1
  9
$ANGBASE
 50
0.0
  9
$ANGDIR
 70
     0
  9
$PDMODE
 70
     0
  9
$PDSIZE
 40
0.0
  9
$PLINEWID
 40
0.0
  9
$COORDS
 70
     0
  9
$USERI1
 70
     0
  9
$USERI2
 70
     0
  9
$USERI3
 70
     0
  9
$USERI4
 70
     0
  9
$USERI5
 70
     0
  9
$USERR1
 40
0.0
  9
$USERR2
 40
0.0
  9
$USERR3
 40
0.0
  9
$USERR4
 40
0.0
  9
$USERR5
 40
0.0
  0
ENDSEC
  0
SECTION
  2
TABLES
  0
TABLE
  2
LTYPE
 70
     4
  0
LTYPE
  2
CONTINUOUS
 70
    64
  3
SOLID
 72
    65
 73
     0
 40
0.0
  0
LTYPE
  2
DASHED
 70
    64
  3
DASHED
 72
    65
 73
     2
 40
0.75
 49
0.5
 49
-0.25
  0
LTYPE
  2
CENTER
 70
    64
  3
CENTER
 72
    65
 73
     4
 40
2.0
 49
1.25
 49
-0.25
 49
0.25
 49
-0.25
  0
LTYPE
  2
PHANTOM
 70
    64
  3
PHANTOM
 72
    65
 73
     6
 40
2.5
 49
1.25
 49
-0.25
 49
0.25
 49
-0.25
 49
0.25
 49
-0.25
  0
ENDTAB
  0
TABLE
  2
LAYER
 70
     1
  0
LAYER
  2
0
 70
    64
 62
     7
  6
CONTINUOUS
  0
ENDTAB
  0
TABLE
  2
STYLE
 70
     2
  0
STYLE
  2
AAA
 70
     0
 40
0.0
 41
1.0
 50
0.0
 71
     0
 42
0.2
  3
TXT
  4

  0
STYLE
  2
STANDARD
 70
    64
 40
0.0
 41
1.0
 50
0.0
 71
     0
 42
0.2
  3
TXT
  4
BIGFONT
  0
ENDTAB
  0
TABLE
  2
VIEW
 70
     0
  0
ENDTAB
  0
ENDSEC
  0
SECTION
  2
BLOCKS
  0
ENDSEC
  0
SECTION
  2
ENTITIES
  0
POINT
  8
0
  6
CONTINUOUS
 62
     7
 10
140.0
 20
3.4641
  0
POINT
  8
0
  6
CONTINUOUS
 62
     7
 10
-56.0
 20
0.0
  0
POINT
  8
0
  6
CONTINUOUS
 62
     7
 10
-56.0
 20
60.0
  0
POINT
  8
0
  6
CONTINUOUS
 62
     7
 10
44.0
 20
-80.0
  0
POINT
  8
0
  6
CONTINUOUS
 62
     7
 10
-76.0
 20
-80.0
  0
POINT
  8
0
  6
CONTINUOUS
 62
     7
 10
-136.0
 20
0.0
  0
POINT
  8
0
  6
CONTINUOUS
 62
     7
 10
144.0
 20
0.0
  0
POINT
  8
0
  6
CONTINUOUS
 62
     7
 10
-56.0
 20
0.0
  0
POINT
  8
0
  6
CONTINUOUS
 62
     7
 10
-36.0
 20
-79.99998
  0
POINT
  8
0
  6
CONTINUOUS
 62
     7
 10
-31.0
 20
-80.0
  0
POINT
  8
0
  6
CONTINUOUS
 62
     7
 10
86.5
 20
-79.99998
  0
POINT
  8
0
  6
CONTINUOUS
 62
     7
 10
94.0
 20
-80.0
  0
LINE
  8
0
  6
CENTER
 62
     2
 10
-136.0
 20
-16.5
 11
-136.0
 21
16.5
  0
LINE
  8
0
  6
CENTER
 62
     2
 10
-152.5
 20
0.0
 11
-119.5
 21
0.0
  0
LINE
  8
0
  6
CENTER
 62
     2
 10
127.5
 20
0.0
 11
160.5
 21
0.0
  0
LINE
  8
0
  6
CENTER
 62
     2
 10
144.0
 20
16.5
 11
144.0
 21
-16.5
  0
LINE
  8
0
  6
CONTINUOUS
 62
     7
 10
138.0
 20
8.0
 11
138.0
 21
-8.0
  0
LINE
  8
0
  6
CONTINUOUS
 62
     7
 10
150.0
 20
8.0
 11
150.0
 21
-8.0
  0
LINE
  8
0
  6
DASHED
 62
     7
 10
138.0
 20
4.0
 11
150.0
 21
4.0
  0
LINE
  8
0
  6
DASHED
 62
     7
 10
138.0
 20
-4.0
 11
150.0
 21
-4.0
  0
LINE
  8
0
  6
CONTINUOUS
 62
     7
 10
-67.99996
 20
-9.00003
 11
-66.99994
 21
-10.00004
  0
LINE
  8
0
  6
CONTINUOUS
 62
     7
 10
-68.00001
 20
8.99999
 11
-67.00001
 21
9.99999
  0
LINE
  8
0
  6
CONTINUOUS
 62
     7
 10
-74.0
 20
-2.64574
 11
-74.0
 21
2.64577
  0
LINE
  8
0
  6
CONTINUOUS
 62
     7
 10
-69.0
 20
-2.64574
 11
-69.0
 21
2.64577
  0
LINE
  8
0
  6
CONTINUOUS
 62
     7
 10
-74.0
 20
2.64577
 11
-69.0
 21
2.64577
  0
LINE
  8
0
  6
CONTINUOUS
 62
     7
 10
-74.0
 20
-2.64574
 11
-69.0
 21
-2.64574
  0
LINE
  8
0
  6
CONTINUOUS
 62
     7
 10
-74.00001
 20
-2.64571
 11
-69.00002
 21
2.64579
  0
LINE
  8
0
  6
CONTINUOUS
 62
     7
 10
-74.00002
 20
2.64579
 11
-69.00003
 21
-2.64572
  0
LINE
  8
0
  6
CONTINUOUS
 62
     7
 10
-68.0
 20
-8.99998
 11
-68.0
 21
9.00002
  0
LINE
  8
0
  6
CONTINUOUS
 62
     7
 10
-56.0
 20
-13.49998
 11
-56.0
 21
13.50002
  0
LINE
  8
0
  6
CONTINUOUS
 62
     7
 10
-38.0
 20
10.7
 11
-38.0
 21
-10.7
  0
LINE
  8
0
  6
CONTINUOUS
 62
     7
 10
-56.0
 20
13.50002
 11
-40.0
 21
13.50002
  0
LINE
  8
0
  6
CONTINUOUS
 62
     7
 10
-56.0
 20
-13.49998
 11
-40.0
 21
-13.49998
  0
LINE
  8
0
  6
CONTINUOUS
 62
     7
 10
-67.0
 20
-9.99998
 11
-56.0
 21
-9.99998
  0
LINE
  8
0
  6
CONTINUOUS
 62
     7
 10
-68.0
 20
-8.99998
 11
-58.0
 21
-8.99998
  0
LINE
  8
0
  6
CONTINUOUS
 62
     7
 10
-56.0
 20
10.00002
 11
-67.00002
 21
10.00002
  0
LINE
  8
0
  6
CONTINUOUS
 62
     7
 10
-68.0
 20
9.00002
 11
-58.0
 21
9.00002
  0
LINE
  8
0
  6
CONTINUOUS
 62
     7
 10
-68.00002
 20
4.00001
 11
-90.0
 21
4.00003
  0
LINE
  8
0
  6
CONTINUOUS
 62
     7
 10
-76.0
 20
-3.99998
 11
-76.0
 21
4.00002
  0
LINE
  8
0
  6
CONTINUOUS
 62
     7
 10
-67.00002
 20
10.00002
 11
-67.00004
 21
-9.99998
  0
LINE
  8
0
  6
CONTINUOUS
 62
     7
 10
-58.0
 20
10.00002
 11
-58.0
 21
-9.99998
  0
LINE
  8
0
  6
CONTINUOUS
 62
     7
 10
-58.00005
 20
9.00007
 11
-56.268
 21
10.00008
  0
LINE
  8
0
  6
CONTINUOUS
 62
     7
 10
-58.00001
 20
-8.99999
 11
-56.26796
 21
-9.99997
  0
LINE
  8
0
  6
CONTINUOUS
 62
     7
 10
-91.0
 20
3.00002
 11
-91.0
 21
-2.99998
  0
LINE
  8
0
  6
CONTINUOUS
 62
     7
 10
-90.99995
 20
2.99999
 11
-89.99995
 21
4.0
  0
LINE
  8
0
  6
CONTINUOUS
 62
     7
 10
-90.99996
 20
-3.00004
 11
-89.99998
 21
-4.00003
  0
LINE
  8
0
  6
CONTINUOUS
 62
     7
 10
-75.99997
 20
2.99997
 11
-74.26791
 21
3.99996
  0
LINE
  8
0
  6
CONTINUOUS
 62
     7
 10
-76.00005
 20
-2.99995
 11
-74.26801
 21
-3.99995
  0
LINE
  8
0
  6
CONTINUOUS
 62
     7
 10
-90.0
 20
4.00002
 11
-90.0
 21
-3.99998
  0
LINE
  8
0
  6
CONTINUOUS
 62
     7
 10
-91.0
 20
-2.99998
 11
-76.0
 21
-2.99998
  0
LINE
  8
0
  6
CONTINUOUS
 62
     7
 10
-91.0
 20
3.00002
 11
-76.0
 21
3.00002
  0
LINE
  8
0
  6
CONTINUOUS
 62
     7
 10
-90.0
 20
-3.99998
 11
-68.0
 21
-3.99998
  0
LINE
  8
0
  6
CENTER
 62
     2
 10
-48.0
 20
16.5
 11
-48.0
 21
4.45001
  0
LINE
  8
0
  6
CONTINUOUS
 62
     7
 10
70.0
 20
-13.5
 11
70.0
 21
13.5
  0
LINE
  8
0
  6
CONTINUOUS
 62
     7
 10
52.0
 20
10.7
 11
52.0
 21
-10.7
  0
LINE
  8
0
  6
CONTINUOUS
 62
     7
 10
70.0
 20
13.5
 11
54.0
 21
13.5
  0
LINE
  8
0
  6
CONTINUOUS
 62
     7
 10
70.0
 20
-13.5
 11
54.0
 21
-13.5
  0
LINE
  8
0
  6
CONTINUOUS
 62
     7
 10
91.0
 20
-8.99998
 11
91.0
 21
9.00002
  0
LINE
  8
0
  6
CONTINUOUS
 62
     7
 10
72.0
 20
-10.0
 11
72.0
 21
-8.0
  0
LINE
  8
0
  6
CONTINUOUS
 62
     7
 10
71.0
 20
-8.0
 11
71.0
 21
8.0
  0
LINE
  8
0
  6
CONTINUOUS
 62
     7
 10
71.0
 20
8.0
 11
91.00003
 21
8.00002
  0
LINE
  8
0
  6
CONTINUOUS
 62
     7
 10
70.99998
 20
-8.0
 11
91.0
 21
-7.99999
  0
LINE
  8
0
  6
CONTINUOUS
 62
     7
 10
70.0
 20
-10.0
 11
70.0
 21
10.0
  0
LINE
  8
0
  6
CONTINUOUS
 62
     7
 10
70.0
 20
10.0
 11
90.16092
 21
10.00001
  0
LINE
  8
0
  6
CONTINUOUS
 62
     7
 10
91.0
 20
9.00002
 11
72.0
 21
9.00002
  0
LINE
  8
0
  6
CONTINUOUS
 62
     7
 10
71.99998
 20
-9.0
 11
91.0
 21
-8.99998
  0
LINE
  8
0
  6
CONTINUOUS
 62
     7
 10
90.16092
 20
-9.99998
 11
69.99998
 21
-10.0
  0
LINE
  8
0
  6
CONTINUOUS
 62
     7
 10
72.0
 20
8.0
 11
72.0
 21
10.0
  0
LINE
  8
0
  6
CONTINUOUS
 62
     7
 10
91.00024
 20
9.00005
 11
90.16113
 21
10.00004
  0
LINE
  8
0
  6
CONTINUOUS
 62
     7
 10
91.00005
 20
-9.00004
 11
90.16093
 21
-10.0
  0
LINE
  8
0
  6
CONTINUOUS
 62
     7
 10
90.16092
 20
-9.99998
 11
90.16092
 21
-7.99998
  0
LINE
  8
0
  6
CONTINUOUS
 62
     7
 10
72.00006
 20
9.00004
 11
70.26801
 21
10.00002
  0
LINE
  8
0
  6
CONTINUOUS
 62
     7
 10
71.99998
 20
-8.99996
 11
70.26792
 21
-9.99997
  0
LINE
  8
0
  6
CENTER
 62
     2
 10
82.0
 20
7.0
 11
82.0
 21
-7.0
  0
LINE
  8
0
  6
CENTER
 62
     2
 10
-94.0
 20
0.0
 11
94.0
 21
0.0
  0
LINE
  8
0
  6
CONTINUOUS
 62
     7
 10
90.16092
 20
8.00002
 11
90.16092
 21
10.00002
  0
LINE
  8
0
  6
CONTINUOUS
 62
     7
 10
70.99999
 20
-8.0
 11
78.52459
 21
-1.98032
  0
LINE
  8
0
  6
CONTINUOUS
 62
     7
 10
71.00002
 20
8.00003
 11
78.52462
 21
1.98033
  0
LINE
  8
0
  6
CONTINUOUS
 62
     7
 10
84.69486
 20
2.95594
 11
90.99998
 21
8.00004
  0
LINE
  8
0
  6
CONTINUOUS
 62
     7
 10
84.69489
 20
-2.95596
 11
90.99997
 21
-8.0
  0
LINE
  8
0
  6
CONTINUOUS
 62
     7
 10
-40.0
 20
-10.7
 11
1.63296
 21
-10.7
  0
LINE
  8
0
  6
CONTINUOUS
 62
     7
 10
-40.0
 20
10.7
 11
7.36706
 21
10.7
  0
LINE
  8
0
  6
CENTER
 62
     2
 10
62.0
 20
16.5
 11
62.0
 21
4.45001
  0
LINE
  8
0
  6
CONTINUOUS
 62
     7
 10
-67.99997
 20
50.99994
 11
-66.99995
 21
49.99994
  0
LINE
  8
0
  6
CONTINUOUS
 62
     7
 10
-68.0
 20
69.0
 11
-67.00002
 21
69.99998
  0
LINE
  8
0
  6
CONTINUOUS
 62
     7
 10
-68.0
 20
51.00002
 11
-68.0
 21
69.00002
  0
LINE
  8
0
  6
CONTINUOUS
 62
     7
 10
-56.0
 20
46.50002
 11
-56.0
 21
73.50002
  0
LINE
  8
0
  6
CONTINUOUS
 62
     7
 10
-38.0
 20
70.7
 11
-38.0
 21
49.3
  0
LINE
  8
0
  6
CONTINUOUS
 62
     7
 10
-56.0
 20
73.50002
 11
-40.0
 21
73.50002
  0
LINE
  8
0
  6
CONTINUOUS
 62
     7
 10
-56.0
 20
46.50002
 11
-40.0
 21
46.50002
  0
LINE
  8
0
  6
CONTINUOUS
 62
     7
 10
-67.0
 20
50.00002
 11
-56.0
 21
50.00002
  0
LINE
  8
0
  6
CONTINUOUS
 62
     7
 10
-68.0
 20
51.00002
 11
-58.0
 21
51.00002
  0
LINE
  8
0
  6
CONTINUOUS
 62
     7
 10
-56.0
 20
70.00002
 11
-67.00002
 21
70.00002
  0
LINE
  8
0
  6
CONTINUOUS
 62
     7
 10
-68.0
 20
69.00002
 11
-58.0
 21
69.00002
  0
LINE
  8
0
  6
CONTINUOUS
 62
     7
 10
-76.0
 20
56.00002
 11
-76.0
 21
64.00002
  0
LINE
  8
0
  6
CONTINUOUS
 62
     7
 10
-67.00002
 20
70.00001
 11
-67.00004
 21
50.00001
  0
LINE
  8
0
  6
CONTINUOUS
 62
     7
 10
-58.0
 20
70.00002
 11
-58.0
 21
50.00002
  0
LINE
  8
0
  6
CONTINUOUS
 62
     7
 10
-58.00006
 20
69.00008
 11
-56.26801
 21
70.00007
  0
LINE
  8
0
  6
CONTINUOUS
 62
     7
 10
-57.99999
 20
51.00002
 11
-56.26796
 21
50.00003
  0
LINE
  8
0
  6
CONTINUOUS
 62
     7
 10
-91.0
 20
63.00002
 11
-91.0
 21
57.00002
  0
LINE
  8
0
  6
CONTINUOUS
 62
     7
 10
-90.99992
 20
62.99997
 11
-89.99994
 21
63.99997
  0
LINE
  8
0
  6
CONTINUOUS
 62
     7
 10
-90.99995
 20
56.99996
 11
-89.99998
 21
55.99997
  0
LINE
  8
0
  6
CONTINUOUS
 62
     7
 10
-75.99998
 20
62.99996
 11
-74.73203
 21
63.73201
  0
LINE
  8
0
  6
CONTINUOUS
 62
     7
 10
-76.00003
 20
57.00006
 11
-74.73203
 21
56.26797
  0
LINE
  8
0
  6
CONTINUOUS
 62
     7
 10
-90.0
 20
64.00002
 11
-90.0
 21
56.00002
  0
LINE
  8
0
  6
CONTINUOUS
 62
     7
 10
-91.0
 20
57.00002
 11
-75.99998
 21
57.00002
  0
LINE
  8
0
  6
CONTINUOUS
 62
     7
 10
-91.0
 20
63.00002
 11
-76.0
 21
63.00002
  0
LINE
  8
0
  6
CONTINUOUS
 62
     7
 10
-90.0
 20
56.00002
 11
-74.99998
 21
56.00002
  0
LINE
  8
0
  6
CENTER
 62
     2
 10
-48.0
 20
68.0
 11
-48.0
 21
52.0
  0
LINE
  8
0
  6
CONTINUOUS
 62
     7
 10
-74.0
 20
63.0
 11
-69.0
 21
63.0
  0
LINE
  8
0
  6
CONTINUOUS
 62
     7
 10
-74.0
 20
57.0
 11
-69.0
 21
57.0
  0
LINE
  8
0
  6
CONTINUOUS
 62
     7
 10
-68.99999
 20
62.99995
 11
-67.99996
 21
63.99997
  0
LINE
  8
0
  6
CONTINUOUS
 62
     7
 10
-74.99997
 20
55.99998
 11
-73.99998
 21
56.99997
  0
LINE
  8
0
  6
CONTINUOUS
 62
     7
 10
-69.00002
 20
56.99998
 11
-68.00003
 21
56.0
  0
LINE
  8
0
  6
CONTINUOUS
 62
     7
 10
-75.00003
 20
64.00001
 11
-73.99998
 21
62.99998
  0
LINE
  8
0
  6
CONTINUOUS
 62
     7
 10
-75.00002
 20
64.00003
 11
-90.0
 21
64.00003
  0
LINE
  8
0
  6
CONTINUOUS
 62
     7
 10
70.0
 20
46.5
 11
70.0
 21
73.5
  0
LINE
  8
0
  6
CONTINUOUS
 62
     7
 10
52.0
 20
70.7
 11
52.0
 21
49.3
  0
LINE
  8
0
  6
CONTINUOUS
 62
     7
 10
70.0
 20
73.5
 11
54.0
 21
73.5
  0
LINE
  8
0
  6
CONTINUOUS
 62
     7
 10
70.0
 20
46.5
 11
54.0
 21
46.5
  0
LINE
  8
0
  6
CONTINUOUS
 62
     7
 10
91.0
 20
54.0
 11
91.0
 21
66.0
  0
LINE
  8
0
  6
CONTINUOUS
 62
     7
 10
71.0
 20
50.0
 11
71.0
 21
54.0
  0
LINE
  8
0
  6
CONTINUOUS
 62
     7
 10
70.0
 20
50.0
 11
70.0
 21
70.0
  0
LINE
  8
0
  6
CONTINUOUS
 62
     7
 10
70.0
 20
70.0
 11
71.0
 21
70.0
  0
LINE
  8
0
  6
CONTINUOUS
 62
     7
 10
71.0
 20
50.0
 11
70.0
 21
50.0
  0
LINE
  8
0
  6
CENTER
 62
     2
 10
82.0
 20
69.0
 11
82.0
 21
51.0
  0
LINE
  8
0
  6
CENTER
 62
     2
 10
-94.0
 20
60.0
 11
94.0
 21
60.0
  0
LINE
  8
0
  6
CONTINUOUS
 62
     7
 10
90.16092
 20
54.0
 11
90.16092
 21
66.0
  0
LINE
  8
0
  6
CONTINUOUS
 62
     7
 10
-40.0
 20
49.3
 11
1.63296
 21
49.3
  0
LINE
  8
0
  6
CONTINUOUS
 62
     7
 10
-40.0
 20
70.7
 11
7.36706
 21
70.7
  0
LINE
  8
0
  6
CENTER
 62
     2
 10
62.0
 20
68.0
 11
62.0
 21
52.0
  0
LINE
  8
0
  6
DASHED
 62
     7
 10
78.0
 20
66.0
 11
78.0
 21
54.0
  0
LINE
  8
0
  6
DASHED
 62
     7
 10
86.0
 20
66.0
 11
86.0
 21
54.0
  0
LINE
  8
0
  6
CONTINUOUS
 62
     7
 10
71.0
 20
66.0
 11
91.0
 21
66.0
  0
LINE
  8
0
  6
CONTINUOUS
 62
     7
 10
71.0
 20
54.0
 11
91.0
 21
54.0
  0
LINE
  8
0
  6
CONTINUOUS
 62
     7
 10
71.0
 20
66.0
 11
71.0
 21
70.0
  0
LINE
  8
0
  6
CONTINUOUS
 62
     7
 10
72.0
 20
66.0
 11
72.0
 21
54.0
  0
LINE
  8
0
  6
CONTINUOUS
 62
     7
 10
30.5
 20
-72.20576
 11
30.5
 21
-87.79423
  0
LINE
  8
0
  6
CONTINUOUS
 62
     7
 10
57.5
 20
-72.20576
 11
57.5
 21
-87.79423
  0
LINE
  8
0
  6
CONTINUOUS
 62
     7
 10
44.00006
 20
-64.41158
 11
57.50005
 21
-72.2058
  0
LINE
  8
0
  6
CONTINUOUS
 62
     7
 10
30.50012
 20
-87.79427
 11
44.00008
 21
-95.58848
  0
LINE
  8
0
  6
CONTINUOUS
 62
     7
 10
44.00005
 20
-95.58847
 11
57.50005
 21
-87.79425
  0
LINE
  8
0
  6
CENTER
 62
     2
 10
44.0
 20
-98.58844
 11
44.0
 21
-61.41158
  0
LINE
  8
0
  6
CENTER
 62
     2
 10
27.5
 20
-80.0
 11
60.5
 21
-80.0
  0
LINE
  8
0
  6
CONTINUOUS
 62
     7
 10
30.49998
 20
-72.20576
 11
44.00004
 21
-64.41155
  0
LINE
  8
0
  6
CONTINUOUS
 62
     7
 10
93.26917
 20
-64.41153
 11
87.70578
 21
-64.41153
  0
LINE
  8
0
  6
CONTINUOUS
 62
     7
 10
93.5
 20
-95.58844
 11
87.70576
 21
-95.58844
  0
LINE
  8
0
  6
CONTINUOUS
 62
     7
 10
94.0
 20
-93.49998
 11
93.5
 21
-93.49998
  0
LINE
  8
0
  6
CONTINUOUS
 62
     7
 10
86.49998
 20
-66.50002
 11
87.70575
 21
-64.41154
  0
LINE
  8
0
  6
CONTINUOUS
 62
     7
 10
87.70581
 20
-95.58848
 11
86.50002
 21
-93.50001
  0
LINE
  8
0
  6
CONTINUOUS
 62
     7
 10
93.5
 20
-87.79421
 11
87.70576
 21
-87.79421
  0
LINE
  8
0
  6
CONTINUOUS
 62
     7
 10
93.5
 20
-72.20575
 11
87.70578
 21
-72.20575
  0
LINE
  8
0
  6
CONTINUOUS
 62
     7
 10
93.5
 20
-93.49998
 11
94.0
 21
-93.49998
  0
LINE
  8
0
  6
CONTINUOUS
 62
     7
 10
93.5
 20
-66.49998
 11
94.0
 21
-66.49998
  0
LINE
  8
0
  6
CONTINUOUS
 62
     7
 10
87.70576
 20
-95.58844
 11
93.5
 21
-95.58844
  0
LINE
  8
0
  6
CONTINUOUS
 62
     7
 10
87.70578
 20
-64.41153
 11
93.5
 21
-64.41153
  0
LINE
  8
0
  6
CONTINUOUS
 62
     7
 10
94.0
 20
-93.49998
 11
94.0
 21
-66.49998
  0
LINE
  8
0
  6
CONTINUOUS
 62
     7
 10
93.5
 20
-95.58844
 11
93.5
 21
-64.41153
  0
LINE
  8
0
  6
CONTINUOUS
 62
     7
 10
86.5
 20
-66.49998
 11
86.5
 21
-93.49998
  0
LINE
  8
0
  6
CENTER
 62
     2
 10
83.5
 20
-80.0
 11
97.0
 21
-80.0
  0
LINE
  8
0
  6
CONTINUOUS
 62
     7
 10
-82.0
 20
-76.5359
 11
-82.0
 21
-83.4641
  0
LINE
  8
0
  6
CONTINUOUS
 62
     7
 10
-70.0
 20
-76.5359
 11
-70.0
 21
-83.4641
  0
LINE
  8
0
  6
CONTINUOUS
 62
     7
 10
-82.00013
 20
-76.53587
 11
-76.00014
 21
-73.07174
  0
LINE
  8
0
  6
CONTINUOUS
 62
     7
 10
-76.00001
 20
-86.92819
 11
-69.99999
 21
-83.46409
  0
LINE
  8
0
  6
CONTINUOUS
 62
     7
 10
-76.00002
 20
-73.07178
 11
-70.0
 21
-76.5359
  0
LINE
  8
0
  6
CONTINUOUS
 62
     7
 10
-82.00002
 20
-83.46412
 11
-75.99995
 21
-86.92825
  0
LINE
  8
0
  6
CENTER
 62
     2
 10
-76.0
 20
-89.92819
 11
-76.0
 21
-70.07166
  0
LINE
  8
0
  6
CENTER
 62
     2
 10
-85.0
 20
-80.0
 11
-67.0
 21
-80.0
  0
LINE
  8
0
  6
CONTINUOUS
 62
     7
 10
-36.0
 20
-73.99997
 11
-35.4641
 21
-73.07179
  0
LINE
  8
0
  6
CONTINUOUS
 62
     7
 10
-31.53594
 20
-86.92815
 11
-31.00005
 21
-85.99994
  0
LINE
  8
0
  6
CONTINUOUS
 62
     7
 10
-31.00004
 20
-73.99994
 11
-31.53596
 21
-73.07175
  0
LINE
  8
0
  6
CONTINUOUS
 62
     7
 10
-35.4641
 20
-76.53587
 11
-31.5359
 21
-76.53587
  0
LINE
  8
0
  6
CONTINUOUS
 62
     7
 10
-35.4641
 20
-83.49998
 11
-31.53589
 21
-83.49998
  0
LINE
  8
0
  6
CONTINUOUS
 62
     7
 10
-35.4641
 20
-86.92818
 11
-31.53589
 21
-86.92818
  0
LINE
  8
0
  6
CONTINUOUS
 62
     7
 10
-31.53589
 20
-73.07178
 11
-35.4641
 21
-73.07178
  0
LINE
  8
0
  6
CONTINUOUS
 62
     7
 10
-31.0
 20
-85.99998
 11
-31.0
 21
-73.99998
  0
LINE
  8
0
  6
CONTINUOUS
 62
     7
 10
-36.0
 20
-73.99998
 11
-36.0
 21
-85.99999
  0
LINE
  8
0
  6
CENTER
 62
     2
 10
-39.0
 20
-80.0
 11
-28.0
 21
-80.0
  0
LINE
  8
0
  6
PHANTOM
 62
     2
 10
7.36706
 20
70.7
 11
1.63296
 21
49.29999
  0
LINE
  8
0
  6
CONTINUOUS
 62
     7
 10
-40.0
 20
13.50002
 11
-40.0
 21
-13.49998
  0
LINE
  8
0
  6
CONTINUOUS
 62
     7
 10
-40.0
 20
73.50002
 11
-40.0
 21
46.50002
  0
LINE
  8
0
  6
CONTINUOUS
 62
     7
 10
54.0
 20
73.5
 11
54.0
 21
46.5
  0
LINE
  8
0
  6
CONTINUOUS
 62
     7
 10
54.0
 20
13.5
 11
54.0
 21
-13.5
  0
LINE
  8
0
  6
CONTINUOUS
 62
     7
 10
-185.4368
 20
-127.2792
 11
-185.4368
 21
127.2792
  0
LINE
  8
0
  6
CONTINUOUS
 62
     7
 10
185.4368
 20
127.2792
 11
185.4368
 21
-127.2792
  0
LINE
  8
0
  6
CONTINUOUS
 62
     7
 10
-185.4368
 20
-127.2792
 11
185.4368
 21
-127.2792
  0
LINE
  8
0
  6
CONTINUOUS
 62
     7
 10
-185.4368
 20
127.2792
 11
185.4368
 21
127.2792
  0
LINE
  8
0
  6
CONTINUOUS
 62
     7
 10
-185.4368
 20
112.9782
 11
-109.1646
 21
112.9782
  0
LINE
  8
0
  6
CONTINUOUS
 62
     7
 10
-109.1646
 20
112.9782
 11
-109.1646
 21
127.2792
  0
LINE
  8
0
  6
CONTINUOUS
 62
     7
 10
109.1646
 20
-112.9782
 11
185.4368
 21
-112.9782
  0
LINE
  8
0
  6
CONTINUOUS
 62
     7
 10
129.1908
 20
-116.4169
 11
136.5177
 21
-116.4169
  0
LINE
  8
0
  6
CONTINUOUS
 62
     7
 10
129.1908
 20
-122.9143
 11
135.4118
 21
-122.9143
  0
LINE
  8
0
  6
CONTINUOUS
 62
     7
 10
129.1908
 20
-124.5732
 11
137.6237
 21
-124.5732
  0
LINE
  8
0
  6
CONTINUOUS
 62
     7
 10
129.1908
 20
-118.0758
 11
135.4118
 21
-118.0758
  0
LINE
  8
0
  6
CONTINUOUS
 62
     7
 10
129.1908
 20
-116.4169
 11
129.1908
 21
-118.0758
  0
LINE
  8
0
  6
CONTINUOUS
 62
     7
 10
137.6237
 20
-117.5228
 11
137.6237
 21
-124.5732
  0
LINE
  8
0
  6
CONTINUOUS
 62
     7
 10
135.4118
 20
-118.0758
 11
135.4118
 21
-122.9143
  0
LINE
  8
0
  6
CONTINUOUS
 62
     7
 10
138.8678
 20
-116.4169
 11
138.8678
 21
-118.0758
  0
LINE
  8
0
  6
CONTINUOUS
 62
     7
 10
146.7477
 20
-118.0758
 11
146.7477
 21
-123.4673
  0
LINE
  8
0
  6
CONTINUOUS
 62
     7
 10
144.5358
 20
-118.0758
 11
144.5358
 21
-122.9143
  0
LINE
  8
0
  6
CONTINUOUS
 62
     7
 10
129.1908
 20
-122.9143
 11
129.1908
 21
-124.5732
  0
LINE
  8
0
  6
CONTINUOUS
 62
     7
 10
138.8678
 20
-116.4169
 11
141.0533
 21
-116.4169
  0
LINE
  8
0
  6
CONTINUOUS
 62
     7
 10
138.8678
 20
-124.5732
 11
140.5853
 21
-124.5732
  0
LINE
  8
0
  6
CONTINUOUS
 62
     7
 10
138.8677
 20
-124.5732
 11
140.6088
 21
-118.0757
  0
LINE
  8
0
  6
CONTINUOUS
 62
     7
 10
138.8678
 20
-118.0758
 11
140.6088
 21
-118.0758
  0
LINE
  8
0
  6
CONTINUOUS
 62
     7
 10
140.5854
 20
-124.5734
 11
142.3264
 21
-118.0759
  0
LINE
  8
0
  6
CONTINUOUS
 62
     7
 10
142.8769
 20
-122.9143
 11
144.5358
 21
-122.9143
  0
LINE
  8
0
  6
CONTINUOUS
 62
     7
 10
142.8769
 20
-122.9143
 11
143.3214
 21
-124.5732
  0
LINE
  8
0
  6
CONTINUOUS
 62
     7
 10
143.3214
 20
-124.5732
 11
145.6418
 21
-124.5732
  0
LINE
  8
0
  6
CONTINUOUS
 62
     7
 10
142.3263
 20
-118.0758
 11
144.5358
 21
-118.0758
  0
LINE
  8
0
  6
CONTINUOUS
 62
     7
 10
142.7708
 20
-116.4169
 11
145.0888
 21
-116.4169
  0
LINE
  8
0
  6
CONTINUOUS
 62
     7
 10
141.0534
 20
-116.4169
 11
141.3831
 21
-115.1866
  0
LINE
  8
0
  6
CONTINUOUS
 62
     7
 10
142.7707
 20
-116.4168
 11
143.1003
 21
-115.1864
  0
LINE
  8
0
  6
CONTINUOUS
 62
     7
 10
148.1301
 20
-116.4169
 11
150.7568
 21
-116.4169
  0
LINE
  8
0
  6
CONTINUOUS
 62
     7
 10
148.1301
 20
-118.0758
 11
154.581
 21
-118.0758
  0
LINE
  8
0
  6
CONTINUOUS
 62
     7
 10
150.7568
 20
-124.5732
 11
152.9686
 21
-124.5732
  0
LINE
  8
0
  6
CONTINUOUS
 62
     7
 10
148.1301
 20
-116.4169
 11
148.1301
 21
-118.0758
  0
LINE
  8
0
  6
CONTINUOUS
 62
     7
 10
156.2865
 20
-121.0839
 11
156.2865
 21
-122.9143
  0
LINE
  8
0
  6
CONTINUOUS
 62
     7
 10
148.13
 20
-122.9143
 11
150.7567
 21
-121.6894
  0
LINE
  8
0
  6
CONTINUOUS
 62
     7
 10
148.1303
 20
-121.0841
 11
154.5813
 21
-118.0759
  0
LINE
  8
0
  6
CONTINUOUS
 62
     7
 10
148.1301
 20
-121.0839
 11
148.1301
 21
-122.9143
  0
LINE
  8
0
  6
CONTINUOUS
 62
     7
 10
152.9686
 20
-121.3672
 11
156.2865
 21
-122.9143
  0
LINE
  8
0
  6
CONTINUOUS
 62
     7
 10
154.1712
 20
-120.0975
 11
156.2867
 21
-121.084
  0
LINE
  8
0
  6
CONTINUOUS
 62
     7
 10
156.2865
 20
-117.5228
 11
156.2865
 21
-118.4064
  0
LINE
  8
0
  6
CONTINUOUS
 62
     7
 10
150.7568
 20
-115.1865
 11
150.7568
 21
-116.4169
  0
LINE
  8
0
  6
CONTINUOUS
 62
     7
 10
152.9686
 20
-115.1865
 11
152.9686
 21
-116.4169
  0
LINE
  8
0
  6
CONTINUOUS
 62
     7
 10
152.9686
 20
-116.4169
 11
155.1806
 21
-116.4169
  0
LINE
  8
0
  6
CONTINUOUS
 62
     7
 10
150.7568
 20
-121.6895
 11
150.7568
 21
-124.5732
  0
LINE
  8
0
  6
CONTINUOUS
 62
     7
 10
152.9686
 20
-121.3672
 11
152.9686
 21
-124.5732
  0
LINE
  8
0
  6
CONTINUOUS
 62
     7
 10
154.1712
 20
-120.0976
 11
155.6482
 21
-119.4089
  0
LINE
  8
0
  6
CONTINUOUS
 62
     7
 10
163.7517
 20
-115.6842
 11
165.4106
 21
-115.6842
  0
LINE
  8
0
  6
CONTINUOUS
 62
     7
 10
156.9777
 20
-119.1109
 11
156.9777
 21
-120.8962
  0
LINE
  8
0
  6
CONTINUOUS
 62
     7
 10
165.4106
 20
-115.6842
 11
165.4106
 21
-116.4169
  0
LINE
  8
0
  6
CONTINUOUS
 62
     7
 10
163.7517
 20
-115.6842
 11
163.7517
 21
-116.0417
  0
LINE
  8
0
  6
CONTINUOUS
 62
     7
 10
161.5397
 20
-119.0819
 11
161.5397
 21
-124.5732
  0
LINE
  8
0
  6
CONTINUOUS
 62
     7
 10
156.9778
 20
-119.111
 11
163.4031
 21
-116.5556
  0
LINE
  8
0
  6
CONTINUOUS
 62
     7
 10
156.9778
 20
-120.8963
 11
161.5398
 21
-119.0819
  0
LINE
  8
0
  6
CONTINUOUS
 62
     7
 10
161.5397
 20
-124.5732
 11
163.7517
 21
-124.5732
  0
LINE
  8
0
  6
CONTINUOUS
 62
     7
 10
163.7517
 20
-118.2022
 11
163.7517
 21
-124.5732
  0
LINE
  8
0
  6
CONTINUOUS
 62
     7
 10
163.7518
 20
-118.2023
 11
164.3649
 21
-117.9584
  0
LINE
  8
0
  6
CONTINUOUS
 62
     7
 10
141.2497
 20
-115.1865
 11
143.1004
 21
-115.1865
  0
LINE
  8
0
  6
CONTINUOUS
 62
     7
 10
145.8491
 20
-115.1865
 11
146.5541
 21
-115.1865
  0
LINE
  8
0
  6
CONTINUOUS
 62
     7
 10
150.7568
 20
-115.1865
 11
152.9686
 21
-115.1865
  0
LINE
  8
0
  6
CONTINUOUS
 62
     7
 10
145.8491
 20
-116.2925
 11
146.5541
 21
-116.2925
  0
LINE
  8
0
  6
CONTINUOUS
 62
     7
 10
145.8491
 20
-115.1865
 11
145.8491
 21
-116.2925
  0
LINE
  8
0
  6
CONTINUOUS
 62
     7
 10
146.5541
 20
-115.1865
 11
146.5541
 21
-116.2925
  0
LINE
  8
0
  6
CONTINUOUS
 62
     7
 10
146.9689
 20
-115.1865
 11
146.9689
 21
-116.2925
  0
LINE
  8
0
  6
CONTINUOUS
 62
     7
 10
147.7569
 20
-115.1865
 11
147.7569
 21
-116.2925
  0
LINE
  8
0
  6
CONTINUOUS
 62
     7
 10
146.9689
 20
-115.1865
 11
147.7569
 21
-115.1865
  0
LINE
  8
0
  6
CONTINUOUS
 62
     7
 10
146.9689
 20
-116.2925
 11
147.7569
 21
-116.2925
  0
LINE
  8
0
  6
CONTINUOUS
 62
     7
 10
109.1646
 20
112.9782
 11
185.4368
 21
112.9782
  0
LINE
  8
0
  6
CONTINUOUS
 62
     7
 10
109.1646
 20
127.2792
 11
109.1646
 21
112.9782
  0
LINE
  8
0
  6
CONTINUOUS
 62
     7
 10
109.1646
 20
-112.9782
 11
109.1646
 21
-127.2792
  0
LINE
  8
0
  6
PHANTOM
 62
     2
 10
7.36706
 20
10.7
 11
1.63296
 21
-10.7
  0
LINE
  8
0
  6
PHANTOM
 62
     2
 10
12.36706
 20
70.7
 11
6.63295
 21
49.3
  0
LINE
  8
0
  6
PHANTOM
 62
     2
 10
12.36706
 20
10.7
 11
6.63296
 21
-10.7
  0
LINE
  8
0
  6
CONTINUOUS
 62
     7
 10
12.36706
 20
70.7
 11
54.0
 21
70.7
  0
LINE
  8
0
  6
CONTINUOUS
 62
     7
 10
6.63295
 20
49.3
 11
54.0
 21
49.3
  0
LINE
  8
0
  6
CONTINUOUS
 62
     7
 10
12.36706
 20
10.7
 11
54.0
 21
10.7
  0
LINE
  8
0
  6
CONTINUOUS
 62
     7
 10
6.63295
 20
-10.7
 11
54.0
 21
-10.7
  0
LINE
  8
0
  6
CONTINUOUS
 62
     7
 10
-35.46406
 20
-86.92814
 11
-35.99996
 21
-85.99993
  0
CIRCLE
  8
0
  6
CONTINUOUS
 62
     7
 10
-136.0
 20
0.0
 40
3.5
  0
CIRCLE
  8
0
  6
CONTINUOUS
 62
     7
 10
-136.0
 20
0.0
 40
4.0
  0
CIRCLE
  8
0
  6
CONTINUOUS
 62
     7
 10
-136.0
 20
0.0
 40
9.0
  0
CIRCLE
  8
0
  6
CONTINUOUS
 62
     7
 10
-136.0
 20
0.0
 40
10.0
  0
CIRCLE
  8
0
  6
CONTINUOUS
 62
     7
 10
-136.0
 20
0.0
 40
13.5
  0
ARC
  8
0
  6
CONTINUOUS
 62
     7
 10
144.0
 20
0.0
 40
9.0
 50
48.18968
 51
131.8103
  0
ARC
  8
0
  6
CONTINUOUS
 62
     7
 10
144.0
 20
0.0
 40
9.0
 50
228.1897
 51
311.8103
  0
CIRCLE
  8
0
  6
CONTINUOUS
 62
     7
 10
144.0
 20
0.0
 40
10.0
  0
CIRCLE
  8
0
  6
CONTINUOUS
 62
     7
 10
144.0
 20
0.0
 40
13.5
  0
CIRCLE
  8
0
  6
CONTINUOUS
 62
     7
 10
82.0
 20
0.0
 40
4.0
  0
CIRCLE
  8
0
  6
CONTINUOUS
 62
     7
 10
-48.0
 20
60.0
 40
4.0
  0
CIRCLE
  8
0
  6
CONTINUOUS
 62
     7
 10
-48.0
 20
60.0
 40
5.0
  0
CIRCLE
  8
0
  6
CONTINUOUS
 62
     7
 10
62.0
 20
60.0
 40
5.0
  0
CIRCLE
  8
0
  6
CONTINUOUS
 62
     7
 10
62.0
 20
60.0
 40
4.0
  0
CIRCLE
  8
0
  6
CONTINUOUS
 62
     7
 10
44.0
 20
-80.0
 40
9.0
  0
CIRCLE
  8
0
  6
CONTINUOUS
 62
     7
 10
44.0
 20
-80.0
 40
10.0
  0
CIRCLE
  8
0
  6
CONTINUOUS
 62
     7
 10
44.0
 20
-80.0
 40
13.5
  0
CIRCLE
  8
0
  6
CONTINUOUS
 62
     7
 10
-76.0
 20
-80.0
 40
3.5
  0
CIRCLE
  8
0
  6
CONTINUOUS
 62
     7
 10
-76.0
 20
-80.0
 40
4.0
  0
CIRCLE
  8
0
  6
CONTINUOUS
 62
     7
 10
-76.0
 20
-80.0
 40
6.0
  0
CIRCLE
  8
0
  6
CONTINUOUS
 62
     7
 10
-48.0
 20
60.0
 40
0.7
  0
CIRCLE
  8
0
  6
CONTINUOUS
 62
     7
 10
62.0
 20
60.0
 40
0.7
  0
ARC
  8
0
  6
CONTINUOUS
 62
     7
 10
136.5177
 20
-117.5228
 40
1.10594
 50
0.0
 51
89.99999
  0
ARC
  8
0
  6
CONTINUOUS
 62
     7
 10
145.6418
 20
-123.4673
 40
1.10595
 50
270.0
 51
0.0
  0
ARC
  8
0
  6
CONTINUOUS
 62
     7
 10
145.0888
 20
-118.0758
 40
1.65892
 50
0.0
 51
89.99999
  0
ARC
  8
0
  6
CONTINUOUS
 62
     7
 10
155.1806
 20
-117.5228
 40
1.10594
 50
0.0
 51
89.99999
  0
ARC
  8
0
  6
CONTINUOUS
 62
     7
 10
155.1806
 20
-118.4064
 40
1.10595
 50
295.0
 51
0.0
  0
ARC
  8
0
  6
CONTINUOUS
 62
     7
 10
163.7517
 20
-116.4169
 40
1.65892
 50
291.6884
 51
0.0
  0
ARC
  8
0
  6
CONTINUOUS
 62
     7
 10
163.1987
 20
-116.0417
 40
0.55297
 50
291.689
 51
0.0
  0
ARC
  8
0
  6
CONTINUOUS
 62
     7
 10
-32.93308
 20
-74.80383
 40
3.06692
 50
145.6147
 51
214.3849
  0
ARC
  8
0
  6
CONTINUOUS
 62
     7
 10
-24.41996
 20
-80.01793
 40
11.58006
 50
162.5007
 51
197.4993
  0
ARC
  8
0
  6
CONTINUOUS
 62
     7
 10
-34.06692
 20
-74.80383
 40
3.06692
 50
325.6151
 51
34.38526
  0
ARC
  8
0
  6
CONTINUOUS
 62
     7
 10
-42.58004
 20
-80.01793
 40
11.58006
 50
342.5007
 51
17.49926
  0
ARC
  8
0
  6
CONTINUOUS
 62
     7
 10
-34.06692
 20
-85.19617
 40
3.06692
 50
325.6147
 51
34.3849
  0
ARC
  8
0
  6
CONTINUOUS
 62
     7
 10
-32.93308
 20
-85.19617
 40
3.06692
 50
145.6151
 51
214.3852
  0
ARC
  8
0
  6
CONTINUOUS
 62
     7
 10
93.40067
 20
-68.30864
 40
6.90067
 50
145.6155
 51
214.3845
  0
ARC
  8
0
  6
CONTINUOUS
 62
     7
 10
112.2942
 20
-80.00001
 40
25.79423
 50
162.412
 51
197.5879
  0
ARC
  8
0
  6
CONTINUOUS
 62
     7
 10
93.40067
 20
-91.69136
 40
6.90067
 50
145.6154
 51
214.3844
  0
ARC
  8
0
  6
CONTINUOUS
 62
     7
 10
-72.00011
 20
-0.00002
 40
4.0
 50
318.5903
 51
41.40961
  0
ARC
  8
0
  6
CONTINUOUS
 62
     7
 10
-71.0
 20
0.00002
 40
4.0
 50
138.5904
 51
221.4096
  0
TEXT
  8
0
  6
CONTINUOUS
 62
     7
 10
7.925
 20
-56.645
 40
3.5
  1
MOUNT NUT(M20*1.5)
 41
0.8
  7
STANDARD
  0
TEXT
  8
0
  6
CONTINUOUS
 62
     7
 10
-104.075
 20
-64.645
 40
3.5
  1
ROD NUT(M8*1)
 41
0.8
  7
STANDARD
  0
TEXT
  8
0
  6
CONTINUOUS
 62
     7
 10
114.5353
 20
118.1347
 40
4.24264
  1
DATE : MAR ,1987
 41
0.8
  7
STANDARD
  0
TEXT
  8
0
  6
CONTINUOUS
 62
     7
 10
-178.965
 20
117.7787
 40
5.0
  1
SLIM CYLINDER
 41
0.8
  7
STANDARD
  0
TEXT
  8
0
  6
CONTINUOUS
 62
     7
 10
-162.1176
 20
90.25626
 40
5.0
  1
MODEL : DA 20*ST
 41
0.8
  7
STANDARD
  0
ENDSEC
  0
EOF
