  0
SECTION
  2
HEADER
  9
$ACADVER
  1
AC1002
  9
$INSBASE
 10
0.0
 20
0.0
  9
$EXTMIN
 10
-262.2472
 20
-180.0
  9
$EXTMAX
 10
262.2472
 20
180.0
  9
$LIMMIN
 10
0.0
 20
0.0
  9
$LIMMAX
 10
12.0
 20
9.0
  9
$VIEWCTR
 10
20.22981726
 20
0.0
  9
$VIEWSIZE
 40
360.0
  9
$SNAPMODE
 70
     0
  9
$SNAPUNIT
 10
1.0
 20
1.0
  9
$SNAPBASE
 10
0.0
 20
0.0
  9
$SNAPANG
 50
0.0
  9
$SNAPSTYLE
 70
     0
  9
$SNAPISOPAIR
 70
     0
  9
$GRIDMODE
 70
     0
  9
$GRIDUNIT
 10
0.0
 20
0.0
  9
$ORTHOMODE
 70
     0
  9
$REGENMODE
 70
     1
  9
$FILLMODE
 70
     1
  9
$QTEXTMODE
 70
     0
  9
$DRAGMODE
 70
     2
  9
$LTSCALE
 40
1.0
  9
$OSMODE
 70
     0
  9
$ATTMODE
 70
     1
  9
$TEXTSIZE
 40
0.2
  9
$TRACEWID
 40
0.05
  9
$TEXTSTYLE
  7
AAA
  9
$CLAYER
  8
0
  9
$CELTYPE
  6
BYLAYER
  9
$CECOLOR
 62
   256
  9
$DIMSCALE
 40
1.0
  9
$DIMASZ
 40
0.18
  9
$DIMEXO
 40
0.0625
  9
$DIMDLI
 40
0.38
  9
$DIMRND
 40
0.0
  9
$DIMDLE
 40
0.0
  9
$DIMEXE
 40
0.18
  9
$DIMTP
 40
0.0
  9
$DIMTM
 40
0.0
  9
$DIMTXT
 40
0.18
  9
$DIMCEN
 40
0.09
  9
$DIMTSZ
 40
0.0
  9
$DIMTOL
 70
     0
  9
$DIMLIM
 70
     0
  9
$DIMTIH
 70
     1
  9
$DIMTOH
 70
     1
  9
$DIMSE1
 70
     0
  9
$DIMSE2
 70
     0
  9
$DIMTAD
 70
     0
  9
$DIMZIN
 70
     0
  9
$DIMBLK
  1

  9
$LUNITS
 70
     2
  9
$LUPREC
 70
     4
  9
$AXISMODE
 70
     0
  9
$AXISUNIT
 10
0.0
 20
0.0
  9
$SKETCHINC
 40
0.1
  9
$FILLETRAD
 40
0.0
  9
$AUNITS
 70
     0
  9
$AUPREC
 70
     0
  9
$MENU
  1
ACAD
  9
$ELEVATION
 40
0.0
  9
$THICKNESS
 40
0.0
  9
$VIEWDIR
 10
0.0
 20
0.0
 30
1.0
  9
$LIMCHECK
 70
     0
  9
$BLIPMODE
 70
     1
  9
$CHAMFERA
 40
0.0
  9
$CHAMFERB
 40
0.0
  9
$FASTZOOM
 70
     1
  9
$SKPOLY
 70
     0
  9
$TDCREATE
 40
2447797.6360764386
  9
$TDUPDATE
 40
2447797.6360764386
  9
$TDINDWG
 40
0.0016666667
  9
$TDUSRTIMER
 40
0.0016666667
  9
$USRTIMER
 70
     1
  9
$ANGBASE
 50
0.0
  9
$ANGDIR
 70
     0
  9
$PDMODE
 70
     0
  9
$PDSIZE
 40
0.0
  9
$PLINEWID
 40
0.0
  9
$COORDS
 70
     0
  9
$USERI1
 70
     0
  9
$USERI2
 70
     0
  9
$USERI3
 70
     0
  9
$USERI4
 70
     0
  9
$USERI5
 70
     0
  9
$USERR1
 40
0.0
  9
$USERR2
 40
0.0
  9
$USERR3
 40
0.0
  9
$USERR4
 40
0.0
  9
$USERR5
 40
0.0
  0
ENDSEC
  0
SECTION
  2
TABLES
  0
TABLE
  2
LTYPE
 70
     3
  0
LTYPE
  2
CONTINUOUS
 70
    64
  3
SOLID
 72
    65
 73
     0
 40
0.0
  0
LTYPE
  2
CENTER
 70
    64
  3
CENTER
 72
    65
 73
     4
 40
2.0
 49
1.25
 49
-0.25
 49
0.25
 49
-0.25
  0
LTYPE
  2
PHANTOM
 70
    64
  3
PHANTOM
 72
    65
 73
     6
 40
2.5
 49
1.25
 49
-0.25
 49
0.25
 49
-0.25
 49
0.25
 49
-0.25
  0
ENDTAB
  0
TABLE
  2
LAYER
 70
     1
  0
LAYER
  2
0
 70
    64
 62
     7
  6
CONTINUOUS
  0
ENDTAB
  0
TABLE
  2
STYLE
 70
     2
  0
STYLE
  2
AAA
 70
     0
 40
0.0
 41
1.0
 50
0.0
 71
     0
 42
0.2
  3
TXT
  4

  0
STYLE
  2
STANDARD
 70
    64
 40
0.0
 41
1.0
 50
0.0
 71
     0
 42
0.2
  3
TXT
  4
BIGFONT
  0
ENDTAB
  0
TABLE
  2
VIEW
 70
     0
  0
ENDTAB
  0
ENDSEC
  0
SECTION
  2
BLOCKS
  0
ENDSEC
  0
SECTION
  2
ENTITIES
  0
POINT
  8
0
  6
CONTINUOUS
 62
     7
 10
-201.3657
 20
0.0
  0
POINT
  8
0
  6
CONTINUOUS
 62
     7
 10
-56.5
 20
0.0
  0
POINT
  8
0
  6
CONTINUOUS
 62
     7
 10
-56.5
 20
104.8
  0
POINT
  8
0
  6
CONTINUOUS
 62
     7
 10
201.3657
 20
0.0
  0
POINT
  8
0
  6
CONTINUOUS
 62
     7
 10
69.0
 20
-120.0
  0
POINT
  8
0
  6
CONTINUOUS
 62
     7
 10
-75.0
 20
-120.0
  0
POINT
  8
0
  6
CONTINUOUS
 62
     7
 10
144.0
 20
-120.0
  0
POINT
  8
0
  6
CONTINUOUS
 62
     7
 10
-38.0
 20
-120.0
  0
POINT
  8
0
  6
CONTINUOUS
 62
     7
 10
-30.0
 20
-120.0
  0
POINT
  8
0
  6
CONTINUOUS
 62
     7
 10
133.0
 20
-120.0
  0
POINT
  8
0
  6
CONTINUOUS
 62
     7
 10
-82.00002
 20
0.00001
  0
LINE
  8
0
  6
CENTER
 62
     2
 10
-111.5
 20
0.0
 11
111.5
 21
0.0
  0
LINE
  8
0
  6
CONTINUOUS
 62
     7
 10
-76.5
 20
0.0
 11
-76.5
 21
16.99995
  0
LINE
  8
0
  6
CONTINUOUS
 62
     7
 10
-56.5
 20
-24.50003
 11
-56.5
 21
24.50003
  0
LINE
  8
0
  6
CONTINUOUS
 62
     7
 10
-108.5
 20
6.0
 11
-108.5
 21
0.0
  0
LINE
  8
0
  6
CONTINUOUS
 62
     7
 10
-108.5
 20
5.99988
 11
-107.5
 21
6.99988
  0
LINE
  8
0
  6
CONTINUOUS
 62
     7
 10
-107.5
 20
7.00002
 11
-107.5
 21
0.0
  0
LINE
  8
0
  6
CONTINUOUS
 62
     7
 10
-108.5
 20
6.0
 11
-85.5
 21
6.0
  0
LINE
  8
0
  6
CONTINUOUS
 62
     7
 10
-85.5
 20
7.00002
 11
-107.5
 21
7.00002
  0
LINE
  8
0
  6
CONTINUOUS
 62
     7
 10
-55.00006
 20
26.0
 11
20.46668
 21
26.0
  0
LINE
  8
0
  6
CONTINUOUS
 62
     7
 10
-76.50002
 20
16.99998
 11
-61.49999
 21
16.99998
  0
LINE
  8
0
  6
CONTINUOUS
 62
     7
 10
-56.50005
 20
17.99999
 11
-75.50008
 21
17.99999
  0
LINE
  8
0
  6
CONTINUOUS
 62
     7
 10
-76.50003
 20
16.99993
 11
-75.50005
 21
17.99992
  0
LINE
  8
0
  6
CONTINUOUS
 62
     7
 10
-75.50002
 20
17.99995
 11
-75.50002
 21
0.0
  0
LINE
  8
0
  6
CONTINUOUS
 62
     7
 10
88.5
 20
18.0
 11
107.0
 21
18.0
  0
LINE
  8
0
  6
CONTINUOUS
 62
     7
 10
108.5
 20
0.0
 11
108.5
 21
16.49998
  0
LINE
  8
0
  6
CONTINUOUS
 62
     7
 10
93.5
 20
17.0
 11
108.0
 21
17.0
  0
LINE
  8
0
  6
CONTINUOUS
 62
     7
 10
93.5
 20
0.0
 11
93.5
 21
18.0
  0
LINE
  8
0
  6
CONTINUOUS
 62
     7
 10
88.5
 20
24.5
 11
88.5
 21
-24.49993
  0
LINE
  8
0
  6
CONTINUOUS
 62
     7
 10
86.99998
 20
26.00003
 11
88.49998
 21
24.50002
  0
LINE
  8
0
  6
CONTINUOUS
 62
     7
 10
93.49991
 20
16.99998
 11
91.76785
 21
17.99999
  0
LINE
  8
0
  6
CENTER
 62
     2
 10
-44.5
 20
-10.0
 11
-44.5
 21
10.0
  0
LINE
  8
0
  6
CONTINUOUS
 62
     7
 10
-61.5
 20
0.0
 11
-61.5
 21
17.99995
  0
LINE
  8
0
  6
CONTINUOUS
 62
     7
 10
-61.5
 20
16.99995
 11
-59.49997
 21
17.99996
  0
LINE
  8
0
  6
CONTINUOUS
 62
     7
 10
-85.5
 20
7.00002
 11
-85.5
 21
0.0
  0
LINE
  8
0
  6
CONTINUOUS
 62
     7
 10
-84.5
 20
8.0
 11
-76.5
 21
8.0
  0
LINE
  8
0
  6
CONTINUOUS
 62
     7
 10
-84.5
 20
8.0
 11
-84.5
 21
3.87299
  0
LINE
  8
0
  6
CONTINUOUS
 62
     7
 10
-76.5
 20
-16.99995
 11
-76.5
 21
0.0
  0
LINE
  8
0
  6
CONTINUOUS
 62
     7
 10
-108.5
 20
0.0
 11
-108.5
 21
-6.0
  0
LINE
  8
0
  6
CONTINUOUS
 62
     7
 10
-107.5
 20
-6.99987
 11
-108.5
 21
-5.99987
  0
LINE
  8
0
  6
CONTINUOUS
 62
     7
 10
-107.5
 20
0.0
 11
-107.5
 21
-7.00002
  0
LINE
  8
0
  6
CONTINUOUS
 62
     7
 10
-85.5
 20
-6.0
 11
-108.5
 21
-6.0
  0
LINE
  8
0
  6
CONTINUOUS
 62
     7
 10
-107.5
 20
-7.00002
 11
-85.5
 21
-7.00002
  0
LINE
  8
0
  6
CONTINUOUS
 62
     7
 10
63.5
 20
-26.0
 11
63.5
 21
26.0
  0
LINE
  8
0
  6
CONTINUOUS
 62
     7
 10
65.5
 20
-26.0
 11
65.5
 21
26.0
  0
LINE
  8
0
  6
CONTINUOUS
 62
     7
 10
86.99995
 20
-26.0
 11
11.53333
 21
-26.0
  0
LINE
  8
0
  6
CONTINUOUS
 62
     7
 10
-61.50003
 20
-16.99992
 11
-76.50006
 21
-16.99992
  0
LINE
  8
0
  6
CONTINUOUS
 62
     7
 10
-75.50007
 20
-17.99992
 11
-56.50004
 21
-17.99992
  0
LINE
  8
0
  6
CONTINUOUS
 62
     7
 10
-75.50003
 20
-17.99987
 11
-76.5
 21
-16.99988
  0
LINE
  8
0
  6
CONTINUOUS
 62
     7
 10
-75.50002
 20
0.0
 11
-75.50002
 21
-17.99995
  0
LINE
  8
0
  6
CONTINUOUS
 62
     7
 10
107.0
 20
-18.0
 11
88.5
 21
-18.0
  0
LINE
  8
0
  6
CONTINUOUS
 62
     7
 10
108.5
 20
-16.5
 11
108.5
 21
0.0
  0
LINE
  8
0
  6
CONTINUOUS
 62
     7
 10
108.0
 20
-17.0
 11
93.5
 21
-17.0
  0
LINE
  8
0
  6
CONTINUOUS
 62
     7
 10
93.5
 20
-18.0
 11
93.5
 21
0.0
  0
LINE
  8
0
  6
CONTINUOUS
 62
     7
 10
88.49992
 20
-24.50001
 11
86.99992
 21
-26.00002
  0
LINE
  8
0
  6
CONTINUOUS
 62
     7
 10
91.76787
 20
-17.99999
 11
93.49992
 21
-16.99998
  0
LINE
  8
0
  6
CONTINUOUS
 62
     7
 10
-61.5
 20
-17.99995
 11
-61.5
 21
0.0
  0
LINE
  8
0
  6
CONTINUOUS
 62
     7
 10
-59.5
 20
-17.99992
 11
-61.50003
 21
-16.99992
  0
LINE
  8
0
  6
CONTINUOUS
 62
     7
 10
-85.5
 20
0.0
 11
-85.5
 21
-7.00002
  0
LINE
  8
0
  6
CONTINUOUS
 62
     7
 10
-76.5
 20
-8.0
 11
-84.5
 21
-8.0
  0
LINE
  8
0
  6
CONTINUOUS
 62
     7
 10
-84.5
 20
-3.87297
 11
-84.5
 21
-8.0
  0
LINE
  8
0
  6
CONTINUOUS
 62
     7
 10
107.0
 20
18.00001
 11
108.5
 21
16.5
  0
LINE
  8
0
  6
CONTINUOUS
 62
     7
 10
108.4999
 20
-16.49999
 11
106.9999
 21
-17.99998
  0
LINE
  8
0
  6
CONTINUOUS
 62
     7
 10
107.0
 20
18.0
 11
107.0
 21
-18.0
  0
LINE
  8
0
  6
CENTER
 62
     2
 10
-111.5
 20
104.8
 11
111.5
 21
104.8
  0
LINE
  8
0
  6
CONTINUOUS
 62
     7
 10
-76.5
 20
104.8
 11
-76.5
 21
121.8
  0
LINE
  8
0
  6
CONTINUOUS
 62
     7
 10
-56.5
 20
80.29993
 11
-56.5
 21
129.3
  0
LINE
  8
0
  6
CONTINUOUS
 62
     7
 10
-108.5
 20
110.8
 11
-108.5
 21
104.8
  0
LINE
  8
0
  6
CONTINUOUS
 62
     7
 10
-108.4999
 20
110.7998
 11
-107.4999
 21
111.7998
  0
LINE
  8
0
  6
CONTINUOUS
 62
     7
 10
-107.5
 20
111.8
 11
-107.5
 21
104.8
  0
LINE
  8
0
  6
CONTINUOUS
 62
     7
 10
-108.5
 20
110.8
 11
-85.5
 21
110.8
  0
LINE
  8
0
  6
CONTINUOUS
 62
     7
 10
-79.49998
 20
111.8
 11
-107.5
 21
111.8
  0
LINE
  8
0
  6
CONTINUOUS
 62
     7
 10
-55.00002
 20
130.8
 11
20.46668
 21
130.8
  0
LINE
  8
0
  6
CONTINUOUS
 62
     7
 10
-76.50002
 20
121.8
 11
-61.49998
 21
121.8
  0
LINE
  8
0
  6
CONTINUOUS
 62
     7
 10
-56.50002
 20
122.8
 11
-75.50005
 21
122.8
  0
LINE
  8
0
  6
CONTINUOUS
 62
     7
 10
-76.5
 20
121.7999
 11
-75.50002
 21
122.7999
  0
LINE
  8
0
  6
CONTINUOUS
 62
     7
 10
-75.50002
 20
122.8
 11
-75.50002
 21
104.8
  0
LINE
  8
0
  6
CONTINUOUS
 62
     7
 10
88.5
 20
122.8
 11
107.0
 21
122.8
  0
LINE
  8
0
  6
CONTINUOUS
 62
     7
 10
108.5
 20
104.8
 11
108.5
 21
121.3
  0
LINE
  8
0
  6
CONTINUOUS
 62
     7
 10
93.5
 20
121.8
 11
108.0
 21
121.8
  0
LINE
  8
0
  6
CONTINUOUS
 62
     7
 10
93.5
 20
104.8
 11
93.5
 21
122.8
  0
LINE
  8
0
  6
CONTINUOUS
 62
     7
 10
88.5
 20
129.3
 11
88.5
 21
80.30002
  0
LINE
  8
0
  6
CONTINUOUS
 62
     7
 10
87.00007
 20
130.8001
 11
88.50007
 21
129.3001
  0
LINE
  8
0
  6
CONTINUOUS
 62
     7
 10
93.5
 20
121.8
 11
91.76793
 21
122.8
  0
LINE
  8
0
  6
CENTER
 62
     2
 10
76.5
 20
114.38
 11
76.5
 21
95.22
  0
LINE
  8
0
  6
CENTER
 62
     2
 10
-44.5
 20
69.29997
 11
-44.5
 21
81.8
  0
LINE
  8
0
  6
CONTINUOUS
 62
     7
 10
-61.5
 20
104.8
 11
-61.5
 21
122.8
  0
LINE
  8
0
  6
CONTINUOUS
 62
     7
 10
-61.49998
 20
121.7999
 11
-59.49995
 21
122.7999
  0
LINE
  8
0
  6
CONTINUOUS
 62
     7
 10
-85.5
 20
111.8
 11
-85.5
 21
104.8
  0
LINE
  8
0
  6
CONTINUOUS
 62
     7
 10
-78.5
 20
112.8
 11
-76.5
 21
112.8
  0
LINE
  8
0
  6
CONTINUOUS
 62
     7
 10
-78.49999
 20
112.8
 11
-79.49997
 21
111.8
  0
LINE
  8
0
  6
CONTINUOUS
 62
     7
 10
-31.5
 20
78.8
 11
-31.5
 21
130.8
  0
LINE
  8
0
  6
CONTINUOUS
 62
     7
 10
-33.5
 20
78.8
 11
-33.5
 21
130.8
  0
LINE
  8
0
  6
CONTINUOUS
 62
     7
 10
-76.5
 20
87.80005
 11
-76.5
 21
104.8
  0
LINE
  8
0
  6
CONTINUOUS
 62
     7
 10
-108.5
 20
104.8
 11
-108.5
 21
98.8
  0
LINE
  8
0
  6
CONTINUOUS
 62
     7
 10
-107.5
 20
97.80011
 11
-108.4999
 21
98.80007
  0
LINE
  8
0
  6
CONTINUOUS
 62
     7
 10
-107.5
 20
104.8
 11
-107.5
 21
97.79999
  0
LINE
  8
0
  6
CONTINUOUS
 62
     7
 10
-85.5
 20
98.8
 11
-108.5
 21
98.8
  0
LINE
  8
0
  6
CONTINUOUS
 62
     7
 10
-107.5
 20
97.79999
 11
-79.49998
 21
97.79999
  0
LINE
  8
0
  6
CONTINUOUS
 62
     7
 10
63.5
 20
78.8
 11
63.5
 21
130.8
  0
LINE
  8
0
  6
CONTINUOUS
 62
     7
 10
65.5
 20
78.8
 11
65.5
 21
130.8
  0
LINE
  8
0
  6
CONTINUOUS
 62
     7
 10
86.99998
 20
78.8
 11
11.53332
 21
78.8
  0
LINE
  8
0
  6
CONTINUOUS
 62
     7
 10
-61.50001
 20
87.80005
 11
-76.50003
 21
87.80005
  0
LINE
  8
0
  6
CONTINUOUS
 62
     7
 10
-75.50006
 20
86.80005
 11
-56.50003
 21
86.80005
  0
LINE
  8
0
  6
CONTINUOUS
 62
     7
 10
-75.50002
 20
86.80008
 11
-76.49999
 21
87.80007
  0
LINE
  8
0
  6
CONTINUOUS
 62
     7
 10
-75.50002
 20
104.8
 11
-75.50002
 21
86.80005
  0
LINE
  8
0
  6
CONTINUOUS
 62
     7
 10
107.0
 20
86.8
 11
88.5
 21
86.8
  0
LINE
  8
0
  6
CONTINUOUS
 62
     7
 10
108.5
 20
88.3
 11
108.5
 21
104.8
  0
LINE
  8
0
  6
CONTINUOUS
 62
     7
 10
108.0
 20
87.8
 11
93.5
 21
87.8
  0
LINE
  8
0
  6
CONTINUOUS
 62
     7
 10
93.5
 20
86.8
 11
93.5
 21
104.8
  0
LINE
  8
0
  6
CONTINUOUS
 62
     7
 10
88.50001
 20
80.30003
 11
87.00001
 21
78.80003
  0
LINE
  8
0
  6
CONTINUOUS
 62
     7
 10
91.76788
 20
86.79997
 11
93.49994
 21
87.79997
  0
LINE
  8
0
  6
CONTINUOUS
 62
     7
 10
-61.5
 20
86.80005
 11
-61.5
 21
104.8
  0
LINE
  8
0
  6
CONTINUOUS
 62
     7
 10
-59.49997
 20
86.80003
 11
-61.5
 21
87.80004
  0
LINE
  8
0
  6
CONTINUOUS
 62
     7
 10
-85.5
 20
104.8
 11
-85.5
 21
97.79999
  0
LINE
  8
0
  6
CONTINUOUS
 62
     7
 10
-76.5
 20
96.8
 11
-78.5
 21
96.8
  0
LINE
  8
0
  6
CONTINUOUS
 62
     7
 10
-79.49997
 20
97.79997
 11
-78.5
 21
96.79998
  0
LINE
  8
0
  6
CONTINUOUS
 62
     7
 10
107.0001
 20
122.8001
 11
108.5001
 21
121.3001
  0
LINE
  8
0
  6
CONTINUOUS
 62
     7
 10
108.5
 20
88.30004
 11
107.0
 21
86.80006
  0
LINE
  8
0
  6
CONTINUOUS
 62
     7
 10
107.0
 20
122.8
 11
107.0
 21
86.8
  0
LINE
  8
0
  6
CENTER
 62
     2
 10
76.5
 20
29.0
 11
76.5
 21
14.0
  0
LINE
  8
0
  6
CONTINUOUS
 62
     7
 10
-44.50002
 20
5.75
 11
-49.47969
 21
2.87502
  0
LINE
  8
0
  6
CONTINUOUS
 62
     7
 10
-49.47966
 20
2.87502
 11
-49.47966
 21
-2.87498
  0
LINE
  8
0
  6
CONTINUOUS
 62
     7
 10
-49.47966
 20
-2.87498
 11
-44.5
 21
-5.75
  0
LINE
  8
0
  6
CONTINUOUS
 62
     7
 10
-44.50003
 20
-5.74999
 11
-39.52037
 21
-2.87499
  0
LINE
  8
0
  6
CONTINUOUS
 62
     7
 10
-39.52036
 20
-2.875
 11
-39.52036
 21
2.875
  0
LINE
  8
0
  6
CONTINUOUS
 62
     7
 10
-39.52037
 20
2.87501
 11
-44.50002
 21
5.75001
  0
LINE
  8
0
  6
CONTINUOUS
 62
     7
 10
-47.45805
 20
0.5
 11
-41.54196
 21
0.5
  0
LINE
  8
0
  6
CONTINUOUS
 62
     7
 10
-47.45805
 20
-0.5
 11
-41.54196
 21
-0.5
  0
LINE
  8
0
  6
CONTINUOUS
 62
     7
 10
81.47968
 20
2.87501
 11
76.50002
 21
5.75
  0
LINE
  8
0
  6
CONTINUOUS
 62
     7
 10
81.47966
 20
-2.87498
 11
81.47966
 21
2.87502
  0
LINE
  8
0
  6
CONTINUOUS
 62
     7
 10
76.50004
 20
-5.75
 11
81.47968
 21
-2.87498
  0
LINE
  8
0
  6
CONTINUOUS
 62
     7
 10
71.52036
 20
-2.875
 11
76.50002
 21
-5.75
  0
LINE
  8
0
  6
CONTINUOUS
 62
     7
 10
71.52036
 20
2.875
 11
71.52036
 21
-2.875
  0
LINE
  8
0
  6
CONTINUOUS
 62
     7
 10
76.5
 20
5.75002
 11
71.52036
 21
2.87502
  0
LINE
  8
0
  6
CONTINUOUS
 62
     7
 10
73.54196
 20
0.5
 11
79.45805
 21
0.5
  0
LINE
  8
0
  6
CONTINUOUS
 62
     7
 10
73.54196
 20
-0.5
 11
79.45805
 21
-0.5
  0
LINE
  8
0
  6
CONTINUOUS
 62
     7
 10
-42.0
 20
72.29997
 11
-47.0
 21
72.29997
  0
LINE
  8
0
  6
CONTINUOUS
 62
     7
 10
-47.0
 20
74.29997
 11
-47.0
 21
72.29997
  0
LINE
  8
0
  6
CONTINUOUS
 62
     7
 10
-47.5
 20
74.31894
 11
-47.5
 21
72.79997
  0
LINE
  8
0
  6
CONTINUOUS
 62
     7
 10
-42.0
 20
74.29997
 11
-42.0
 21
72.29997
  0
LINE
  8
0
  6
CONTINUOUS
 62
     7
 10
-41.5
 20
74.31894
 11
-41.5
 21
72.79997
  0
LINE
  8
0
  6
CONTINUOUS
 62
     7
 10
-49.47968
 20
78.29997
 11
-49.47968
 21
74.73997
  0
LINE
  8
0
  6
CONTINUOUS
 62
     7
 10
-39.52037
 20
78.29997
 11
-39.52037
 21
74.73997
  0
LINE
  8
0
  6
CONTINUOUS
 62
     7
 10
-50.75
 20
78.79997
 11
-50.75
 21
78.29997
  0
LINE
  8
0
  6
CONTINUOUS
 62
     7
 10
-38.25
 20
78.79997
 11
-38.25
 21
78.29997
  0
LINE
  8
0
  6
CONTINUOUS
 62
     7
 10
-47.49999
 20
72.79993
 11
-47.0
 21
72.29993
  0
LINE
  8
0
  6
CONTINUOUS
 62
     7
 10
-42.00002
 20
72.29996
 11
-41.50001
 21
72.79997
  0
LINE
  8
0
  6
CONTINUOUS
 62
     7
 10
-47.5
 20
72.79997
 11
-41.5
 21
72.79997
  0
LINE
  8
0
  6
CONTINUOUS
 62
     7
 10
-38.25
 20
78.29997
 11
-50.75
 21
78.29997
  0
LINE
  8
0
  6
CONTINUOUS
 62
     7
 10
-42.01019
 20
74.29997
 11
-46.98984
 21
74.29997
  0
LINE
  8
0
  6
CONTINUOUS
 62
     7
 10
-44.50005
 20
74.73999
 11
-44.50006
 21
78.29997
  0
LINE
  8
0
  6
CONTINUOUS
 62
     7
 10
76.50003
 20
78.29999
 11
76.50002
 21
74.73997
  0
LINE
  8
0
  6
CENTER
 62
     2
 10
201.3657
 20
-29.0
 11
201.3657
 21
29.0
  0
LINE
  8
0
  6
CENTER
 62
     2
 10
230.3657
 20
0.0
 11
165.8657
 21
0.0
  0
LINE
  8
0
  6
CONTINUOUS
 62
     7
 10
176.3257
 20
-7.0
 11
174.8657
 21
-7.0
  0
LINE
  8
0
  6
CONTINUOUS
 62
     7
 10
176.3257
 20
7.0
 11
174.8657
 21
7.0
  0
LINE
  8
0
  6
CONTINUOUS
 62
     7
 10
174.8657
 20
-7.0
 11
174.8657
 21
7.0
  0
LINE
  8
0
  6
CONTINUOUS
 62
     7
 10
174.8657
 20
-5.75002
 11
171.3104
 21
-5.75002
  0
LINE
  8
0
  6
CONTINUOUS
 62
     7
 10
174.8657
 20
5.74998
 11
171.3105
 21
5.74998
  0
LINE
  8
0
  6
CONTINUOUS
 62
     7
 10
170.8657
 20
-3.0
 11
169.3657
 21
-3.0
  0
LINE
  8
0
  6
CONTINUOUS
 62
     7
 10
170.8657
 20
-2.5
 11
168.8657
 21
-2.5
  0
LINE
  8
0
  6
CONTINUOUS
 62
     7
 10
170.8657
 20
2.5
 11
168.8657
 21
2.5
  0
LINE
  8
0
  6
CONTINUOUS
 62
     7
 10
170.8657
 20
3.0
 11
169.3657
 21
3.0
  0
LINE
  8
0
  6
CONTINUOUS
 62
     7
 10
170.3657
 20
-0.5
 11
168.8657
 21
-0.5
  0
LINE
  8
0
  6
CONTINUOUS
 62
     7
 10
170.3657
 20
0.5
 11
168.8657
 21
0.5
  0
LINE
  8
0
  6
CONTINUOUS
 62
     7
 10
168.8657
 20
-2.5
 11
168.8657
 21
-0.5
  0
LINE
  8
0
  6
CONTINUOUS
 62
     7
 10
168.8657
 20
0.5
 11
168.8657
 21
2.5
  0
LINE
  8
0
  6
CONTINUOUS
 62
     7
 10
169.3657
 20
2.99999
 11
168.8657
 21
2.49997
  0
LINE
  8
0
  6
CONTINUOUS
 62
     7
 10
169.3657
 20
-3.0
 11
168.8657
 21
-2.5
  0
LINE
  8
0
  6
CONTINUOUS
 62
     7
 10
170.3657
 20
-0.5
 11
170.3657
 21
0.5
  0
LINE
  8
0
  6
CONTINUOUS
 62
     7
 10
169.3657
 20
-3.00001
 11
169.3657
 21
-0.50001
  0
LINE
  8
0
  6
CONTINUOUS
 62
     7
 10
169.3657
 20
2.99998
 11
169.3657
 21
0.49998
  0
LINE
  8
0
  6
CONTINUOUS
 62
     7
 10
170.8657
 20
-4.97966
 11
170.8657
 21
4.97964
  0
LINE
  8
0
  6
CONTINUOUS
 62
     7
 10
170.8657
 20
4.97965
 11
171.3105
 21
5.74998
  0
LINE
  8
0
  6
CONTINUOUS
 62
     7
 10
170.8657
 20
-4.97969
 11
171.3104
 21
-5.75005
  0
LINE
  8
0
  6
CONTINUOUS
 62
     7
 10
174.8657
 20
-2.87502
 11
171.3105
 21
-2.87502
  0
LINE
  8
0
  6
CONTINUOUS
 62
     7
 10
174.8657
 20
2.87498
 11
171.3105
 21
2.87498
  0
LINE
  8
0
  6
CONTINUOUS
 62
     7
 10
-194.3657
 20
3.87299
 11
-194.3657
 21
-3.87297
  0
LINE
  8
0
  6
CONTINUOUS
 62
     7
 10
-208.3657
 20
3.87299
 11
-208.3657
 21
-3.87297
  0
LINE
  8
0
  6
CONTINUOUS
 62
     7
 10
-84.50002
 20
3.87299
 11
-79.50002
 21
3.87299
  0
LINE
  8
0
  6
CONTINUOUS
 62
     7
 10
-84.50002
 20
-3.87297
 11
-79.5
 21
-3.87297
  0
LINE
  8
0
  6
CONTINUOUS
 62
     7
 10
-79.5
 20
3.87299
 11
-79.5
 21
-3.87297
  0
LINE
  8
0
  6
CONTINUOUS
 62
     7
 10
-84.50001
 20
-3.87294
 11
-79.50002
 21
3.873
  0
LINE
  8
0
  6
CONTINUOUS
 62
     7
 10
-84.50002
 20
3.87298
 11
-79.50004
 21
-3.87297
  0
LINE
  8
0
  6
CONTINUOUS
 62
     7
 10
-85.50001
 20
-7.00001
 11
-84.50002
 21
-7.99999
  0
LINE
  8
0
  6
CONTINUOUS
 62
     7
 10
-85.49999
 20
7.00002
 11
-84.5
 21
8.0
  0
LINE
  8
0
  6
CONTINUOUS
 62
     7
 10
-56.50001
 20
-24.50002
 11
-55.00001
 21
-26.00002
  0
LINE
  8
0
  6
CONTINUOUS
 62
     7
 10
-56.50002
 20
24.50004
 11
-55.00004
 21
26.00003
  0
LINE
  8
0
  6
CONTINUOUS
 62
     7
 10
-56.50001
 20
129.3001
 11
-55.0
 21
130.8001
  0
LINE
  8
0
  6
CONTINUOUS
 62
     7
 10
-56.50002
 20
80.29996
 11
-55.00004
 21
78.79996
  0
LINE
  8
0
  6
CONTINUOUS
 62
     7
 10
-33.5
 20
26.00003
 11
-33.5
 21
-26.0
  0
LINE
  8
0
  6
CONTINUOUS
 62
     7
 10
-31.5
 20
26.00003
 11
-31.5
 21
-26.0
  0
LINE
  8
0
  6
CENTER
 62
     2
 10
-44.5
 20
14.0
 11
-44.5
 21
29.0
  0
LINE
  8
0
  6
CENTER
 62
     2
 10
-44.5
 20
95.22
 11
-44.5
 21
114.38
  0
LINE
  8
0
  6
CENTER
 62
     2
 10
76.5
 20
10.0
 11
76.5
 21
-10.0
  0
LINE
  8
0
  6
CENTER
 62
     2
 10
76.5
 20
81.8
 11
76.5
 21
69.29997
  0
LINE
  8
0
  6
CENTER
 62
     2
 10
-75.0
 20
-133.95
 11
-75.0
 21
-106.05
  0
LINE
  8
0
  6
CENTER
 62
     2
 10
-87.48298
 20
-120.0
 11
-62.51702
 21
-120.0
  0
LINE
  8
0
  6
CONTINUOUS
 62
     7
 10
-30.0
 20
-129.4829
 11
-30.0
 21
-110.517
  0
LINE
  8
0
  6
CONTINUOUS
 62
     7
 10
-38.0
 20
-110.517
 11
-38.0
 21
-129.483
  0
LINE
  8
0
  6
CENTER
 62
     2
 10
-41.0
 20
-120.0
 11
-27.0
 21
-120.0
  0
LINE
  8
0
  6
CONTINUOUS
 62
     7
 10
-75.00002
 20
-109.05
 11
-84.48299
 21
-114.525
  0
LINE
  8
0
  6
CONTINUOUS
 62
     7
 10
-84.48298
 20
-114.525
 11
-84.48298
 21
-125.475
  0
LINE
  8
0
  6
CONTINUOUS
 62
     7
 10
-84.48301
 20
-125.4751
 11
-75.00004
 21
-130.9501
  0
LINE
  8
0
  6
CONTINUOUS
 62
     7
 10
-75.00001
 20
-130.95
 11
-65.51704
 21
-125.4751
  0
LINE
  8
0
  6
CONTINUOUS
 62
     7
 10
-65.51702
 20
-125.475
 11
-65.51702
 21
-114.525
  0
LINE
  8
0
  6
CONTINUOUS
 62
     7
 10
-65.51701
 20
-114.525
 11
-74.99999
 21
-109.05
  0
LINE
  8
0
  6
CONTINUOUS
 62
     7
 10
-37.15303
 20
-114.525
 11
-30.84705
 21
-114.525
  0
LINE
  8
0
  6
CONTINUOUS
 62
     7
 10
-38.00003
 20
-110.517
 11
-37.15304
 21
-109.05
  0
LINE
  8
0
  6
CONTINUOUS
 62
     7
 10
-30.00001
 20
-110.517
 11
-30.847
 21
-109.05
  0
LINE
  8
0
  6
CONTINUOUS
 62
     7
 10
-37.15306
 20
-109.05
 11
-30.84702
 21
-109.05
  0
LINE
  8
0
  6
CONTINUOUS
 62
     7
 10
-30.84705
 20
-125.475
 11
-37.15303
 21
-125.475
  0
LINE
  8
0
  6
CONTINUOUS
 62
     7
 10
-37.15306
 20
-130.9499
 11
-38.00004
 21
-129.4829
  0
LINE
  8
0
  6
CONTINUOUS
 62
     7
 10
-30.84701
 20
-130.95
 11
-30.00002
 21
-129.483
  0
LINE
  8
0
  6
CONTINUOUS
 62
     7
 10
-30.84702
 20
-130.95
 11
-37.15306
 21
-130.95
  0
LINE
  8
0
  6
CENTER
 62
     2
 10
69.0
 20
-149.55
 11
69.0
 21
-90.45001
  0
LINE
  8
0
  6
CENTER
 62
     2
 10
43.00705
 20
-120.0
 11
94.99295
 21
-120.0
  0
LINE
  8
0
  6
CONTINUOUS
 62
     7
 10
144.0
 20
-142.993
 11
144.0
 21
-97.00705
  0
LINE
  8
0
  6
CONTINUOUS
 62
     7
 10
143.5
 20
-146.55
 11
143.5
 21
-93.45001
  0
LINE
  8
0
  6
CONTINUOUS
 62
     7
 10
133.0
 20
-97.00705
 11
133.0
 21
-142.993
  0
LINE
  8
0
  6
CENTER
 62
     2
 10
130.0
 20
-120.0
 11
147.0
 21
-120.0
  0
LINE
  8
0
  6
CONTINUOUS
 62
     7
 10
69.0
 20
-93.45002
 11
46.00705
 21
-106.725
  0
LINE
  8
0
  6
CONTINUOUS
 62
     7
 10
46.00705
 20
-106.725
 11
46.00705
 21
-133.275
  0
LINE
  8
0
  6
CONTINUOUS
 62
     7
 10
46.00705
 20
-133.275
 11
69.00001
 21
-146.55
  0
LINE
  8
0
  6
CONTINUOUS
 62
     7
 10
68.99998
 20
-146.55
 11
91.99293
 21
-133.275
  0
LINE
  8
0
  6
CONTINUOUS
 62
     7
 10
91.99295
 20
-133.275
 11
91.99295
 21
-106.725
  0
LINE
  8
0
  6
CONTINUOUS
 62
     7
 10
91.99294
 20
-106.725
 11
68.99998
 21
-93.44999
  0
LINE
  8
0
  6
CONTINUOUS
 62
     7
 10
135.0536
 20
-93.45001
 11
143.5
 21
-93.45001
  0
LINE
  8
0
  6
CONTINUOUS
 62
     7
 10
143.5
 20
-97.00705
 11
144.0
 21
-97.00705
  0
LINE
  8
0
  6
CONTINUOUS
 62
     7
 10
135.0536
 20
-106.725
 11
143.5
 21
-106.725
  0
LINE
  8
0
  6
CONTINUOUS
 62
     7
 10
133.0
 20
-97.00701
 11
135.0536
 21
-93.44998
  0
LINE
  8
0
  6
CONTINUOUS
 62
     7
 10
143.5
 20
-146.55
 11
135.0536
 21
-146.55
  0
LINE
  8
0
  6
CONTINUOUS
 62
     7
 10
144.0
 20
-142.993
 11
143.5
 21
-142.993
  0
LINE
  8
0
  6
CONTINUOUS
 62
     7
 10
143.5
 20
-133.275
 11
135.0536
 21
-133.275
  0
LINE
  8
0
  6
CONTINUOUS
 62
     7
 10
135.0536
 20
-146.55
 11
133.0
 21
-142.993
  0
LINE
  8
0
  6
CONTINUOUS
 62
     7
 10
-85.49999
 20
98.79997
 11
-84.49998
 21
97.79996
  0
LINE
  8
0
  6
CONTINUOUS
 62
     7
 10
-85.49995
 20
110.7999
 11
-84.49995
 21
111.7999
  0
LINE
  8
0
  6
PHANTOM
 62
     2
 10
20.46668
 20
130.8
 11
6.53332
 21
78.8
  0
LINE
  8
0
  6
CENTER
 62
     2
 10
-201.3657
 20
29.0
 11
-201.3657
 21
-29.0
  0
LINE
  8
0
  6
CENTER
 62
     2
 10
-230.3657
 20
0.0
 11
-165.8657
 21
0.0
  0
LINE
  8
0
  6
CONTINUOUS
 62
     7
 10
-176.3257
 20
7.0
 11
-174.8657
 21
7.0
  0
LINE
  8
0
  6
CONTINUOUS
 62
     7
 10
-176.3257
 20
-7.0
 11
-174.8657
 21
-7.0
  0
LINE
  8
0
  6
CONTINUOUS
 62
     7
 10
-174.8657
 20
7.0
 11
-174.8657
 21
-7.0
  0
LINE
  8
0
  6
CONTINUOUS
 62
     7
 10
-174.8657
 20
5.75002
 11
-171.3104
 21
5.75002
  0
LINE
  8
0
  6
CONTINUOUS
 62
     7
 10
-174.8657
 20
-5.74998
 11
-171.3104
 21
-5.74998
  0
LINE
  8
0
  6
CONTINUOUS
 62
     7
 10
-170.8657
 20
3.0
 11
-169.3657
 21
3.0
  0
LINE
  8
0
  6
CONTINUOUS
 62
     7
 10
-170.8657
 20
2.5
 11
-168.8657
 21
2.5
  0
LINE
  8
0
  6
CONTINUOUS
 62
     7
 10
-170.8657
 20
-2.5
 11
-168.8657
 21
-2.5
  0
LINE
  8
0
  6
CONTINUOUS
 62
     7
 10
-170.8657
 20
-3.0
 11
-169.3657
 21
-3.0
  0
LINE
  8
0
  6
CONTINUOUS
 62
     7
 10
-170.3657
 20
0.5
 11
-168.8657
 21
0.5
  0
LINE
  8
0
  6
CONTINUOUS
 62
     7
 10
-170.3657
 20
-0.5
 11
-168.8657
 21
-0.5
  0
LINE
  8
0
  6
CONTINUOUS
 62
     7
 10
-168.8657
 20
2.5
 11
-168.8657
 21
0.5
  0
LINE
  8
0
  6
CONTINUOUS
 62
     7
 10
-168.8657
 20
-0.5
 11
-168.8657
 21
-2.5
  0
LINE
  8
0
  6
CONTINUOUS
 62
     7
 10
-169.3657
 20
-2.99999
 11
-168.8657
 21
-2.49997
  0
LINE
  8
0
  6
CONTINUOUS
 62
     7
 10
-169.3657
 20
2.99999
 11
-168.8657
 21
2.5
  0
LINE
  8
0
  6
CONTINUOUS
 62
     7
 10
-170.3657
 20
0.5
 11
-170.3657
 21
-0.5
  0
LINE
  8
0
  6
CONTINUOUS
 62
     7
 10
-169.3657
 20
3.00001
 11
-169.3657
 21
0.50001
  0
LINE
  8
0
  6
CONTINUOUS
 62
     7
 10
-169.3657
 20
-2.99998
 11
-169.3657
 21
-0.49998
  0
LINE
  8
0
  6
CONTINUOUS
 62
     7
 10
-170.8657
 20
4.97966
 11
-170.8657
 21
-4.97964
  0
LINE
  8
0
  6
CONTINUOUS
 62
     7
 10
-170.8657
 20
-4.97965
 11
-171.3104
 21
-5.74998
  0
LINE
  8
0
  6
CONTINUOUS
 62
     7
 10
-170.8657
 20
4.97968
 11
-171.3105
 21
5.75004
  0
LINE
  8
0
  6
CONTINUOUS
 62
     7
 10
-174.8657
 20
2.87502
 11
-171.3104
 21
2.87502
  0
LINE
  8
0
  6
CONTINUOUS
 62
     7
 10
-174.8657
 20
-2.87498
 11
-171.3104
 21
-2.87498
  0
LINE
  8
0
  6
CONTINUOUS
 62
     7
 10
-44.5
 20
78.29997
 11
-44.5
 21
74.73997
  0
LINE
  8
0
  6
CONTINUOUS
 62
     7
 10
79.0
 20
72.29997
 11
74.0
 21
72.29997
  0
LINE
  8
0
  6
CONTINUOUS
 62
     7
 10
74.0
 20
74.29997
 11
74.0
 21
72.29997
  0
LINE
  8
0
  6
CONTINUOUS
 62
     7
 10
73.5
 20
74.31894
 11
73.5
 21
72.79997
  0
LINE
  8
0
  6
CONTINUOUS
 62
     7
 10
79.0
 20
74.29997
 11
79.0
 21
72.29997
  0
LINE
  8
0
  6
CONTINUOUS
 62
     7
 10
79.5
 20
74.31894
 11
79.5
 21
72.79997
  0
LINE
  8
0
  6
CONTINUOUS
 62
     7
 10
71.52032
 20
78.29997
 11
71.52032
 21
74.73997
  0
LINE
  8
0
  6
CONTINUOUS
 62
     7
 10
81.47963
 20
78.29997
 11
81.47963
 21
74.73997
  0
LINE
  8
0
  6
CONTINUOUS
 62
     7
 10
70.25
 20
78.79997
 11
70.25
 21
78.29997
  0
LINE
  8
0
  6
CONTINUOUS
 62
     7
 10
82.75
 20
78.79997
 11
82.75
 21
78.29997
  0
LINE
  8
0
  6
CONTINUOUS
 62
     7
 10
73.49995
 20
72.79992
 11
73.99995
 21
72.29993
  0
LINE
  8
0
  6
CONTINUOUS
 62
     7
 10
78.99992
 20
72.29989
 11
79.49992
 21
72.7999
  0
LINE
  8
0
  6
CONTINUOUS
 62
     7
 10
73.5
 20
72.79997
 11
79.5
 21
72.79997
  0
LINE
  8
0
  6
CONTINUOUS
 62
     7
 10
82.75
 20
78.29997
 11
70.25
 21
78.29997
  0
LINE
  8
0
  6
CONTINUOUS
 62
     7
 10
78.98981
 20
74.29997
 11
74.01016
 21
74.29997
  0
LINE
  8
0
  6
CONTINUOUS
 62
     7
 10
76.49995
 20
74.29998
 11
76.49994
 21
78.29999
  0
LINE
  8
0
  6
CONTINUOUS
 62
     7
 10
76.5
 20
78.29997
 11
76.5
 21
74.73997
  0
LINE
  8
0
  6
CONTINUOUS
 62
     7
 10
-262.2472
 20
-180.0
 11
-262.2472
 21
180.0
  0
LINE
  8
0
  6
CONTINUOUS
 62
     7
 10
262.2472
 20
180.0
 11
262.2472
 21
-180.0
  0
LINE
  8
0
  6
CONTINUOUS
 62
     7
 10
-262.2472
 20
-180.0
 11
262.2472
 21
-180.0
  0
LINE
  8
0
  6
CONTINUOUS
 62
     7
 10
-262.2472
 20
180.0
 11
262.2472
 21
180.0
  0
LINE
  8
0
  6
CONTINUOUS
 62
     7
 10
-262.2472
 20
159.7753
 11
-154.382
 21
159.7753
  0
LINE
  8
0
  6
CONTINUOUS
 62
     7
 10
-154.382
 20
159.7753
 11
-154.382
 21
180.0
  0
LINE
  8
0
  6
CONTINUOUS
 62
     7
 10
154.382
 20
-159.7753
 11
262.2472
 21
-159.7753
  0
LINE
  8
0
  6
CONTINUOUS
 62
     7
 10
182.7034
 20
-164.6383
 11
193.0652
 21
-164.6383
  0
LINE
  8
0
  6
CONTINUOUS
 62
     7
 10
182.7034
 20
-173.8271
 11
191.5012
 21
-173.8271
  0
LINE
  8
0
  6
CONTINUOUS
 62
     7
 10
182.7034
 20
-176.1732
 11
194.6293
 21
-176.1732
  0
LINE
  8
0
  6
CONTINUOUS
 62
     7
 10
182.7034
 20
-166.9844
 11
191.5012
 21
-166.9844
  0
LINE
  8
0
  6
CONTINUOUS
 62
     7
 10
182.7034
 20
-164.6383
 11
182.7034
 21
-166.9844
  0
LINE
  8
0
  6
CONTINUOUS
 62
     7
 10
194.6293
 20
-166.2024
 11
194.6293
 21
-176.1732
  0
LINE
  8
0
  6
CONTINUOUS
 62
     7
 10
191.5012
 20
-166.9844
 11
191.5012
 21
-173.8271
  0
LINE
  8
0
  6
CONTINUOUS
 62
     7
 10
196.3888
 20
-164.6383
 11
196.3888
 21
-166.9844
  0
LINE
  8
0
  6
CONTINUOUS
 62
     7
 10
207.5326
 20
-166.9844
 11
207.5326
 21
-174.6092
  0
LINE
  8
0
  6
CONTINUOUS
 62
     7
 10
204.4045
 20
-166.9844
 11
204.4045
 21
-173.8271
  0
LINE
  8
0
  6
CONTINUOUS
 62
     7
 10
182.7034
 20
-173.8271
 11
182.7034
 21
-176.1732
  0
LINE
  8
0
  6
CONTINUOUS
 62
     7
 10
196.3888
 20
-164.6383
 11
199.4796
 21
-164.6383
  0
LINE
  8
0
  6
CONTINUOUS
 62
     7
 10
196.3888
 20
-176.1732
 11
198.8176
 21
-176.1732
  0
LINE
  8
0
  6
CONTINUOUS
 62
     7
 10
196.3887
 20
-176.1731
 11
198.8509
 21
-166.9844
  0
LINE
  8
0
  6
CONTINUOUS
 62
     7
 10
196.3888
 20
-166.9844
 11
198.8509
 21
-166.9844
  0
LINE
  8
0
  6
CONTINUOUS
 62
     7
 10
198.8178
 20
-176.1733
 11
201.2799
 21
-166.9845
  0
LINE
  8
0
  6
CONTINUOUS
 62
     7
 10
202.0584
 20
-173.8271
 11
204.4045
 21
-173.8271
  0
LINE
  8
0
  6
CONTINUOUS
 62
     7
 10
202.0584
 20
-173.8271
 11
202.6869
 21
-176.1731
  0
LINE
  8
0
  6
CONTINUOUS
 62
     7
 10
202.6871
 20
-176.1732
 11
205.9686
 21
-176.1732
  0
LINE
  8
0
  6
CONTINUOUS
 62
     7
 10
201.2798
 20
-166.9844
 11
204.4045
 21
-166.9844
  0
LINE
  8
0
  6
CONTINUOUS
 62
     7
 10
201.9084
 20
-164.6383
 11
205.1865
 21
-164.6383
  0
LINE
  8
0
  6
CONTINUOUS
 62
     7
 10
199.4796
 20
-164.6384
 11
199.9458
 21
-162.8984
  0
LINE
  8
0
  6
CONTINUOUS
 62
     7
 10
201.9082
 20
-164.6382
 11
202.3744
 21
-162.8982
  0
LINE
  8
0
  6
CONTINUOUS
 62
     7
 10
209.4877
 20
-164.6383
 11
213.2023
 21
-164.6383
  0
LINE
  8
0
  6
CONTINUOUS
 62
     7
 10
209.4877
 20
-166.9844
 11
218.6106
 21
-166.9844
  0
LINE
  8
0
  6
CONTINUOUS
 62
     7
 10
213.2023
 20
-176.1732
 11
216.3303
 21
-176.1732
  0
LINE
  8
0
  6
CONTINUOUS
 62
     7
 10
209.4877
 20
-164.6383
 11
209.4877
 21
-166.9844
  0
LINE
  8
0
  6
CONTINUOUS
 62
     7
 10
221.0225
 20
-171.2385
 11
221.0225
 21
-173.8271
  0
LINE
  8
0
  6
CONTINUOUS
 62
     7
 10
209.4875
 20
-173.827
 11
213.2022
 21
-172.0948
  0
LINE
  8
0
  6
CONTINUOUS
 62
     7
 10
209.4879
 20
-171.2387
 11
218.6108
 21
-166.9846
  0
LINE
  8
0
  6
CONTINUOUS
 62
     7
 10
209.4877
 20
-171.2385
 11
209.4877
 21
-173.8271
  0
LINE
  8
0
  6
CONTINUOUS
 62
     7
 10
216.3302
 20
-171.6391
 11
221.0225
 21
-173.827
  0
LINE
  8
0
  6
CONTINUOUS
 62
     7
 10
218.0311
 20
-169.8436
 11
221.0228
 21
-171.2387
  0
LINE
  8
0
  6
CONTINUOUS
 62
     7
 10
221.0225
 20
-166.2024
 11
221.0225
 21
-167.4519
  0
LINE
  8
0
  6
CONTINUOUS
 62
     7
 10
213.2023
 20
-162.8984
 11
213.2023
 21
-164.6383
  0
LINE
  8
0
  6
CONTINUOUS
 62
     7
 10
216.3303
 20
-162.8984
 11
216.3303
 21
-164.6383
  0
LINE
  8
0
  6
CONTINUOUS
 62
     7
 10
216.3303
 20
-164.6383
 11
219.4585
 21
-164.6383
  0
LINE
  8
0
  6
CONTINUOUS
 62
     7
 10
213.2023
 20
-172.095
 11
213.2023
 21
-176.1732
  0
LINE
  8
0
  6
CONTINUOUS
 62
     7
 10
216.3303
 20
-171.6392
 11
216.3303
 21
-176.1732
  0
LINE
  8
0
  6
CONTINUOUS
 62
     7
 10
218.031
 20
-169.8436
 11
220.1197
 21
-168.8696
  0
LINE
  8
0
  6
CONTINUOUS
 62
     7
 10
231.5798
 20
-163.6022
 11
233.9258
 21
-163.6022
  0
LINE
  8
0
  6
CONTINUOUS
 62
     7
 10
222.0001
 20
-168.4483
 11
222.0001
 21
-170.9731
  0
LINE
  8
0
  6
CONTINUOUS
 62
     7
 10
233.9258
 20
-163.6022
 11
233.9258
 21
-164.6383
  0
LINE
  8
0
  6
CONTINUOUS
 62
     7
 10
231.5798
 20
-163.6022
 11
231.5798
 21
-164.1077
  0
LINE
  8
0
  6
CONTINUOUS
 62
     7
 10
228.4517
 20
-168.4072
 11
228.4517
 21
-176.1732
  0
LINE
  8
0
  6
CONTINUOUS
 62
     7
 10
222.0001
 20
-168.4484
 11
231.0869
 21
-164.8345
  0
LINE
  8
0
  6
CONTINUOUS
 62
     7
 10
222.0001
 20
-170.9732
 11
228.4517
 21
-168.4073
  0
LINE
  8
0
  6
CONTINUOUS
 62
     7
 10
228.4517
 20
-176.1732
 11
231.5798
 21
-176.1732
  0
LINE
  8
0
  6
CONTINUOUS
 62
     7
 10
231.5798
 20
-167.1632
 11
231.5798
 21
-176.1732
  0
LINE
  8
0
  6
CONTINUOUS
 62
     7
 10
231.5801
 20
-167.1633
 11
232.4471
 21
-166.8185
  0
LINE
  8
0
  6
CONTINUOUS
 62
     7
 10
199.7572
 20
-162.8984
 11
202.3746
 21
-162.8984
  0
LINE
  8
0
  6
CONTINUOUS
 62
     7
 10
206.2618
 20
-162.8984
 11
207.2589
 21
-162.8984
  0
LINE
  8
0
  6
CONTINUOUS
 62
     7
 10
213.2023
 20
-162.8984
 11
216.3303
 21
-162.8984
  0
LINE
  8
0
  6
CONTINUOUS
 62
     7
 10
206.2618
 20
-164.4624
 11
207.2589
 21
-164.4624
  0
LINE
  8
0
  6
CONTINUOUS
 62
     7
 10
206.2618
 20
-162.8984
 11
206.2618
 21
-164.4624
  0
LINE
  8
0
  6
CONTINUOUS
 62
     7
 10
207.2589
 20
-162.8984
 11
207.2589
 21
-164.4624
  0
LINE
  8
0
  6
CONTINUOUS
 62
     7
 10
207.8454
 20
-162.8984
 11
207.8454
 21
-164.4624
  0
LINE
  8
0
  6
CONTINUOUS
 62
     7
 10
208.9598
 20
-162.8984
 11
208.9598
 21
-164.4624
  0
LINE
  8
0
  6
CONTINUOUS
 62
     7
 10
207.8454
 20
-162.8984
 11
208.9598
 21
-162.8984
  0
LINE
  8
0
  6
CONTINUOUS
 62
     7
 10
207.8454
 20
-164.4624
 11
208.9598
 21
-164.4624
  0
LINE
  8
0
  6
CONTINUOUS
 62
     7
 10
154.382
 20
159.7753
 11
262.2472
 21
159.7753
  0
LINE
  8
0
  6
CONTINUOUS
 62
     7
 10
154.382
 20
180.0
 11
154.382
 21
159.7753
  0
LINE
  8
0
  6
CONTINUOUS
 62
     7
 10
154.382
 20
-159.7753
 11
154.382
 21
-180.0
  0
LINE
  8
0
  6
PHANTOM
 62
     2
 10
20.46668
 20
26.0
 11
6.53333
 21
-26.0
  0
LINE
  8
0
  6
PHANTOM
 62
     2
 10
25.46667
 20
130.8
 11
11.53332
 21
78.79999
  0
LINE
  8
0
  6
PHANTOM
 62
     2
 10
25.46668
 20
26.0
 11
11.53333
 21
-26.0
  0
LINE
  8
0
  6
CONTINUOUS
 62
     7
 10
25.46668
 20
130.8
 11
87.0
 21
130.8
  0
LINE
  8
0
  6
CONTINUOUS
 62
     7
 10
6.53332
 20
78.8
 11
-55.00006
 21
78.8
  0
LINE
  8
0
  6
CONTINUOUS
 62
     7
 10
25.46668
 20
26.0
 11
87.0
 21
26.0
  0
LINE
  8
0
  6
CONTINUOUS
 62
     7
 10
6.53333
 20
-26.0
 11
-55.0
 21
-26.0
  0
CIRCLE
  8
0
  6
CONTINUOUS
 62
     7
 10
76.5
 20
104.8
 40
6.5
  0
CIRCLE
  8
0
  6
CONTINUOUS
 62
     7
 10
76.5
 20
104.8
 40
4.6
  0
CIRCLE
  8
0
  6
CONTINUOUS
 62
     7
 10
-44.5
 20
104.8
 40
6.5
  0
CIRCLE
  8
0
  6
CONTINUOUS
 62
     7
 10
-44.5
 20
104.8
 40
4.6
  0
CIRCLE
  8
0
  6
CONTINUOUS
 62
     7
 10
-44.5
 20
0.0
 40
7.0
  0
CIRCLE
  8
0
  6
CONTINUOUS
 62
     7
 10
-44.5
 20
0.0
 40
6.25
  0
CIRCLE
  8
0
  6
CONTINUOUS
 62
     7
 10
-44.50002
 20
0.0
 40
4.97965
  0
CIRCLE
  8
0
  6
CONTINUOUS
 62
     7
 10
-44.5
 20
0.0
 40
3.0
  0
CIRCLE
  8
0
  6
CONTINUOUS
 62
     7
 10
-44.5
 20
0.0
 40
2.5
  0
CIRCLE
  8
0
  6
CONTINUOUS
 62
     7
 10
76.5
 20
0.0
 40
7.0
  0
CIRCLE
  8
0
  6
CONTINUOUS
 62
     7
 10
76.5
 20
0.0
 40
6.25
  0
CIRCLE
  8
0
  6
CONTINUOUS
 62
     7
 10
76.50002
 20
0.0
 40
4.97965
  0
CIRCLE
  8
0
  6
CONTINUOUS
 62
     7
 10
76.5
 20
0.0
 40
3.0
  0
CIRCLE
  8
0
  6
CONTINUOUS
 62
     7
 10
76.5
 20
0.0
 40
2.5
  0
CIRCLE
  8
0
  6
CONTINUOUS
 62
     7
 10
201.3657
 20
0.0
 40
26.0
  0
ARC
  8
0
  6
CONTINUOUS
 62
     7
 10
173.4112
 20
-4.31252
 40
2.54549
 50
145.6166
 51
214.3833
  0
ARC
  8
0
  6
CONTINUOUS
 62
     7
 10
180.3806
 20
-0.00002
 40
9.51485
 50
162.4126
 51
197.5873
  0
ARC
  8
0
  6
CONTINUOUS
 62
     7
 10
173.4112
 20
4.31252
 40
2.54549
 50
145.6166
 51
214.3833
  0
CIRCLE
  8
0
  6
CONTINUOUS
 62
     7
 10
201.3657
 20
0.0
 40
17.0
  0
CIRCLE
  8
0
  6
CONTINUOUS
 62
     7
 10
201.3657
 20
0.0
 40
18.0
  0
CIRCLE
  8
0
  6
CONTINUOUS
 62
     7
 10
-201.3657
 20
0.0
 40
8.0
  0
CIRCLE
  8
0
  6
CONTINUOUS
 62
     7
 10
-201.3657
 20
0.0
 40
7.0
  0
CIRCLE
  8
0
  6
CONTINUOUS
 62
     7
 10
-201.3657
 20
0.0
 40
6.2
  0
CIRCLE
  8
0
  6
CONTINUOUS
 62
     7
 10
-75.0
 20
-120.0
 40
6.2
  0
CIRCLE
  8
0
  6
CONTINUOUS
 62
     7
 10
-75.0
 20
-120.0
 40
7.0
  0
CIRCLE
  8
0
  6
CONTINUOUS
 62
     7
 10
-75.0
 20
-120.0
 40
9.48298
  0
ARC
  8
0
  6
CONTINUOUS
 62
     7
 10
-33.15257
 20
-111.7875
 40
4.84744
 50
145.6159
 51
214.3838
  0
ARC
  8
0
  6
CONTINUOUS
 62
     7
 10
-19.88072
 20
-120.0
 40
18.11928
 50
162.4123
 51
197.5876
  0
ARC
  8
0
  6
CONTINUOUS
 62
     7
 10
-34.84749
 20
-111.7875
 40
4.84744
 50
325.6162
 51
34.38411
  0
ARC
  8
0
  6
CONTINUOUS
 62
     7
 10
-48.11934
 20
-120.0
 40
18.11928
 50
342.4124
 51
17.58767
  0
ARC
  8
0
  6
CONTINUOUS
 62
     7
 10
-33.15257
 20
-128.2125
 40
4.84743
 50
145.6162
 51
214.3841
  0
ARC
  8
0
  6
CONTINUOUS
 62
     7
 10
-34.84749
 20
-128.2125
 40
4.84744
 50
325.6159
 51
34.3838
  0
CIRCLE
  8
0
  6
CONTINUOUS
 62
     7
 10
69.0
 20
-120.0
 40
17.0
  0
CIRCLE
  8
0
  6
CONTINUOUS
 62
     7
 10
69.0
 20
-120.0
 40
22.99295
  0
CIRCLE
  8
0
  6
CONTINUOUS
 62
     7
 10
69.0
 20
-120.0
 40
18.0
  0
ARC
  8
0
  6
CONTINUOUS
 62
     7
 10
144.7532
 20
-100.0875
 40
11.75318
 50
145.6156
 51
214.3844
  0
ARC
  8
0
  6
CONTINUOUS
 62
     7
 10
176.9322
 20
-120.0
 40
43.93224
 50
162.412
 51
197.5879
  0
ARC
  8
0
  6
CONTINUOUS
 62
     7
 10
144.7532
 20
-139.9125
 40
11.75318
 50
145.6156
 51
214.3844
  0
CIRCLE
  8
0
  6
CONTINUOUS
 62
     7
 10
-201.3657
 20
0.0
 40
26.0
  0
ARC
  8
0
  6
CONTINUOUS
 62
     7
 10
-173.4112
 20
4.31252
 40
2.54549
 50
325.6166
 51
34.38338
  0
ARC
  8
0
  6
CONTINUOUS
 62
     7
 10
-180.3805
 20
0.00002
 40
9.51486
 50
342.4127
 51
17.58733
  0
ARC
  8
0
  6
CONTINUOUS
 62
     7
 10
-173.4112
 20
-4.31252
 40
2.54549
 50
325.6166
 51
34.38338
  0
CIRCLE
  8
0
  6
CONTINUOUS
 62
     7
 10
-201.3657
 20
0.0
 40
17.0
  0
CIRCLE
  8
0
  6
CONTINUOUS
 62
     7
 10
-201.3657
 20
0.0
 40
18.0
  0
ARC
  8
0
  6
CONTINUOUS
 62
     7
 10
193.0652
 20
-166.2024
 40
1.56404
 50
0.0
 51
89.99999
  0
ARC
  8
0
  6
CONTINUOUS
 62
     7
 10
205.9686
 20
-174.6092
 40
1.56404
 50
270.0
 51
0.0
  0
ARC
  8
0
  6
CONTINUOUS
 62
     7
 10
205.1865
 20
-166.9844
 40
2.34607
 50
0.0
 51
89.99999
  0
ARC
  8
0
  6
CONTINUOUS
 62
     7
 10
219.4585
 20
-166.2024
 40
1.56404
 50
0.0
 51
89.99999
  0
ARC
  8
0
  6
CONTINUOUS
 62
     7
 10
219.4585
 20
-167.4519
 40
1.56405
 50
295.0
 51
0.0
  0
ARC
  8
0
  6
CONTINUOUS
 62
     7
 10
231.5798
 20
-164.6383
 40
2.34607
 50
291.6882
 51
0.0
  0
ARC
  8
0
  6
CONTINUOUS
 62
     7
 10
230.7978
 20
-164.1077
 40
0.78203
 50
291.688
 51
0.0
  0
ARC
  8
0
  6
CONTINUOUS
 62
     7
 10
74.01016
 20
81.56458
 40
7.26461
 50
249.9564
 51
290.0436
  0
ARC
  8
0
  6
CONTINUOUS
 62
     7
 10
78.98984
 20
81.56458
 40
7.26461
 50
249.9564
 51
290.0436
  0
ARC
  8
0
  6
CONTINUOUS
 62
     7
 10
-46.98984
 20
81.56458
 40
7.26461
 50
249.9564
 51
290.0436
  0
ARC
  8
0
  6
CONTINUOUS
 62
     7
 10
-42.01016
 20
81.56458
 40
7.26461
 50
249.9564
 51
290.0436
  0
ARC
  8
0
  6
CONTINUOUS
 62
     7
 10
-86.50002
 20
0.00001
 40
7.99998
 50
331.0449
 51
28.95501
  0
ARC
  8
0
  6
CONTINUOUS
 62
     7
 10
-77.50002
 20
0.00001
 40
7.99998
 50
151.0449
 51
208.955
  0
TEXT
  8
0
  6
CONTINUOUS
 62
     7
 10
-106.5357
 20
-97.35
 40
5.0
  1
ROD NUT(M14*1.5)
 41
0.8
  7
STANDARD
  0
TEXT
  8
0
  6
CONTINUOUS
 62
     7
 10
33.70592
 20
-81.97796
 40
5.0
  1
MOUNT NUT(M36*2)
 41
0.8
  7
STANDARD
  0
TEXT
  8
0
  6
CONTINUOUS
 62
     7
 10
161.9774
 20
167.0677
 40
6.0
  1
DATE : MAR ,1987
 41
0.8
  7
STANDARD
  0
TEXT
  8
0
  6
CONTINUOUS
 62
     7
 10
-252.6446
 20
166.5977
 40
7.0
  1
SLIM CYLINDER
 41
0.8
  7
STANDARD
  0
TEXT
  8
0
  6
CONTINUOUS
 62
     7
 10
-229.2471
 20
127.675
 40
7.0
  1
MODEL : DA 50*ST
 41
0.8
  7
STANDARD
  0
ENDSEC
  0
EOF
