  0
SECTION
  2
HEADER
  9
$ACADVER
  1
AC1002
  9
$INSBASE
 10
0.0
 20
0.0
  9
$EXTMIN
 10
-262.2472
 20
-180.0
  9
$EXTMAX
 10
262.2472
 20
180.0
  9
$LIMMIN
 10
0.0
 20
0.0
  9
$LIMMAX
 10
12.0
 20
9.0
  9
$VIEWCTR
 10
20.22981726
 20
0.0
  9
$VIEWSIZE
 40
360.0
  9
$SNAPMODE
 70
     0
  9
$SNAPUNIT
 10
1.0
 20
1.0
  9
$SNAPBASE
 10
0.0
 20
0.0
  9
$SNAPANG
 50
0.0
  9
$SNAPSTYLE
 70
     0
  9
$SNAPISOPAIR
 70
     0
  9
$GRIDMODE
 70
     0
  9
$GRIDUNIT
 10
0.0
 20
0.0
  9
$ORTHOMODE
 70
     0
  9
$REGENMODE
 70
     1
  9
$FILLMODE
 70
     1
  9
$QTEXTMODE
 70
     0
  9
$DRAGMODE
 70
     2
  9
$LTSCALE
 40
1.0
  9
$OSMODE
 70
     0
  9
$ATTMODE
 70
     1
  9
$TEXTSIZE
 40
0.2
  9
$TRACEWID
 40
0.05
  9
$TEXTSTYLE
  7
AAA
  9
$CLAYER
  8
0
  9
$CELTYPE
  6
BYLAYER
  9
$CECOLOR
 62
   256
  9
$DIMSCALE
 40
1.0
  9
$DIMASZ
 40
0.18
  9
$DIMEXO
 40
0.0625
  9
$DIMDLI
 40
0.38
  9
$DIMRND
 40
0.0
  9
$DIMDLE
 40
0.0
  9
$DIMEXE
 40
0.18
  9
$DIMTP
 40
0.0
  9
$DIMTM
 40
0.0
  9
$DIMTXT
 40
0.18
  9
$DIMCEN
 40
0.09
  9
$DIMTSZ
 40
0.0
  9
$DIMTOL
 70
     0
  9
$DIMLIM
 70
     0
  9
$DIMTIH
 70
     1
  9
$DIMTOH
 70
     1
  9
$DIMSE1
 70
     0
  9
$DIMSE2
 70
     0
  9
$DIMTAD
 70
     0
  9
$DIMZIN
 70
     0
  9
$DIMBLK
  1

  9
$LUNITS
 70
     2
  9
$LUPREC
 70
     4
  9
$AXISMODE
 70
     0
  9
$AXISUNIT
 10
0.0
 20
0.0
  9
$SKETCHINC
 40
0.1
  9
$FILLETRAD
 40
0.0
  9
$AUNITS
 70
     0
  9
$AUPREC
 70
     0
  9
$MENU
  1
ACAD
  9
$ELEVATION
 40
0.0
  9
$THICKNESS
 40
0.0
  9
$VIEWDIR
 10
0.0
 20
0.0
 30
1.0
  9
$LIMCHECK
 70
     0
  9
$BLIPMODE
 70
     1
  9
$CHAMFERA
 40
0.0
  9
$CHAMFERB
 40
0.0
  9
$FASTZOOM
 70
     1
  9
$SKPOLY
 70
     0
  9
$TDCREATE
 40
2447798.7766667164
  9
$TDUPDATE
 40
2447798.7766667164
  9
$TDINDWG
 40
0.0012268519
  9
$TDUSRTIMER
 40
0.0012268519
  9
$USRTIMER
 70
     1
  9
$ANGBASE
 50
0.0
  9
$ANGDIR
 70
     0
  9
$PDMODE
 70
     0
  9
$PDSIZE
 40
0.0
  9
$PLINEWID
 40
0.0
  9
$COORDS
 70
     0
  9
$USERI1
 70
     0
  9
$USERI2
 70
     0
  9
$USERI3
 70
     0
  9
$USERI4
 70
     0
  9
$USERI5
 70
     0
  9
$USERR1
 40
0.0
  9
$USERR2
 40
0.0
  9
$USERR3
 40
0.0
  9
$USERR4
 40
0.0
  9
$USERR5
 40
0.0
  0
ENDSEC
  0
SECTION
  2
TABLES
  0
TABLE
  2
LTYPE
 70
     5
  0
LTYPE
  2
CONTINUOUS
 70
    64
  3
SOLID
 72
    65
 73
     0
 40
0.0
  0
LTYPE
  2
DASHED
 70
    64
  3
DASHED
 72
    65
 73
     2
 40
0.75
 49
0.5
 49
-0.25
  0
LTYPE
  2
CENTER
 70
    64
  3
CENTER
 72
    65
 73
     4
 40
2.0
 49
1.25
 49
-0.25
 49
0.25
 49
-0.25
  0
LTYPE
  2
PHANTOM
 70
    64
  3
PHANTOM
 72
    65
 73
     6
 40
2.5
 49
1.25
 49
-0.25
 49
0.25
 49
-0.25
 49
0.25
 49
-0.25
  0
ENDTAB
  0
TABLE
  2
LAYER
 70
     1
  0
LAYER
  2
0
 70
    64
 62
     7
  6
CONTINUOUS
  0
ENDTAB
  0
TABLE
  2
STYLE
 70
     2
  0
STYLE
  2
AAA
 70
     0
 40
0.0
 41
1.0
 50
0.0
 71
     0
 42
0.2
  3
TXT
  4

  0
STYLE
  2
STANDARD
 70
    64
 40
0.0
 41
1.0
 50
0.0
 71
     0
 42
0.2
  3
TXT
  4
BIGFONT
  0
ENDTAB
  0
TABLE
  2
VIEW
 70
     0
  0
ENDTAB
  0
ENDSEC
  0
SECTION
  2
BLOCKS
  0
ENDSEC
  0
SECTION
  2
ENTITIES
  0
POINT
  8
0
  6
CONTINUOUS
 62
     7
 10
-206.3657
 20
-10.0
  0
POINT
  8
0
  6
CONTINUOUS
 62
     7
 10
-185.3657
 20
-10.0
  0
POINT
  8
0
  6
CONTINUOUS
 62
     7
 10
-61.5
 20
-10.0
  0
POINT
  8
0
  6
CONTINUOUS
 62
     7
 10
121.5
 20
-10.0
  0
POINT
  8
0
  6
CONTINUOUS
 62
     7
 10
-61.5
 20
94.8
  0
POINT
  8
0
  6
CONTINUOUS
 62
     7
 10
121.5
 20
94.8
  0
POINT
  8
0
  6
CONTINUOUS
 62
     7
 10
192.3657
 20
-10.0
  0
POINT
  8
0
  6
CONTINUOUS
 62
     7
 10
213.3657
 20
-10.0
  0
POINT
  8
0
  6
CONTINUOUS
 62
     7
 10
-61.5
 20
-130.0001
  0
POINT
  8
0
  6
CONTINUOUS
 62
     7
 10
-54.5
 20
-130.0001
  0
POINT
  8
0
  6
CONTINUOUS
 62
     7
 10
-1.5
 20
-130.0001
  0
POINT
  8
0
  6
CONTINUOUS
 62
     7
 10
4.5
 20
-130.0001
  0
LINE
  8
0
  6
CONTINUOUS
 62
     7
 10
-262.2472
 20
-180.0
 11
-262.2472
 21
180.0
  0
LINE
  8
0
  6
CONTINUOUS
 62
     7
 10
262.2472
 20
180.0
 11
262.2472
 21
-180.0
  0
LINE
  8
0
  6
CONTINUOUS
 62
     7
 10
-262.2472
 20
-180.0
 11
262.2472
 21
-180.0
  0
LINE
  8
0
  6
CONTINUOUS
 62
     7
 10
-262.2472
 20
180.0
 11
262.2472
 21
180.0
  0
LINE
  8
0
  6
CONTINUOUS
 62
     7
 10
-262.2472
 20
159.7753
 11
-154.382
 21
159.7753
  0
LINE
  8
0
  6
CONTINUOUS
 62
     7
 10
-154.382
 20
159.7753
 11
-154.382
 21
180.0
  0
LINE
  8
0
  6
CONTINUOUS
 62
     7
 10
154.382
 20
-159.7753
 11
262.2472
 21
-159.7753
  0
LINE
  8
0
  6
CONTINUOUS
 62
     7
 10
182.7034
 20
-164.6383
 11
193.0652
 21
-164.6383
  0
LINE
  8
0
  6
CONTINUOUS
 62
     7
 10
182.7034
 20
-173.8271
 11
191.5012
 21
-173.8271
  0
LINE
  8
0
  6
CONTINUOUS
 62
     7
 10
182.7034
 20
-176.1732
 11
194.6293
 21
-176.1732
  0
LINE
  8
0
  6
CONTINUOUS
 62
     7
 10
182.7034
 20
-166.9844
 11
191.5012
 21
-166.9844
  0
LINE
  8
0
  6
CONTINUOUS
 62
     7
 10
182.7034
 20
-164.6383
 11
182.7034
 21
-166.9844
  0
LINE
  8
0
  6
CONTINUOUS
 62
     7
 10
194.6293
 20
-166.2024
 11
194.6293
 21
-176.1732
  0
LINE
  8
0
  6
CONTINUOUS
 62
     7
 10
191.5012
 20
-166.9844
 11
191.5012
 21
-173.8271
  0
LINE
  8
0
  6
CONTINUOUS
 62
     7
 10
196.3888
 20
-164.6383
 11
196.3888
 21
-166.9844
  0
LINE
  8
0
  6
CONTINUOUS
 62
     7
 10
207.5326
 20
-166.9844
 11
207.5326
 21
-174.6092
  0
LINE
  8
0
  6
CONTINUOUS
 62
     7
 10
204.4045
 20
-166.9844
 11
204.4045
 21
-173.8271
  0
LINE
  8
0
  6
CONTINUOUS
 62
     7
 10
182.7034
 20
-173.8271
 11
182.7034
 21
-176.1732
  0
LINE
  8
0
  6
CONTINUOUS
 62
     7
 10
196.3888
 20
-164.6383
 11
199.4796
 21
-164.6383
  0
LINE
  8
0
  6
CONTINUOUS
 62
     7
 10
196.3888
 20
-176.1732
 11
198.8176
 21
-176.1732
  0
LINE
  8
0
  6
CONTINUOUS
 62
     7
 10
196.3887
 20
-176.1731
 11
198.8509
 21
-166.9843
  0
LINE
  8
0
  6
CONTINUOUS
 62
     7
 10
196.3888
 20
-166.9844
 11
198.8509
 21
-166.9844
  0
LINE
  8
0
  6
CONTINUOUS
 62
     7
 10
198.8178
 20
-176.1733
 11
201.2799
 21
-166.9845
  0
LINE
  8
0
  6
CONTINUOUS
 62
     7
 10
202.0584
 20
-173.8271
 11
204.4045
 21
-173.8271
  0
LINE
  8
0
  6
CONTINUOUS
 62
     7
 10
202.0584
 20
-173.8271
 11
202.6869
 21
-176.1731
  0
LINE
  8
0
  6
CONTINUOUS
 62
     7
 10
202.6871
 20
-176.1732
 11
205.9686
 21
-176.1732
  0
LINE
  8
0
  6
CONTINUOUS
 62
     7
 10
201.2798
 20
-166.9844
 11
204.4045
 21
-166.9844
  0
LINE
  8
0
  6
CONTINUOUS
 62
     7
 10
201.9084
 20
-164.6383
 11
205.1865
 21
-164.6383
  0
LINE
  8
0
  6
CONTINUOUS
 62
     7
 10
199.4796
 20
-164.6384
 11
199.9458
 21
-162.8984
  0
LINE
  8
0
  6
CONTINUOUS
 62
     7
 10
201.9082
 20
-164.6382
 11
202.3744
 21
-162.8982
  0
LINE
  8
0
  6
CONTINUOUS
 62
     7
 10
209.4877
 20
-164.6383
 11
213.2023
 21
-164.6383
  0
LINE
  8
0
  6
CONTINUOUS
 62
     7
 10
209.4877
 20
-166.9844
 11
218.6106
 21
-166.9844
  0
LINE
  8
0
  6
CONTINUOUS
 62
     7
 10
213.2023
 20
-176.1732
 11
216.3303
 21
-176.1732
  0
LINE
  8
0
  6
CONTINUOUS
 62
     7
 10
209.4877
 20
-164.6383
 11
209.4877
 21
-166.9844
  0
LINE
  8
0
  6
CONTINUOUS
 62
     7
 10
221.0225
 20
-171.2385
 11
221.0225
 21
-173.8271
  0
LINE
  8
0
  6
CONTINUOUS
 62
     7
 10
209.4875
 20
-173.827
 11
213.2022
 21
-172.0948
  0
LINE
  8
0
  6
CONTINUOUS
 62
     7
 10
209.4879
 20
-171.2387
 11
218.6108
 21
-166.9846
  0
LINE
  8
0
  6
CONTINUOUS
 62
     7
 10
209.4877
 20
-171.2385
 11
209.4877
 21
-173.8271
  0
LINE
  8
0
  6
CONTINUOUS
 62
     7
 10
216.3302
 20
-171.6391
 11
221.0225
 21
-173.827
  0
LINE
  8
0
  6
CONTINUOUS
 62
     7
 10
218.0311
 20
-169.8436
 11
221.0228
 21
-171.2387
  0
LINE
  8
0
  6
CONTINUOUS
 62
     7
 10
221.0225
 20
-166.2024
 11
221.0225
 21
-167.4519
  0
LINE
  8
0
  6
CONTINUOUS
 62
     7
 10
213.2023
 20
-162.8984
 11
213.2023
 21
-164.6383
  0
LINE
  8
0
  6
CONTINUOUS
 62
     7
 10
216.3303
 20
-162.8984
 11
216.3303
 21
-164.6383
  0
LINE
  8
0
  6
CONTINUOUS
 62
     7
 10
216.3303
 20
-164.6383
 11
219.4585
 21
-164.6383
  0
LINE
  8
0
  6
CONTINUOUS
 62
     7
 10
213.2023
 20
-172.095
 11
213.2023
 21
-176.1732
  0
LINE
  8
0
  6
CONTINUOUS
 62
     7
 10
216.3303
 20
-171.6392
 11
216.3303
 21
-176.1732
  0
LINE
  8
0
  6
CONTINUOUS
 62
     7
 10
218.031
 20
-169.8436
 11
220.1197
 21
-168.8696
  0
LINE
  8
0
  6
CONTINUOUS
 62
     7
 10
231.5798
 20
-163.6022
 11
233.9258
 21
-163.6022
  0
LINE
  8
0
  6
CONTINUOUS
 62
     7
 10
222.0001
 20
-168.4483
 11
222.0001
 21
-170.9731
  0
LINE
  8
0
  6
CONTINUOUS
 62
     7
 10
233.9258
 20
-163.6022
 11
233.9258
 21
-164.6383
  0
LINE
  8
0
  6
CONTINUOUS
 62
     7
 10
231.5798
 20
-163.6022
 11
231.5798
 21
-164.1077
  0
LINE
  8
0
  6
CONTINUOUS
 62
     7
 10
228.4517
 20
-168.4072
 11
228.4517
 21
-176.1732
  0
LINE
  8
0
  6
CONTINUOUS
 62
     7
 10
222.0001
 20
-168.4484
 11
231.0869
 21
-164.8345
  0
LINE
  8
0
  6
CONTINUOUS
 62
     7
 10
222.0001
 20
-170.9732
 11
228.4518
 21
-168.4073
  0
LINE
  8
0
  6
CONTINUOUS
 62
     7
 10
228.4517
 20
-176.1732
 11
231.5798
 21
-176.1732
  0
LINE
  8
0
  6
CONTINUOUS
 62
     7
 10
231.5798
 20
-167.1632
 11
231.5798
 21
-176.1732
  0
LINE
  8
0
  6
CONTINUOUS
 62
     7
 10
231.5801
 20
-167.1633
 11
232.4471
 21
-166.8185
  0
LINE
  8
0
  6
CONTINUOUS
 62
     7
 10
199.7572
 20
-162.8984
 11
202.3746
 21
-162.8984
  0
LINE
  8
0
  6
CONTINUOUS
 62
     7
 10
206.2618
 20
-162.8984
 11
207.2589
 21
-162.8984
  0
LINE
  8
0
  6
CONTINUOUS
 62
     7
 10
213.2023
 20
-162.8984
 11
216.3303
 21
-162.8984
  0
LINE
  8
0
  6
CONTINUOUS
 62
     7
 10
206.2618
 20
-164.4624
 11
207.2589
 21
-164.4624
  0
LINE
  8
0
  6
CONTINUOUS
 62
     7
 10
206.2618
 20
-162.8984
 11
206.2618
 21
-164.4624
  0
LINE
  8
0
  6
CONTINUOUS
 62
     7
 10
207.2589
 20
-162.8984
 11
207.2589
 21
-164.4624
  0
LINE
  8
0
  6
CONTINUOUS
 62
     7
 10
207.8454
 20
-162.8984
 11
207.8454
 21
-164.4624
  0
LINE
  8
0
  6
CONTINUOUS
 62
     7
 10
208.9598
 20
-162.8984
 11
208.9598
 21
-164.4624
  0
LINE
  8
0
  6
CONTINUOUS
 62
     7
 10
207.8454
 20
-162.8984
 11
208.9598
 21
-162.8984
  0
LINE
  8
0
  6
CONTINUOUS
 62
     7
 10
207.8454
 20
-164.4624
 11
208.9598
 21
-164.4624
  0
LINE
  8
0
  6
CONTINUOUS
 62
     7
 10
154.382
 20
159.7753
 11
262.2472
 21
159.7753
  0
LINE
  8
0
  6
CONTINUOUS
 62
     7
 10
154.382
 20
180.0
 11
154.382
 21
159.7753
  0
LINE
  8
0
  6
CONTINUOUS
 62
     7
 10
154.382
 20
-159.7753
 11
154.382
 21
-180.0
  0
LINE
  8
0
  6
CONTINUOUS
 62
     2
 10
-31.5
 20
-25.19504
 11
-31.5
 21
-45.0
  0
LINE
  8
0
  6
CONTINUOUS
 62
     2
 10
121.5
 20
-22.57703
 11
121.5
 21
-45.0
  0
LINE
  8
0
  6
CONTINUOUS
 62
     2
 10
121.5
 20
-42.99996
 11
118.5
 21
-43.80381
  0
LINE
  8
0
  6
CONTINUOUS
 62
     2
 10
121.5
 20
-42.99999
 11
118.5
 21
-42.19615
  0
LINE
  8
0
  6
CONTINUOUS
 62
     2
 10
-31.49999
 20
-42.99998
 11
-28.49999
 21
-42.19614
  0
LINE
  8
0
  6
CONTINUOUS
 62
     2
 10
-31.49999
 20
-42.99998
 11
-28.49999
 21
-43.80382
  0
LINE
  8
0
  6
CONTINUOUS
 62
     2
 10
-31.4999
 20
-42.99997
 11
121.5
 21
-42.99997
  0
LINE
  8
0
  6
CONTINUOUS
 62
     7
 10
-69.5
 20
-5.0
 11
-69.5
 21
-15.0
  0
LINE
  8
0
  6
CONTINUOUS
 62
     7
 10
-67.5
 20
-7.0
 11
-62.5
 21
-7.0
  0
LINE
  8
0
  6
CONTINUOUS
 62
     7
 10
-67.5
 20
-13.0
 11
-62.5
 21
-13.0
  0
LINE
  8
0
  6
CONTINUOUS
 62
     7
 10
-62.5
 20
-7.0
 11
-62.5
 21
-13.0
  0
LINE
  8
0
  6
CONTINUOUS
 62
     7
 10
-67.5
 20
-13.0
 11
-62.5
 21
-7.0
  0
LINE
  8
0
  6
CONTINUOUS
 62
     7
 10
-62.50002
 20
-13.00001
 11
-67.50003
 21
-7.0
  0
LINE
  8
0
  6
CONTINUOUS
 62
     7
 10
-67.5
 20
-7.0
 11
-67.5
 21
-13.0
  0
LINE
  8
0
  6
CONTINUOUS
 62
     7
 10
-86.5
 20
-5.0
 11
-61.5
 21
-5.0
  0
LINE
  8
0
  6
CONTINUOUS
 62
     7
 10
-86.5
 20
-15.0
 11
-61.5
 21
-15.0
  0
LINE
  8
0
  6
CONTINUOUS
 62
     7
 10
-61.5
 20
5.0
 11
-61.5
 21
-25.0
  0
LINE
  8
0
  6
CONTINUOUS
 62
     7
 10
-61.5
 20
-25.0
 11
-31.5
 21
-25.0
  0
LINE
  8
0
  6
CONTINUOUS
 62
     7
 10
-61.5
 20
-23.37137
 11
-31.5
 21
-23.37137
  0
LINE
  8
0
  6
CONTINUOUS
 62
     7
 10
-61.5
 20
3.37137
 11
-31.5
 21
3.37137
  0
LINE
  8
0
  6
CONTINUOUS
 62
     7
 10
-61.5
 20
5.0
 11
-31.5
 21
5.0
  0
LINE
  8
0
  6
CONTINUOUS
 62
     7
 10
-31.5
 20
5.0
 11
-31.5
 21
-25.0
  0
LINE
  8
0
  6
CENTER
 62
     2
 10
-39.5
 20
-17.53884
 11
-39.5
 21
7.0
  0
LINE
  8
0
  6
CONTINUOUS
 62
     7
 10
-31.5
 20
3.2
 11
-30.5
 21
3.2
  0
LINE
  8
0
  6
CONTINUOUS
 62
     7
 10
-31.5
 20
-23.2
 11
-30.5
 21
-23.2
  0
LINE
  8
0
  6
CONTINUOUS
 62
     7
 10
-30.5
 20
3.2
 11
-30.5
 21
-23.2
  0
LINE
  8
0
  6
CONTINUOUS
 62
     7
 10
-29.5
 20
3.2
 11
-29.5
 21
-23.2
  0
LINE
  8
0
  6
CONTINUOUS
 62
     7
 10
-28.5
 20
3.2
 11
-28.5
 21
-23.2
  0
LINE
  8
0
  6
CONTINUOUS
 62
     7
 10
-27.5
 20
3.2
 11
-27.5
 21
-23.2
  0
LINE
  8
0
  6
CONTINUOUS
 62
     7
 10
-30.5
 20
2.19999
 11
-29.49999
 21
3.2
  0
LINE
  8
0
  6
CONTINUOUS
 62
     7
 10
-28.5
 20
2.19999
 11
-27.5
 21
3.19999
  0
LINE
  8
0
  6
CONTINUOUS
 62
     7
 10
-29.5
 20
3.2
 11
-28.5
 21
3.2
  0
LINE
  8
0
  6
CONTINUOUS
 62
     7
 10
-27.5
 20
3.2
 11
23.53693
 21
3.2
  0
LINE
  8
0
  6
CONTINUOUS
 62
     7
 10
-30.5
 20
-22.2
 11
-29.5
 21
-23.2
  0
LINE
  8
0
  6
CONTINUOUS
 62
     7
 10
-28.49999
 20
-22.2
 11
-27.49999
 21
-23.2
  0
LINE
  8
0
  6
CONTINUOUS
 62
     7
 10
-29.5
 20
-23.2
 11
-28.5
 21
-23.2
  0
LINE
  8
0
  6
CONTINUOUS
 62
     7
 10
-27.5
 20
-23.2
 11
16.46307
 21
-23.2
  0
LINE
  8
0
  6
CONTINUOUS
 62
     7
 10
108.5
 20
3.2
 11
108.5
 21
-23.2
  0
LINE
  8
0
  6
CONTINUOUS
 62
     7
 10
109.5
 20
-22.2
 11
108.5
 21
-23.2
  0
LINE
  8
0
  6
CONTINUOUS
 62
     7
 10
120.5
 20
3.2
 11
111.5
 21
3.2
  0
LINE
  8
0
  6
CONTINUOUS
 62
     7
 10
120.5
 20
-23.2
 11
111.5
 21
-23.2
  0
LINE
  8
0
  6
CONTINUOUS
 62
     7
 10
111.5
 20
3.2
 11
111.5
 21
-23.2
  0
LINE
  8
0
  6
CONTINUOUS
 62
     7
 10
110.5
 20
3.2
 11
110.5
 21
-23.2
  0
LINE
  8
0
  6
CONTINUOUS
 62
     7
 10
109.5
 20
3.2
 11
109.5
 21
-23.2
  0
LINE
  8
0
  6
CONTINUOUS
 62
     7
 10
108.5
 20
3.2
 11
108.5
 21
-23.2
  0
LINE
  8
0
  6
CONTINUOUS
 62
     7
 10
111.5
 20
2.19998
 11
110.5
 21
3.19998
  0
LINE
  8
0
  6
CONTINUOUS
 62
     7
 10
109.5
 20
2.19999
 11
108.5
 21
3.19999
  0
LINE
  8
0
  6
CONTINUOUS
 62
     7
 10
110.5
 20
3.2
 11
109.5
 21
3.2
  0
LINE
  8
0
  6
CONTINUOUS
 62
     7
 10
110.5
 20
-23.2
 11
109.5
 21
-23.2
  0
LINE
  8
0
  6
CONTINUOUS
 62
     7
 10
111.5
 20
-22.19999
 11
110.5
 21
-23.19999
  0
LINE
  8
0
  6
CENTER
 62
     2
 10
-89.5
 20
-10.0
 11
123.5
 21
-10.0
  0
LINE
  8
0
  6
CONTINUOUS
 62
     7
 10
-87.5
 20
-6.0
 11
-69.5
 21
-6.0
  0
LINE
  8
0
  6
CONTINUOUS
 62
     7
 10
-87.5
 20
-14.0
 11
-69.5
 21
-14.0
  0
LINE
  8
0
  6
CONTINUOUS
 62
     7
 10
-86.5
 20
-5.0
 11
-86.5
 21
-15.0
  0
LINE
  8
0
  6
CONTINUOUS
 62
     7
 10
-86.5
 20
-15.0
 11
-87.5
 21
-14.0
  0
LINE
  8
0
  6
CONTINUOUS
 62
     7
 10
-87.5
 20
-14.0
 11
-87.5
 21
-6.0
  0
LINE
  8
0
  6
CONTINUOUS
 62
     7
 10
-87.49999
 20
-6.0
 11
-86.5
 21
-5.0
  0
LINE
  8
0
  6
CONTINUOUS
 62
     7
 10
-69.49999
 20
-5.99999
 11
-67.76794
 21
-4.99999
  0
LINE
  8
0
  6
CONTINUOUS
 62
     7
 10
-69.5
 20
-14.0
 11
-67.76795
 21
-15.0
  0
LINE
  8
0
  6
CONTINUOUS
 62
     7
 10
121.5
 20
2.2
 11
121.5
 21
-22.19999
  0
LINE
  8
0
  6
CONTINUOUS
 62
     7
 10
116.5
 20
-0.8354
 11
116.5
 21
-19.16461
  0
LINE
  8
0
  6
CONTINUOUS
 62
     7
 10
120.5
 20
3.2
 11
120.5
 21
-0.8354
  0
LINE
  8
0
  6
CONTINUOUS
 62
     7
 10
27.67804
 20
3.2
 11
108.5
 21
3.2
  0
LINE
  8
0
  6
CONTINUOUS
 62
     7
 10
20.60418
 20
-23.2
 11
108.5
 21
-23.2
  0
LINE
  8
0
  6
PHANTOM
 62
     2
 10
16.46309
 20
-23.20001
 11
23.53696
 21
3.2
  0
LINE
  8
0
  6
DASHED
 62
     7
 10
-34.49999
 20
5.0
 11
-35.5
 21
3.99999
  0
LINE
  8
0
  6
DASHED
 62
     7
 10
-44.49997
 20
4.99998
 11
-43.49997
 21
3.99999
  0
LINE
  8
0
  6
DASHED
 62
     7
 10
-35.5
 20
4.0
 11
-43.49999
 21
4.0
  0
LINE
  8
0
  6
DASHED
 62
     7
 10
-43.49999
 20
4.00001
 11
-43.49999
 21
-1.225
  0
LINE
  8
0
  6
DASHED
 62
     7
 10
-44.49998
 20
5.0
 11
-44.1812
 21
-1.08319
  0
LINE
  8
0
  6
DASHED
 62
     7
 10
-35.49999
 20
4.0
 11
-35.49999
 21
-1.225
  0
LINE
  8
0
  6
DASHED
 62
     7
 10
-34.5
 20
5.0
 11
-34.81879
 21
-1.08319
  0
LINE
  8
0
  6
CENTER
 62
     2
 10
-49.5
 20
7.0
 11
-49.5
 21
-27.0
  0
LINE
  8
0
  6
PHANTOM
 62
     2
 10
20.60418
 20
-23.2
 11
27.67804
 21
3.2
  0
LINE
  8
0
  6
CONTINUOUS
 62
     7
 10
116.5
 20
-0.8354
 11
121.5
 21
-0.8354
  0
LINE
  8
0
  6
CONTINUOUS
 62
     7
 10
116.5
 20
-19.16461
 11
121.5
 21
-19.16461
  0
LINE
  8
0
  6
CONTINUOUS
 62
     7
 10
120.5
 20
-23.20002
 11
121.5
 21
-22.20002
  0
LINE
  8
0
  6
CONTINUOUS
 62
     7
 10
121.5
 20
2.19996
 11
120.5
 21
3.19996
  0
LINE
  8
0
  6
CONTINUOUS
 62
     7
 10
120.5
 20
-23.2
 11
120.5
 21
-19.1646
  0
LINE
  8
0
  6
CONTINUOUS
 62
     7
 10
121.5001
 20
-19.1646
 11
116.5001
 21
-0.83539
  0
LINE
  8
0
  6
CONTINUOUS
 62
     7
 10
121.5001
 20
-0.83542
 11
116.5001
 21
-19.16463
  0
LINE
  8
0
  6
CONTINUOUS
 62
     7
 10
-69.5
 20
99.8
 11
-69.5
 21
89.8
  0
LINE
  8
0
  6
CONTINUOUS
 62
     7
 10
-86.5
 20
99.8
 11
-68.5
 21
99.8
  0
LINE
  8
0
  6
CONTINUOUS
 62
     7
 10
-86.5
 20
89.8
 11
-68.49999
 21
89.8
  0
LINE
  8
0
  6
CONTINUOUS
 62
     7
 10
-61.5
 20
115.8
 11
-61.5
 21
73.8
  0
LINE
  8
0
  6
CONTINUOUS
 62
     7
 10
-61.5
 20
73.8
 11
-31.5
 21
73.8
  0
LINE
  8
0
  6
CONTINUOUS
 62
     7
 10
-61.5
 20
75.42863
 11
-31.5
 21
75.42863
  0
LINE
  8
0
  6
CONTINUOUS
 62
     7
 10
-61.5
 20
114.1714
 11
-31.5
 21
114.1714
  0
LINE
  8
0
  6
CONTINUOUS
 62
     7
 10
-61.5
 20
115.8
 11
-31.5
 21
115.8
  0
LINE
  8
0
  6
CONTINUOUS
 62
     7
 10
-31.5
 20
115.8
 11
-31.5
 21
73.8
  0
LINE
  8
0
  6
CENTER
 62
     2
 10
-39.5
 20
102.3388
 11
-39.5
 21
71.8
  0
LINE
  8
0
  6
CONTINUOUS
 62
     7
 10
-31.5
 20
108.0
 11
-30.5
 21
108.0
  0
LINE
  8
0
  6
CONTINUOUS
 62
     7
 10
-31.5
 20
81.60001
 11
-30.5
 21
81.60001
  0
LINE
  8
0
  6
CONTINUOUS
 62
     7
 10
-30.5
 20
108.0
 11
-30.5
 21
81.60001
  0
LINE
  8
0
  6
CONTINUOUS
 62
     7
 10
-29.5
 20
108.0
 11
-29.5
 21
81.60001
  0
LINE
  8
0
  6
CONTINUOUS
 62
     7
 10
-28.5
 20
108.0
 11
-28.5
 21
81.60001
  0
LINE
  8
0
  6
CONTINUOUS
 62
     7
 10
-27.5
 20
108.0
 11
-27.5
 21
81.60001
  0
LINE
  8
0
  6
CONTINUOUS
 62
     7
 10
-30.49999
 20
107.0
 11
-29.49999
 21
108.0
  0
LINE
  8
0
  6
CONTINUOUS
 62
     7
 10
-28.5
 20
107.0
 11
-27.5
 21
108.0
  0
LINE
  8
0
  6
CONTINUOUS
 62
     7
 10
-29.5
 20
108.0
 11
-28.5
 21
108.0
  0
LINE
  8
0
  6
CONTINUOUS
 62
     7
 10
-27.5
 20
108.0
 11
23.53693
 21
108.0
  0
LINE
  8
0
  6
CONTINUOUS
 62
     7
 10
-30.5
 20
82.59999
 11
-29.5
 21
81.59999
  0
LINE
  8
0
  6
CONTINUOUS
 62
     7
 10
-28.5
 20
82.6
 11
-27.5
 21
81.60001
  0
LINE
  8
0
  6
CONTINUOUS
 62
     7
 10
-29.5
 20
81.60001
 11
-28.5
 21
81.60001
  0
LINE
  8
0
  6
CONTINUOUS
 62
     7
 10
-27.5
 20
81.60001
 11
16.46307
 21
81.60001
  0
LINE
  8
0
  6
CONTINUOUS
 62
     7
 10
108.5
 20
108.0
 11
108.5
 21
81.60001
  0
LINE
  8
0
  6
CONTINUOUS
 62
     7
 10
109.5
 20
82.6
 11
108.5
 21
81.59999
  0
LINE
  8
0
  6
CONTINUOUS
 62
     7
 10
116.5
 20
108.0
 11
111.5
 21
108.0
  0
LINE
  8
0
  6
CONTINUOUS
 62
     7
 10
116.5
 20
81.60001
 11
111.5
 21
81.60001
  0
LINE
  8
0
  6
CONTINUOUS
 62
     7
 10
111.5
 20
108.0
 11
111.5
 21
81.60001
  0
LINE
  8
0
  6
CONTINUOUS
 62
     7
 10
110.5
 20
108.0
 11
110.5
 21
81.60001
  0
LINE
  8
0
  6
CONTINUOUS
 62
     7
 10
109.5
 20
108.0
 11
109.5
 21
81.60001
  0
LINE
  8
0
  6
CONTINUOUS
 62
     7
 10
108.5
 20
108.0
 11
108.5
 21
81.60001
  0
LINE
  8
0
  6
CONTINUOUS
 62
     7
 10
111.5
 20
106.9999
 11
110.5
 21
107.9999
  0
LINE
  8
0
  6
CONTINUOUS
 62
     7
 10
109.5
 20
107.0
 11
108.5
 21
108.0
  0
LINE
  8
0
  6
CONTINUOUS
 62
     7
 10
110.5
 20
108.0
 11
109.5
 21
108.0
  0
LINE
  8
0
  6
CONTINUOUS
 62
     7
 10
110.5
 20
81.60001
 11
109.5
 21
81.60001
  0
LINE
  8
0
  6
CONTINUOUS
 62
     7
 10
111.5
 20
82.60001
 11
110.5
 21
81.6
  0
LINE
  8
0
  6
CONTINUOUS
 62
     7
 10
116.5
 20
104.3
 11
121.5
 21
104.3
  0
LINE
  8
0
  6
CONTINUOUS
 62
     7
 10
116.5
 20
85.3
 11
121.5
 21
85.3
  0
LINE
  8
0
  6
CENTER
 62
     2
 10
-89.5
 20
94.8
 11
123.5
 21
94.8
  0
LINE
  8
0
  6
CONTINUOUS
 62
     7
 10
-87.5
 20
98.8
 11
-69.5
 21
98.8
  0
LINE
  8
0
  6
CONTINUOUS
 62
     7
 10
-87.5
 20
90.8
 11
-69.5
 21
90.8
  0
LINE
  8
0
  6
CONTINUOUS
 62
     7
 10
-86.5
 20
99.8
 11
-86.5
 21
89.8
  0
LINE
  8
0
  6
CONTINUOUS
 62
     7
 10
-86.49999
 20
89.8
 11
-87.49999
 21
90.8
  0
LINE
  8
0
  6
CONTINUOUS
 62
     7
 10
-87.5
 20
90.8
 11
-87.5
 21
98.8
  0
LINE
  8
0
  6
CONTINUOUS
 62
     7
 10
-87.49998
 20
98.8
 11
-86.49998
 21
99.8
  0
LINE
  8
0
  6
CONTINUOUS
 62
     7
 10
-69.5
 20
98.80002
 11
-68.23206
 21
99.53207
  0
LINE
  8
0
  6
CONTINUOUS
 62
     7
 10
-69.5
 20
90.80001
 11
-68.23206
 21
90.06796
  0
LINE
  8
0
  6
CONTINUOUS
 62
     7
 10
121.5
 20
104.3
 11
121.5
 21
85.3
  0
LINE
  8
0
  6
CONTINUOUS
 62
     7
 10
116.5
 20
108.0
 11
116.5
 21
104.3
  0
LINE
  8
0
  6
CONTINUOUS
 62
     7
 10
116.5
 20
85.3
 11
116.5
 21
81.60001
  0
LINE
  8
0
  6
CONTINUOUS
 62
     7
 10
120.5
 20
104.3
 11
120.5
 21
85.3
  0
LINE
  8
0
  6
CONTINUOUS
 62
     7
 10
27.67804
 20
108.0
 11
108.5
 21
108.0
  0
LINE
  8
0
  6
CONTINUOUS
 62
     7
 10
20.60418
 20
81.60001
 11
108.5
 21
81.60001
  0
LINE
  8
0
  6
PHANTOM
 62
     2
 10
16.46311
 20
81.6
 11
23.53697
 21
108.0
  0
LINE
  8
0
  6
DASHED
 62
     7
 10
-34.49999
 20
73.8
 11
-35.5
 21
74.8
  0
LINE
  8
0
  6
DASHED
 62
     7
 10
-44.49998
 20
73.80001
 11
-43.49998
 21
74.8
  0
LINE
  8
0
  6
DASHED
 62
     7
 10
-35.5
 20
74.8
 11
-43.49999
 21
74.8
  0
LINE
  8
0
  6
DASHED
 62
     7
 10
-43.49999
 20
74.8
 11
-43.49999
 21
80.02501
  0
LINE
  8
0
  6
DASHED
 62
     7
 10
-44.49997
 20
73.8
 11
-44.1812
 21
79.88319
  0
LINE
  8
0
  6
DASHED
 62
     7
 10
-35.49999
 20
74.8
 11
-35.49999
 21
80.025
  0
LINE
  8
0
  6
DASHED
 62
     7
 10
-34.49998
 20
73.80001
 11
-34.81878
 21
79.88319
  0
LINE
  8
0
  6
DASHED
 62
     7
 10
121.5
 20
99.80003
 11
120.5
 21
98.80003
  0
LINE
  8
0
  6
DASHED
 62
     7
 10
114.3748
 20
99.42662
 11
121.5
 21
99.80004
  0
LINE
  8
0
  6
DASHED
 62
     7
 10
114.5231
 20
90.16568
 11
121.5
 21
89.80004
  0
LINE
  8
0
  6
DASHED
 62
     7
 10
120.5
 20
98.8
 11
114.0
 21
98.8
  0
LINE
  8
0
  6
DASHED
 62
     7
 10
120.5
 20
90.8
 11
114.0
 21
90.8
  0
LINE
  8
0
  6
DASHED
 62
     7
 10
120.5
 20
90.80006
 11
121.5
 21
89.80006
  0
LINE
  8
0
  6
CENTER
 62
     2
 10
-49.5
 20
88.8
 11
-49.5
 21
74.8
  0
LINE
  8
0
  6
CENTER
 62
     2
 10
-49.5
 20
114.8
 11
-49.5
 21
100.8
  0
LINE
  8
0
  6
CENTER
 62
     2
 10
-56.5
 20
107.8
 11
-42.5
 21
107.8
  0
LINE
  8
0
  6
CENTER
 62
     2
 10
-56.5
 20
81.8
 11
-42.5
 21
81.8
  0
LINE
  8
0
  6
PHANTOM
 62
     2
 10
20.60422
 20
81.6
 11
27.67808
 21
108.0
  0
LINE
  8
0
  6
CONTINUOUS
 62
     7
 10
-67.5
 20
98.8
 11
-62.5
 21
98.8
  0
LINE
  8
0
  6
CONTINUOUS
 62
     7
 10
-68.5
 20
99.80001
 11
-67.5
 21
98.80001
  0
LINE
  8
0
  6
CONTINUOUS
 62
     7
 10
-62.5
 20
98.8
 11
-61.5
 21
99.8
  0
LINE
  8
0
  6
CONTINUOUS
 62
     7
 10
-68.49998
 20
89.79998
 11
-67.49998
 21
90.79998
  0
LINE
  8
0
  6
CONTINUOUS
 62
     7
 10
-67.5
 20
90.8
 11
-62.5
 21
90.8
  0
LINE
  8
0
  6
CONTINUOUS
 62
     7
 10
-62.5
 20
90.79997
 11
-61.5
 21
89.79997
  0
LINE
  8
0
  6
CENTER
 62
     2
 10
-206.3657
 20
-27.0
 11
-206.3657
 21
7.0
  0
LINE
  8
0
  6
CENTER
 62
     2
 10
-229.3657
 20
-10.0
 11
-183.3657
 21
-10.0
  0
LINE
  8
0
  6
CONTINUOUS
 62
     7
 10
-227.3657
 20
-22.61943
 11
-227.3657
 21
2.61943
  0
LINE
  8
0
  6
CONTINUOUS
 62
     7
 10
-185.3657
 20
-22.61943
 11
-185.3657
 21
2.61943
  0
LINE
  8
0
  6
CONTINUOUS
 62
     7
 10
-225.7371
 20
-25.0
 11
-186.9943
 21
-25.0
  0
LINE
  8
0
  6
CONTINUOUS
 62
     7
 10
-225.7371
 20
5.0
 11
-186.9943
 21
5.0
  0
LINE
  8
0
  6
CENTER
 62
     2
 10
-193.3657
 20
-27.0
 11
-193.3657
 21
7.0
  0
LINE
  8
0
  6
DASHED
 62
     7
 10
-198.8657
 20
5.0
 11
-198.8657
 21
-1.5
  0
LINE
  8
0
  6
DASHED
 62
     7
 10
-198.8657
 20
-1.5
 11
-187.8657
 21
-1.5
  0
LINE
  8
0
  6
DASHED
 62
     7
 10
-187.8657
 20
-1.5
 11
-187.8657
 21
5.0
  0
LINE
  8
0
  6
DASHED
 62
     7
 10
-222.6657
 20
-18.5
 11
-222.6657
 21
-1.5
  0
LINE
  8
0
  6
DASHED
 62
     7
 10
-224.8657
 20
-1.5
 11
-224.8657
 21
5.0
  0
LINE
  8
0
  6
CENTER
 62
     2
 10
-219.3657
 20
-27.0
 11
-219.3657
 21
7.0
  0
LINE
  8
0
  6
DASHED
 62
     7
 10
-213.8657
 20
5.0
 11
-213.8657
 21
-1.5
  0
LINE
  8
0
  6
DASHED
 62
     7
 10
-213.8657
 20
-1.5
 11
-224.8657
 21
-1.5
  0
LINE
  8
0
  6
DASHED
 62
     7
 10
-224.8657
 20
-18.5
 11
-224.8657
 21
-25.0
  0
LINE
  8
0
  6
DASHED
 62
     7
 10
-213.8657
 20
-18.5
 11
-224.8657
 21
-18.5
  0
LINE
  8
0
  6
DASHED
 62
     7
 10
-216.0657
 20
-18.5
 11
-216.0657
 21
-1.5
  0
LINE
  8
0
  6
DASHED
 62
     7
 10
-213.8657
 20
-25.0
 11
-213.8657
 21
-18.5
  0
LINE
  8
0
  6
DASHED
 62
     7
 10
-198.8657
 20
-25.0
 11
-198.8657
 21
-18.5
  0
LINE
  8
0
  6
DASHED
 62
     7
 10
-196.6657
 20
-18.5
 11
-196.6657
 21
-1.5
  0
LINE
  8
0
  6
DASHED
 62
     7
 10
-190.0657
 20
-1.5
 11
-190.0657
 21
-18.5
  0
LINE
  8
0
  6
DASHED
 62
     7
 10
-198.8657
 20
-18.5
 11
-187.8657
 21
-18.5
  0
LINE
  8
0
  6
DASHED
 62
     7
 10
-187.8657
 20
-18.5
 11
-187.8657
 21
-25.0
  0
LINE
  8
0
  6
DASHED
 62
     7
 10
-211.3656
 20
5.00007
 11
-210.3656
 21
4.00007
  0
LINE
  8
0
  6
DASHED
 62
     7
 10
-201.3657
 20
4.99999
 11
-202.3657
 21
3.99998
  0
LINE
  8
0
  6
DASHED
 62
     7
 10
-210.3657
 20
4.0
 11
-202.3657
 21
4.0
  0
LINE
  8
0
  6
DASHED
 62
     7
 10
-202.3657
 20
4.0
 11
-202.3657
 21
-1.225
  0
LINE
  8
0
  6
DASHED
 62
     7
 10
-201.3657
 20
5.00001
 11
-201.6846
 21
-1.08319
  0
LINE
  8
0
  6
DASHED
 62
     7
 10
-210.3657
 20
4.00002
 11
-210.3657
 21
-1.225
  0
LINE
  8
0
  6
DASHED
 62
     7
 10
-211.3658
 20
4.99999
 11
-211.047
 21
-1.0832
  0
LINE
  8
0
  6
DASHED
 62
     7
 10
-185.3657
 20
-4.99995
 11
-186.3657
 21
-5.99996
  0
LINE
  8
0
  6
DASHED
 62
     7
 10
-185.3656
 20
-14.99991
 11
-186.3656
 21
-13.99991
  0
LINE
  8
0
  6
DASHED
 62
     7
 10
-186.3656
 20
-5.99986
 11
-186.3656
 21
-14.0
  0
LINE
  8
0
  6
DASHED
 62
     7
 10
-186.3656
 20
-14.0
 11
-189.6407
 21
-14.0
  0
LINE
  8
0
  6
DASHED
 62
     7
 10
-185.3657
 20
-14.99999
 11
-189.8332
 21
-14.76587
  0
LINE
  8
0
  6
DASHED
 62
     7
 10
-186.3656
 20
-6.0
 11
-189.6907
 21
-6.0
  0
LINE
  8
0
  6
DASHED
 62
     7
 10
-185.3657
 20
-4.99996
 11
-189.8331
 21
-5.23409
  0
LINE
  8
0
  6
CENTER
 62
     2
 10
192.3657
 20
-27.0
 11
192.3657
 21
7.0
  0
LINE
  8
0
  6
CENTER
 62
     2
 10
215.3657
 20
-10.0
 11
169.3657
 21
-10.0
  0
LINE
  8
0
  6
CONTINUOUS
 62
     7
 10
213.3657
 20
-22.61943
 11
213.3657
 21
2.61943
  0
LINE
  8
0
  6
CONTINUOUS
 62
     7
 10
171.3657
 20
-22.61943
 11
171.3657
 21
2.61943
  0
LINE
  8
0
  6
CONTINUOUS
 62
     7
 10
211.7371
 20
-25.0
 11
172.9943
 21
-25.0
  0
LINE
  8
0
  6
CONTINUOUS
 62
     7
 10
211.7371
 20
5.0
 11
172.9943
 21
5.0
  0
LINE
  8
0
  6
CENTER
 62
     2
 10
179.3657
 20
-27.0
 11
179.3657
 21
7.0
  0
LINE
  8
0
  6
CENTER
 62
     2
 10
205.3657
 20
-27.0
 11
205.3657
 21
7.0
  0
LINE
  8
0
  6
CONTINUOUS
 62
     7
 10
182.8657
 20
-19.1646
 11
182.8657
 21
-0.8354
  0
LINE
  8
0
  6
CONTINUOUS
 62
     7
 10
201.8657
 20
-19.1646
 11
201.8657
 21
-0.8354
  0
LINE
  8
0
  6
CONTINUOUS
 62
     7
 10
-68.49998
 20
-134.0415
 11
-61.49999
 21
-138.083
  0
LINE
  8
0
  6
CONTINUOUS
 62
     7
 10
-68.5
 20
-125.9586
 11
-68.5
 21
-134.0415
  0
LINE
  8
0
  6
CONTINUOUS
 62
     7
 10
-68.50002
 20
-125.9586
 11
-61.50002
 21
-121.9171
  0
LINE
  8
0
  6
CONTINUOUS
 62
     7
 10
-61.50002
 20
-121.9171
 11
-54.49999
 21
-125.9586
  0
LINE
  8
0
  6
CONTINUOUS
 62
     7
 10
-54.5
 20
-125.9586
 11
-54.5
 21
-134.0415
  0
LINE
  8
0
  6
CONTINUOUS
 62
     7
 10
-61.5001
 20
-138.0829
 11
-54.5001
 21
-134.0414
  0
LINE
  8
0
  6
CENTER
 62
     2
 10
-71.5
 20
-130.0001
 11
-51.5
 21
-130.0001
  0
LINE
  8
0
  6
CENTER
 62
     2
 10
-61.5
 20
-120.0001
 11
-61.5
 21
-140.0001
  0
LINE
  8
0
  6
CONTINUOUS
 62
     7
 10
-0.87478
 20
-134.0415
 11
3.87479
 21
-134.0415
  0
LINE
  8
0
  6
CONTINUOUS
 62
     7
 10
3.8748
 20
-138.083
 11
4.50001
 21
-137.0001
  0
LINE
  8
0
  6
CONTINUOUS
 62
     7
 10
-1.5
 20
-137.0001
 11
-0.8748
 21
-138.083
  0
LINE
  8
0
  6
CONTINUOUS
 62
     7
 10
-0.87479
 20
-138.083
 11
3.87479
 21
-138.083
  0
LINE
  8
0
  6
CONTINUOUS
 62
     7
 10
-1.5
 20
-123.0001
 11
-1.5
 21
-137.0001
  0
LINE
  8
0
  6
CONTINUOUS
 62
     7
 10
4.5
 20
-123.0001
 11
4.5
 21
-137.0001
  0
LINE
  8
0
  6
CONTINUOUS
 62
     7
 10
-1.5
 20
-123.0001
 11
-0.87478
 21
-121.9171
  0
LINE
  8
0
  6
CONTINUOUS
 62
     7
 10
3.87477
 20
-121.9171
 11
4.49999
 21
-123.0001
  0
LINE
  8
0
  6
CONTINUOUS
 62
     7
 10
-0.87478
 20
-121.9172
 11
3.87478
 21
-121.9172
  0
LINE
  8
0
  6
CONTINUOUS
 62
     7
 10
-0.87478
 20
-125.9586
 11
3.87479
 21
-125.9586
  0
LINE
  8
0
  6
CENTER
 62
     2
 10
-3.5
 20
-130.0001
 11
6.5
 21
-130.0001
  0
ARC
  8
0
  6
CONTINUOUS
 62
     7
 10
193.0652
 20
-166.2024
 40
1.56404
 50
0.0
 51
89.99999
  0
ARC
  8
0
  6
CONTINUOUS
 62
     7
 10
205.9686
 20
-174.6092
 40
1.56404
 50
270.0
 51
0.0
  0
ARC
  8
0
  6
CONTINUOUS
 62
     7
 10
205.1865
 20
-166.9844
 40
2.34607
 50
0.0
 51
89.99999
  0
ARC
  8
0
  6
CONTINUOUS
 62
     7
 10
219.4585
 20
-166.2024
 40
1.56404
 50
0.0
 51
89.99999
  0
ARC
  8
0
  6
CONTINUOUS
 62
     7
 10
219.4585
 20
-167.4519
 40
1.56405
 50
295.0
 51
0.0
  0
ARC
  8
0
  6
CONTINUOUS
 62
     7
 10
231.5798
 20
-164.6383
 40
2.34607
 50
291.6882
 51
0.0
  0
ARC
  8
0
  6
CONTINUOUS
 62
     7
 10
230.7978
 20
-164.1077
 40
0.78203
 50
291.688
 51
0.0
  0
CIRCLE
  8
0
  6
CONTINUOUS
 62
     7
 10
-39.5
 20
-10.0
 40
0.95
  0
CIRCLE
  8
0
  6
CONTINUOUS
 62
     7
 10
-39.5
 20
-10.0
 40
5.0
  0
CIRCLE
  8
0
  6
CONTINUOUS
 62
     7
 10
-39.5
 20
-10.0
 40
4.0
  0
ARC
  8
0
  6
CONTINUOUS
 62
     7
 10
-63.5
 20
-10.0
 40
5.0
 50
143.1301
 51
216.8698
  0
ARC
  8
0
  6
CONTINUOUS
 62
     7
 10
-66.5
 20
-10.0
 40
5.0
 50
323.1301
 51
36.8699
  0
CIRCLE
  8
0
  6
CONTINUOUS
 62
     7
 10
-39.5
 20
94.8
 40
0.95
  0
CIRCLE
  8
0
  6
CONTINUOUS
 62
     7
 10
-49.5
 20
107.8
 40
5.5
  0
CIRCLE
  8
0
  6
CONTINUOUS
 62
     7
 10
-49.5
 20
107.8
 40
3.3
  0
CIRCLE
  8
0
  6
CONTINUOUS
 62
     7
 10
-49.5
 20
81.8
 40
5.5
  0
CIRCLE
  8
0
  6
CONTINUOUS
 62
     7
 10
-49.5
 20
81.8
 40
3.3
  0
CIRCLE
  8
0
  6
CONTINUOUS
 62
     7
 10
-39.5
 20
94.8
 40
5.0
  0
CIRCLE
  8
0
  6
CONTINUOUS
 62
     7
 10
-39.5
 20
94.8
 40
4.0
  0
CIRCLE
  8
0
  6
CONTINUOUS
 62
     7
 10
-206.3657
 20
-10.0
 40
5.0
  0
CIRCLE
  8
0
  6
CONTINUOUS
 62
     7
 10
-206.3657
 20
-10.0
 40
4.0
  0
ARC
  8
0
  6
CONTINUOUS
 62
     7
 10
-206.3657
 20
-10.0
 40
24.5
 50
31.00272
 51
37.75196
  0
ARC
  8
0
  6
CONTINUOUS
 62
     7
 10
-206.3657
 20
-10.0
 40
24.50001
 50
322.2479
 51
328.9972
  0
ARC
  8
0
  6
CONTINUOUS
 62
     7
 10
-206.3657
 20
-10.0
 40
24.5
 50
142.248
 51
148.9972
  0
ARC
  8
0
  6
CONTINUOUS
 62
     7
 10
-206.3657
 20
-10.0
 40
24.5
 50
211.0028
 51
217.752
  0
ARC
  8
0
  6
CONTINUOUS
 62
     7
 10
192.3657
 20
-10.0
 40
24.5
 50
142.248
 51
148.9972
  0
ARC
  8
0
  6
CONTINUOUS
 62
     7
 10
192.3657
 20
-10.0
 40
24.5
 50
211.0028
 51
217.7521
  0
ARC
  8
0
  6
CONTINUOUS
 62
     7
 10
192.3657
 20
-10.0
 40
24.5
 50
31.00272
 51
37.75196
  0
ARC
  8
0
  6
CONTINUOUS
 62
     7
 10
192.3657
 20
-10.0
 40
24.5
 50
322.2479
 51
328.9972
  0
CIRCLE
  8
0
  6
CONTINUOUS
 62
     7
 10
192.3657
 20
-10.0
 40
5.0
  0
CIRCLE
  8
0
  6
CONTINUOUS
 62
     7
 10
192.3657
 20
-10.0
 40
4.0
  0
CIRCLE
  8
0
  6
CONTINUOUS
 62
     7
 10
192.3657
 20
-10.0
 40
13.2
  0
ARC
  8
0
  6
CONTINUOUS
 62
     7
 10
192.3657
 20
-10.0
 40
12.2
 50
38.85934
 51
141.1407
  0
ARC
  8
0
  6
CONTINUOUS
 62
     7
 10
192.3657
 20
-10.0
 40
12.2
 50
218.8593
 51
321.1407
  0
CIRCLE
  8
0
  6
CONTINUOUS
 62
     7
 10
192.3657
 20
-10.0
 40
0.95
  0
CIRCLE
  8
0
  6
CONTINUOUS
 62
     7
 10
-61.5
 20
-130.0001
 40
7.0
  0
CIRCLE
  8
0
  6
CONTINUOUS
 62
     7
 10
-61.5
 20
-130.0001
 40
5.0
  0
CIRCLE
  8
0
  6
CONTINUOUS
 62
     7
 10
-61.5
 20
-130.0001
 40
4.0
  0
ARC
  8
0
  6
CONTINUOUS
 62
     7
 10
2.07815
 20
-123.9379
 40
3.57814
 50
180.0
 51
214.3844
  0
ARC
  8
0
  6
CONTINUOUS
 62
     7
 10
11.87473
 20
-130.0001
 40
13.37472
 50
162.412
 51
197.588
  0
ARC
  8
0
  6
CONTINUOUS
 62
     7
 10
2.07815
 20
-136.0622
 40
3.57814
 50
145.6157
 51
180.0
  0
ARC
  8
0
  6
CONTINUOUS
 62
     7
 10
0.92186
 20
-136.0622
 40
3.57814
 50
0.0
 51
34.38429
  0
ARC
  8
0
  6
CONTINUOUS
 62
     7
 10
-8.87472
 20
-130.0001
 40
13.37473
 50
342.4119
 51
17.588
  0
ARC
  8
0
  6
CONTINUOUS
 62
     7
 10
0.92186
 20
-123.9379
 40
3.57814
 50
325.6156
 51
0.0
  0
TEXT
  8
0
  6
CONTINUOUS
 62
     7
 10
-88.03571
 20
-82.35006
 40
5.0
  1
ROD NUT(M10)
 41
0.8
  7
STANDARD
  0
TEXT
  8
0
  6
CONTINUOUS
 62
     7
 10
161.9774
 20
167.0677
 40
6.0
  1
DATE : AUG ,1989
 41
0.8
  7
STANDARD
  0
TEXT
  8
0
  6
CONTINUOUS
 62
     7
 10
-256.1446
 20
166.5977
 40
7.0
  1
SLIM BLOCK CYL
 41
0.8
  7
STANDARD
  0
TEXT
  8
0
  6
CONTINUOUS
 62
     7
 10
-254.3972
 20
141.4853
 40
7.0
  1
MODEL : DAB 25*ST-2(100)
 41
0.8
  7
STANDARD
  0
TEXT
  8
0
  6
CONTINUOUS
 62
     7
 10
22.33538
 20
-41.35
 40
5.0
  1
CATALOG
 41
0.8
  7
STANDARD
  0
ENDSEC
  0
EOF
