  0
SECTION
  2
HEADER
  9
$ACADVER
  1
AC1002
  9
$INSBASE
 10
0.0
 20
0.0
  9
$EXTMIN
 10
-262.2472
 20
-180.0
  9
$EXTMAX
 10
262.2472
 20
180.0
  9
$LIMMIN
 10
0.0
 20
0.0
  9
$LIMMAX
 10
12.0
 20
9.0
  9
$VIEWCTR
 10
20.22981726
 20
0.0
  9
$VIEWSIZE
 40
360.0
  9
$SNAPMODE
 70
     0
  9
$SNAPUNIT
 10
1.0
 20
1.0
  9
$SNAPBASE
 10
0.0
 20
0.0
  9
$SNAPANG
 50
0.0
  9
$SNAPSTYLE
 70
     0
  9
$SNAPISOPAIR
 70
     0
  9
$GRIDMODE
 70
     0
  9
$GRIDUNIT
 10
0.0
 20
0.0
  9
$ORTHOMODE
 70
     0
  9
$REGENMODE
 70
     1
  9
$FILLMODE
 70
     1
  9
$QTEXTMODE
 70
     0
  9
$DRAGMODE
 70
     2
  9
$LTSCALE
 40
1.0
  9
$OSMODE
 70
     0
  9
$ATTMODE
 70
     1
  9
$TEXTSIZE
 40
0.2
  9
$TRACEWID
 40
0.05
  9
$TEXTSTYLE
  7
AAA
  9
$CLAYER
  8
0
  9
$CELTYPE
  6
BYLAYER
  9
$CECOLOR
 62
   256
  9
$DIMSCALE
 40
1.0
  9
$DIMASZ
 40
0.18
  9
$DIMEXO
 40
0.0625
  9
$DIMDLI
 40
0.38
  9
$DIMRND
 40
0.0
  9
$DIMDLE
 40
0.0
  9
$DIMEXE
 40
0.18
  9
$DIMTP
 40
0.0
  9
$DIMTM
 40
0.0
  9
$DIMTXT
 40
0.18
  9
$DIMCEN
 40
0.09
  9
$DIMTSZ
 40
0.0
  9
$DIMTOL
 70
     0
  9
$DIMLIM
 70
     0
  9
$DIMTIH
 70
     1
  9
$DIMTOH
 70
     1
  9
$DIMSE1
 70
     0
  9
$DIMSE2
 70
     0
  9
$DIMTAD
 70
     0
  9
$DIMZIN
 70
     0
  9
$DIMBLK
  1

  9
$LUNITS
 70
     2
  9
$LUPREC
 70
     4
  9
$AXISMODE
 70
     0
  9
$AXISUNIT
 10
0.0
 20
0.0
  9
$SKETCHINC
 40
0.1
  9
$FILLETRAD
 40
0.0
  9
$AUNITS
 70
     0
  9
$AUPREC
 70
     0
  9
$MENU
  1
ACAD
  9
$ELEVATION
 40
0.0
  9
$THICKNESS
 40
0.0
  9
$VIEWDIR
 10
0.0
 20
0.0
 30
1.0
  9
$LIMCHECK
 70
     0
  9
$BLIPMODE
 70
     1
  9
$CHAMFERA
 40
0.0
  9
$CHAMFERB
 40
0.0
  9
$FASTZOOM
 70
     1
  9
$SKPOLY
 70
     0
  9
$TDCREATE
 40
2447803.7808333827
  9
$TDUPDATE
 40
2447803.7808333827
  9
$TDINDWG
 40
0.0007407407
  9
$TDUSRTIMER
 40
0.0007407407
  9
$USRTIMER
 70
     1
  9
$ANGBASE
 50
0.0
  9
$ANGDIR
 70
     0
  9
$PDMODE
 70
     0
  9
$PDSIZE
 40
0.0
  9
$PLINEWID
 40
0.0
  9
$COORDS
 70
     0
  9
$USERI1
 70
     0
  9
$USERI2
 70
     0
  9
$USERI3
 70
     0
  9
$USERI4
 70
     0
  9
$USERI5
 70
     0
  9
$USERR1
 40
0.0
  9
$USERR2
 40
0.0
  9
$USERR3
 40
0.0
  9
$USERR4
 40
0.0
  9
$USERR5
 40
0.0
  0
ENDSEC
  0
SECTION
  2
TABLES
  0
TABLE
  2
LTYPE
 70
     5
  0
LTYPE
  2
CONTINUOUS
 70
    64
  3
SOLID
 72
    65
 73
     0
 40
0.0
  0
LTYPE
  2
DASHED
 70
    64
  3
DASHED
 72
    65
 73
     2
 40
0.75
 49
0.5
 49
-0.25
  0
LTYPE
  2
CENTER
 70
    64
  3
CENTER
 72
    65
 73
     4
 40
2.0
 49
1.25
 49
-0.25
 49
0.25
 49
-0.25
  0
LTYPE
  2
PHANTOM
 70
    64
  3
PHANTOM
 72
    65
 73
     6
 40
2.5
 49
1.25
 49
-0.25
 49
0.25
 49
-0.25
 49
0.25
 49
-0.25
  0
ENDTAB
  0
TABLE
  2
LAYER
 70
     1
  0
LAYER
  2
0
 70
    64
 62
     7
  6
CONTINUOUS
  0
ENDTAB
  0
TABLE
  2
STYLE
 70
     2
  0
STYLE
  2
AAA
 70
     0
 40
0.0
 41
1.0
 50
0.0
 71
     0
 42
0.2
  3
TXT
  4

  0
STYLE
  2
STANDARD
 70
    64
 40
0.0
 41
1.0
 50
0.0
 71
     0
 42
0.2
  3
TXT
  4
BIGFONT
  0
ENDTAB
  0
TABLE
  2
VIEW
 70
     0
  0
ENDTAB
  0
ENDSEC
  0
SECTION
  2
BLOCKS
  0
ENDSEC
  0
SECTION
  2
ENTITIES
  0
POINT
  8
0
  6
CONTINUOUS
 62
     7
 10
-66.5
 20
-130.0001
  0
POINT
  8
0
  6
CONTINUOUS
 62
     7
 10
-59.5
 20
-130.0001
  0
POINT
  8
0
  6
CONTINUOUS
 62
     7
 10
-6.5
 20
-130.0001
  0
POINT
  8
0
  6
CONTINUOUS
 62
     7
 10
-0.5
 20
-130.0001
  0
POINT
  8
0
  6
CONTINUOUS
 62
     7
 10
-211.3657
 20
-10.0
  0
POINT
  8
0
  6
CONTINUOUS
 62
     7
 10
-184.3657
 20
-10.0
  0
POINT
  8
0
  6
CONTINUOUS
 62
     7
 10
-66.5
 20
-10.0
  0
POINT
  8
0
  6
CONTINUOUS
 62
     7
 10
123.5
 20
-10.0
  0
POINT
  8
0
  6
CONTINUOUS
 62
     7
 10
-66.5
 20
94.8
  0
POINT
  8
0
  6
CONTINUOUS
 62
     7
 10
123.5
 20
94.8
  0
POINT
  8
0
  6
CONTINUOUS
 62
     7
 10
187.3657
 20
-10.0
  0
POINT
  8
0
  6
CONTINUOUS
 62
     7
 10
214.3657
 20
-10.0
  0
LINE
  8
0
  6
CONTINUOUS
 62
     7
 10
-262.2472
 20
-180.0
 11
-262.2472
 21
180.0
  0
LINE
  8
0
  6
CONTINUOUS
 62
     7
 10
262.2472
 20
180.0
 11
262.2472
 21
-180.0
  0
LINE
  8
0
  6
CONTINUOUS
 62
     7
 10
-262.2472
 20
-180.0
 11
262.2472
 21
-180.0
  0
LINE
  8
0
  6
CONTINUOUS
 62
     7
 10
-262.2472
 20
180.0
 11
262.2472
 21
180.0
  0
LINE
  8
0
  6
CONTINUOUS
 62
     7
 10
-262.2472
 20
159.7753
 11
-154.382
 21
159.7753
  0
LINE
  8
0
  6
CONTINUOUS
 62
     7
 10
-154.382
 20
159.7753
 11
-154.382
 21
180.0
  0
LINE
  8
0
  6
CONTINUOUS
 62
     7
 10
154.382
 20
-159.7753
 11
262.2472
 21
-159.7753
  0
LINE
  8
0
  6
CONTINUOUS
 62
     7
 10
182.7034
 20
-164.6383
 11
193.0652
 21
-164.6383
  0
LINE
  8
0
  6
CONTINUOUS
 62
     7
 10
182.7034
 20
-173.8271
 11
191.5012
 21
-173.8271
  0
LINE
  8
0
  6
CONTINUOUS
 62
     7
 10
182.7034
 20
-176.1732
 11
194.6293
 21
-176.1732
  0
LINE
  8
0
  6
CONTINUOUS
 62
     7
 10
182.7034
 20
-166.9844
 11
191.5012
 21
-166.9844
  0
LINE
  8
0
  6
CONTINUOUS
 62
     7
 10
182.7034
 20
-164.6383
 11
182.7034
 21
-166.9844
  0
LINE
  8
0
  6
CONTINUOUS
 62
     7
 10
194.6293
 20
-166.2024
 11
194.6293
 21
-176.1732
  0
LINE
  8
0
  6
CONTINUOUS
 62
     7
 10
191.5012
 20
-166.9844
 11
191.5012
 21
-173.8271
  0
LINE
  8
0
  6
CONTINUOUS
 62
     7
 10
196.3888
 20
-164.6383
 11
196.3888
 21
-166.9844
  0
LINE
  8
0
  6
CONTINUOUS
 62
     7
 10
207.5326
 20
-166.9844
 11
207.5326
 21
-174.6092
  0
LINE
  8
0
  6
CONTINUOUS
 62
     7
 10
204.4045
 20
-166.9844
 11
204.4045
 21
-173.8271
  0
LINE
  8
0
  6
CONTINUOUS
 62
     7
 10
182.7034
 20
-173.8271
 11
182.7034
 21
-176.1732
  0
LINE
  8
0
  6
CONTINUOUS
 62
     7
 10
196.3888
 20
-164.6383
 11
199.4796
 21
-164.6383
  0
LINE
  8
0
  6
CONTINUOUS
 62
     7
 10
196.3888
 20
-176.1732
 11
198.8176
 21
-176.1732
  0
LINE
  8
0
  6
CONTINUOUS
 62
     7
 10
196.3887
 20
-176.1731
 11
198.8509
 21
-166.9843
  0
LINE
  8
0
  6
CONTINUOUS
 62
     7
 10
196.3888
 20
-166.9844
 11
198.8509
 21
-166.9844
  0
LINE
  8
0
  6
CONTINUOUS
 62
     7
 10
198.8178
 20
-176.1733
 11
201.2799
 21
-166.9845
  0
LINE
  8
0
  6
CONTINUOUS
 62
     7
 10
202.0584
 20
-173.8271
 11
204.4045
 21
-173.8271
  0
LINE
  8
0
  6
CONTINUOUS
 62
     7
 10
202.0584
 20
-173.8271
 11
202.6869
 21
-176.1731
  0
LINE
  8
0
  6
CONTINUOUS
 62
     7
 10
202.6871
 20
-176.1732
 11
205.9686
 21
-176.1732
  0
LINE
  8
0
  6
CONTINUOUS
 62
     7
 10
201.2798
 20
-166.9844
 11
204.4045
 21
-166.9844
  0
LINE
  8
0
  6
CONTINUOUS
 62
     7
 10
201.9084
 20
-164.6383
 11
205.1865
 21
-164.6383
  0
LINE
  8
0
  6
CONTINUOUS
 62
     7
 10
199.4796
 20
-164.6384
 11
199.9458
 21
-162.8984
  0
LINE
  8
0
  6
CONTINUOUS
 62
     7
 10
201.9082
 20
-164.6382
 11
202.3744
 21
-162.8982
  0
LINE
  8
0
  6
CONTINUOUS
 62
     7
 10
209.4877
 20
-164.6383
 11
213.2023
 21
-164.6383
  0
LINE
  8
0
  6
CONTINUOUS
 62
     7
 10
209.4877
 20
-166.9844
 11
218.6106
 21
-166.9844
  0
LINE
  8
0
  6
CONTINUOUS
 62
     7
 10
213.2023
 20
-176.1732
 11
216.3303
 21
-176.1732
  0
LINE
  8
0
  6
CONTINUOUS
 62
     7
 10
209.4877
 20
-164.6383
 11
209.4877
 21
-166.9844
  0
LINE
  8
0
  6
CONTINUOUS
 62
     7
 10
221.0225
 20
-171.2385
 11
221.0225
 21
-173.8271
  0
LINE
  8
0
  6
CONTINUOUS
 62
     7
 10
209.4875
 20
-173.827
 11
213.2022
 21
-172.0948
  0
LINE
  8
0
  6
CONTINUOUS
 62
     7
 10
209.4879
 20
-171.2387
 11
218.6108
 21
-166.9846
  0
LINE
  8
0
  6
CONTINUOUS
 62
     7
 10
209.4877
 20
-171.2385
 11
209.4877
 21
-173.8271
  0
LINE
  8
0
  6
CONTINUOUS
 62
     7
 10
216.3302
 20
-171.6391
 11
221.0225
 21
-173.827
  0
LINE
  8
0
  6
CONTINUOUS
 62
     7
 10
218.0311
 20
-169.8436
 11
221.0228
 21
-171.2387
  0
LINE
  8
0
  6
CONTINUOUS
 62
     7
 10
221.0225
 20
-166.2024
 11
221.0225
 21
-167.4519
  0
LINE
  8
0
  6
CONTINUOUS
 62
     7
 10
213.2023
 20
-162.8984
 11
213.2023
 21
-164.6383
  0
LINE
  8
0
  6
CONTINUOUS
 62
     7
 10
216.3303
 20
-162.8984
 11
216.3303
 21
-164.6383
  0
LINE
  8
0
  6
CONTINUOUS
 62
     7
 10
216.3303
 20
-164.6383
 11
219.4585
 21
-164.6383
  0
LINE
  8
0
  6
CONTINUOUS
 62
     7
 10
213.2023
 20
-172.095
 11
213.2023
 21
-176.1732
  0
LINE
  8
0
  6
CONTINUOUS
 62
     7
 10
216.3303
 20
-171.6392
 11
216.3303
 21
-176.1732
  0
LINE
  8
0
  6
CONTINUOUS
 62
     7
 10
218.031
 20
-169.8436
 11
220.1197
 21
-168.8696
  0
LINE
  8
0
  6
CONTINUOUS
 62
     7
 10
231.5798
 20
-163.6022
 11
233.9258
 21
-163.6022
  0
LINE
  8
0
  6
CONTINUOUS
 62
     7
 10
222.0001
 20
-168.4483
 11
222.0001
 21
-170.9731
  0
LINE
  8
0
  6
CONTINUOUS
 62
     7
 10
233.9258
 20
-163.6022
 11
233.9258
 21
-164.6383
  0
LINE
  8
0
  6
CONTINUOUS
 62
     7
 10
231.5798
 20
-163.6022
 11
231.5798
 21
-164.1077
  0
LINE
  8
0
  6
CONTINUOUS
 62
     7
 10
228.4517
 20
-168.4072
 11
228.4517
 21
-176.1732
  0
LINE
  8
0
  6
CONTINUOUS
 62
     7
 10
222.0001
 20
-168.4484
 11
231.0869
 21
-164.8345
  0
LINE
  8
0
  6
CONTINUOUS
 62
     7
 10
222.0001
 20
-170.9732
 11
228.4518
 21
-168.4073
  0
LINE
  8
0
  6
CONTINUOUS
 62
     7
 10
228.4517
 20
-176.1732
 11
231.5798
 21
-176.1732
  0
LINE
  8
0
  6
CONTINUOUS
 62
     7
 10
231.5798
 20
-167.1632
 11
231.5798
 21
-176.1732
  0
LINE
  8
0
  6
CONTINUOUS
 62
     7
 10
231.5801
 20
-167.1633
 11
232.4471
 21
-166.8185
  0
LINE
  8
0
  6
CONTINUOUS
 62
     7
 10
199.7572
 20
-162.8984
 11
202.3746
 21
-162.8984
  0
LINE
  8
0
  6
CONTINUOUS
 62
     7
 10
206.2618
 20
-162.8984
 11
207.2589
 21
-162.8984
  0
LINE
  8
0
  6
CONTINUOUS
 62
     7
 10
213.2023
 20
-162.8984
 11
216.3303
 21
-162.8984
  0
LINE
  8
0
  6
CONTINUOUS
 62
     7
 10
206.2618
 20
-164.4624
 11
207.2589
 21
-164.4624
  0
LINE
  8
0
  6
CONTINUOUS
 62
     7
 10
206.2618
 20
-162.8984
 11
206.2618
 21
-164.4624
  0
LINE
  8
0
  6
CONTINUOUS
 62
     7
 10
207.2589
 20
-162.8984
 11
207.2589
 21
-164.4624
  0
LINE
  8
0
  6
CONTINUOUS
 62
     7
 10
207.8454
 20
-162.8984
 11
207.8454
 21
-164.4624
  0
LINE
  8
0
  6
CONTINUOUS
 62
     7
 10
208.9598
 20
-162.8984
 11
208.9598
 21
-164.4624
  0
LINE
  8
0
  6
CONTINUOUS
 62
     7
 10
207.8454
 20
-162.8984
 11
208.9598
 21
-162.8984
  0
LINE
  8
0
  6
CONTINUOUS
 62
     7
 10
207.8454
 20
-164.4624
 11
208.9598
 21
-164.4624
  0
LINE
  8
0
  6
CONTINUOUS
 62
     7
 10
154.382
 20
159.7753
 11
262.2472
 21
159.7753
  0
LINE
  8
0
  6
CONTINUOUS
 62
     7
 10
154.382
 20
180.0
 11
154.382
 21
159.7753
  0
LINE
  8
0
  6
CONTINUOUS
 62
     7
 10
154.382
 20
-159.7753
 11
154.382
 21
-180.0
  0
LINE
  8
0
  6
CONTINUOUS
 62
     2
 10
-30.5
 20
-28.19504
 11
-30.5
 21
-48.0
  0
LINE
  8
0
  6
CONTINUOUS
 62
     2
 10
123.5
 20
-25.57703
 11
123.5
 21
-48.0
  0
LINE
  8
0
  6
CONTINUOUS
 62
     2
 10
123.5
 20
-45.9999
 11
120.5
 21
-46.80375
  0
LINE
  8
0
  6
CONTINUOUS
 62
     2
 10
123.5
 20
-46.0
 11
120.5
 21
-45.19616
  0
LINE
  8
0
  6
CONTINUOUS
 62
     2
 10
-30.5
 20
-45.99996
 11
-27.5
 21
-45.19612
  0
LINE
  8
0
  6
CONTINUOUS
 62
     2
 10
-30.49998
 20
-45.99995
 11
-27.49998
 21
-46.8038
  0
LINE
  8
0
  6
CONTINUOUS
 62
     2
 10
-30.4999
 20
-45.99997
 11
123.5
 21
-45.99997
  0
LINE
  8
0
  6
CONTINUOUS
 62
     7
 10
-96.5
 20
-5.0
 11
-96.5
 21
-15.0
  0
LINE
  8
0
  6
CONTINUOUS
 62
     7
 10
-74.5
 20
-5.0
 11
-74.5
 21
-15.0
  0
LINE
  8
0
  6
CONTINUOUS
 62
     7
 10
-72.5
 20
-5.0
 11
-72.5
 21
-15.0
  0
LINE
  8
0
  6
CONTINUOUS
 62
     7
 10
-71.5
 20
-4.0
 11
-66.5
 21
-4.0
  0
LINE
  8
0
  6
CONTINUOUS
 62
     7
 10
-71.5
 20
-16.0
 11
-66.5
 21
-16.0
  0
LINE
  8
0
  6
CONTINUOUS
 62
     7
 10
-72.49998
 20
-5.00006
 11
-71.49998
 21
-4.00006
  0
LINE
  8
0
  6
CONTINUOUS
 62
     7
 10
-72.49997
 20
-15.00002
 11
-71.49998
 21
-16.00002
  0
LINE
  8
0
  6
CONTINUOUS
 62
     7
 10
-67.5
 20
-6.68338
 11
-67.5
 21
-13.31662
  0
LINE
  8
0
  6
CONTINUOUS
 62
     7
 10
-96.5
 20
-5.0
 11
-72.5
 21
-5.0
  0
LINE
  8
0
  6
CONTINUOUS
 62
     7
 10
-72.5
 20
-15.0
 11
-96.5
 21
-15.0
  0
LINE
  8
0
  6
CONTINUOUS
 62
     7
 10
-30.5
 20
8.0
 11
-30.5
 21
-28.0
  0
LINE
  8
0
  6
CONTINUOUS
 62
     7
 10
-29.5
 20
6.8
 11
-29.5
 21
-26.8
  0
LINE
  8
0
  6
CONTINUOUS
 62
     7
 10
-28.5
 20
6.8
 11
-28.5
 21
-26.8
  0
LINE
  8
0
  6
CONTINUOUS
 62
     7
 10
-27.5
 20
6.8
 11
-27.5
 21
-26.8
  0
LINE
  8
0
  6
CONTINUOUS
 62
     7
 10
-26.5
 20
6.8
 11
-26.5
 21
-26.8
  0
LINE
  8
0
  6
CONTINUOUS
 62
     7
 10
-27.5
 20
5.80001
 11
-26.5
 21
6.80002
  0
LINE
  8
0
  6
CONTINUOUS
 62
     7
 10
-29.5
 20
5.79998
 11
-28.5
 21
6.79998
  0
LINE
  8
0
  6
CONTINUOUS
 62
     7
 10
-29.49998
 20
-25.80004
 11
-28.49999
 21
-26.80003
  0
LINE
  8
0
  6
CONTINUOUS
 62
     7
 10
-27.49998
 20
-25.80002
 11
-26.49998
 21
-26.80002
  0
LINE
  8
0
  6
CONTINUOUS
 62
     7
 10
-30.5
 20
6.8
 11
-29.5
 21
6.8
  0
LINE
  8
0
  6
CONTINUOUS
 62
     7
 10
-28.5
 20
6.8
 11
-27.5
 21
6.8
  0
LINE
  8
0
  6
CONTINUOUS
 62
     7
 10
-30.5
 20
-26.8
 11
-29.5
 21
-26.8
  0
LINE
  8
0
  6
CONTINUOUS
 62
     7
 10
-28.5
 20
-26.8
 11
-27.5
 21
-26.8
  0
LINE
  8
0
  6
CONTINUOUS
 62
     7
 10
-26.5
 20
6.8
 11
38.00156
 21
6.8
  0
LINE
  8
0
  6
CONTINUOUS
 62
     7
 10
-26.5
 20
-26.8
 11
28.99846
 21
-26.8
  0
LINE
  8
0
  6
CONTINUOUS
 62
     7
 10
42.14267
 20
6.8
 11
109.5
 21
6.8
  0
LINE
  8
0
  6
CONTINUOUS
 62
     7
 10
33.13956
 20
-26.8
 11
109.5
 21
-26.8
  0
LINE
  8
0
  6
CONTINUOUS
 62
     7
 10
109.5
 20
6.8
 11
109.5
 21
-26.8
  0
LINE
  8
0
  6
CONTINUOUS
 62
     7
 10
110.5
 20
6.8
 11
110.5
 21
-26.8
  0
LINE
  8
0
  6
CONTINUOUS
 62
     7
 10
111.5
 20
6.8
 11
111.5
 21
-26.8
  0
LINE
  8
0
  6
CONTINUOUS
 62
     7
 10
112.5
 20
6.8
 11
112.5
 21
-26.8
  0
LINE
  8
0
  6
CONTINUOUS
 62
     7
 10
109.5
 20
6.79999
 11
110.5
 21
5.79999
  0
LINE
  8
0
  6
CONTINUOUS
 62
     7
 10
111.4998
 20
6.79987
 11
112.4998
 21
5.79987
  0
LINE
  8
0
  6
CONTINUOUS
 62
     7
 10
109.4999
 20
-26.8
 11
110.5
 21
-25.8
  0
LINE
  8
0
  6
CONTINUOUS
 62
     7
 10
111.4999
 20
-26.8
 11
112.4999
 21
-25.80001
  0
LINE
  8
0
  6
CONTINUOUS
 62
     7
 10
110.5
 20
6.8
 11
111.5
 21
6.8
  0
LINE
  8
0
  6
CONTINUOUS
 62
     7
 10
110.5
 20
-26.8
 11
111.5
 21
-26.8
  0
LINE
  8
0
  6
CENTER
 62
     2
 10
-99.5
 20
-10.0
 11
125.5
 21
-10.0
  0
LINE
  8
0
  6
CONTINUOUS
 62
     7
 10
-71.50046
 20
-4.0
 11
-71.50046
 21
-6.68338
  0
LINE
  8
0
  6
CONTINUOUS
 62
     7
 10
-71.5
 20
-13.31662
 11
-71.5
 21
-16.0
  0
LINE
  8
0
  6
CONTINUOUS
 62
     7
 10
-97.5
 20
-6.0
 11
-74.5
 21
-6.0
  0
LINE
  8
0
  6
CONTINUOUS
 62
     7
 10
-74.5
 20
-14.0
 11
-97.50001
 21
-14.0
  0
LINE
  8
0
  6
CONTINUOUS
 62
     7
 10
-74.50001
 20
-5.99998
 11
-72.76796
 21
-4.99999
  0
LINE
  8
0
  6
CONTINUOUS
 62
     7
 10
-74.49998
 20
-14.00001
 11
-72.76792
 21
-15.00002
  0
LINE
  8
0
  6
CONTINUOUS
 62
     7
 10
-96.5
 20
-15.0
 11
-97.5
 21
-14.0
  0
LINE
  8
0
  6
CONTINUOUS
 62
     7
 10
-97.5
 20
-14.0
 11
-97.5
 21
-6.0
  0
LINE
  8
0
  6
CONTINUOUS
 62
     7
 10
-97.49998
 20
-6.00001
 11
-96.49999
 21
-5.00001
  0
LINE
  8
0
  6
CONTINUOUS
 62
     7
 10
-66.5
 20
6.23886
 11
-30.5
 21
6.23886
  0
LINE
  8
0
  6
CONTINUOUS
 62
     7
 10
-66.5
 20
-26.23886
 11
-30.5
 21
-26.23886
  0
LINE
  8
0
  6
CONTINUOUS
 62
     7
 10
-66.5
 20
8.0
 11
-30.5
 21
8.0
  0
LINE
  8
0
  6
CONTINUOUS
 62
     7
 10
-66.5
 20
-28.0
 11
-30.5
 21
-28.0
  0
LINE
  8
0
  6
CENTER
 62
     2
 10
-38.5
 20
-19.69715
 11
-38.5
 21
10.0
  0
LINE
  8
0
  6
CONTINUOUS
 62
     7
 10
123.5
 20
5.8
 11
123.5
 21
-25.8
  0
LINE
  8
0
  6
CONTINUOUS
 62
     7
 10
112.5
 20
6.8
 11
122.5
 21
6.8
  0
LINE
  8
0
  6
CONTINUOUS
 62
     7
 10
112.5
 20
-26.8
 11
122.5
 21
-26.8
  0
LINE
  8
0
  6
CONTINUOUS
 62
     7
 10
110.5
 20
6.8
 11
111.5
 21
6.8
  0
LINE
  8
0
  6
CONTINUOUS
 62
     7
 10
117.5
 20
2.69803
 11
117.5
 21
-22.69803
  0
LINE
  8
0
  6
CONTINUOUS
 62
     7
 10
122.5
 20
6.8
 11
122.5
 21
2.69803
  0
LINE
  8
0
  6
CONTINUOUS
 62
     7
 10
-66.5
 20
8.0
 11
-66.5
 21
-28.0
  0
LINE
  8
0
  6
CONTINUOUS
 62
     7
 10
-71.50001
 20
-6.68338
 11
-67.5
 21
-6.68338
  0
LINE
  8
0
  6
CONTINUOUS
 62
     7
 10
-71.5
 20
-13.31662
 11
-67.5
 21
-13.31662
  0
LINE
  8
0
  6
CONTINUOUS
 62
     7
 10
-67.50003
 20
-6.68336
 11
-71.50004
 21
-13.31661
  0
LINE
  8
0
  6
CONTINUOUS
 62
     7
 10
-71.50001
 20
-6.68338
 11
-67.5
 21
-13.31663
  0
LINE
  8
0
  6
PHANTOM
 62
     2
 10
28.99846
 20
-26.8
 11
38.00156
 21
6.8
  0
LINE
  8
0
  6
DASHED
 62
     7
 10
-33.49998
 20
7.99999
 11
-34.49999
 21
6.99999
  0
LINE
  8
0
  6
DASHED
 62
     7
 10
-43.49998
 20
8.0
 11
-42.49998
 21
7.0
  0
LINE
  8
0
  6
DASHED
 62
     7
 10
-34.49998
 20
7.00001
 11
-42.5
 21
7.00001
  0
LINE
  8
0
  6
DASHED
 62
     7
 10
-42.5
 20
7.00001
 11
-42.5
 21
1.775
  0
LINE
  8
0
  6
DASHED
 62
     7
 10
-43.50001
 20
8.0
 11
-43.1812
 21
1.91682
  0
LINE
  8
0
  6
DASHED
 62
     7
 10
-34.5
 20
7.00001
 11
-34.5
 21
1.775
  0
LINE
  8
0
  6
DASHED
 62
     7
 10
-33.50002
 20
8.0
 11
-33.81879
 21
1.91682
  0
LINE
  8
0
  6
PHANTOM
 62
     2
 10
33.13956
 20
-26.79999
 11
42.14266
 21
6.80001
  0
LINE
  8
0
  6
CENTER
 62
     2
 10
-52.5
 20
9.69773
 11
-52.5
 21
-30.11644
  0
LINE
  8
0
  6
CONTINUOUS
 62
     7
 10
117.5
 20
-22.69803
 11
123.5
 21
-22.69803
  0
LINE
  8
0
  6
CONTINUOUS
 62
     7
 10
117.5
 20
2.69803
 11
123.5
 21
2.69803
  0
LINE
  8
0
  6
CONTINUOUS
 62
     7
 10
123.5
 20
-25.79999
 11
122.5
 21
-26.79999
  0
LINE
  8
0
  6
CONTINUOUS
 62
     7
 10
122.4999
 20
6.79995
 11
123.4999
 21
5.79995
  0
LINE
  8
0
  6
CONTINUOUS
 62
     7
 10
122.5
 20
-26.8
 11
122.5
 21
-22.69803
  0
LINE
  8
0
  6
CONTINUOUS
 62
     7
 10
123.4999
 20
-22.69805
 11
117.4999
 21
2.69801
  0
LINE
  8
0
  6
CONTINUOUS
 62
     7
 10
123.4999
 20
2.69804
 11
117.4999
 21
-22.69802
  0
LINE
  8
0
  6
CONTINUOUS
 62
     7
 10
-96.5
 20
99.8
 11
-96.5
 21
89.8
  0
LINE
  8
0
  6
CONTINUOUS
 62
     7
 10
-74.5
 20
99.8
 11
-74.5
 21
89.8
  0
LINE
  8
0
  6
CONTINUOUS
 62
     7
 10
-72.5
 20
99.8
 11
-72.5
 21
89.8
  0
LINE
  8
0
  6
CONTINUOUS
 62
     7
 10
-96.5
 20
99.8
 11
-67.5
 21
99.8
  0
LINE
  8
0
  6
CONTINUOUS
 62
     7
 10
-67.5
 20
89.8
 11
-96.5
 21
89.8
  0
LINE
  8
0
  6
CONTINUOUS
 62
     7
 10
-30.5
 20
121.8
 11
-30.5
 21
67.8
  0
LINE
  8
0
  6
CONTINUOUS
 62
     7
 10
-29.5
 20
111.6
 11
-29.5
 21
78.0
  0
LINE
  8
0
  6
CONTINUOUS
 62
     7
 10
-28.5
 20
111.6
 11
-28.5
 21
78.0
  0
LINE
  8
0
  6
CONTINUOUS
 62
     7
 10
-27.5
 20
111.6
 11
-27.5
 21
78.0
  0
LINE
  8
0
  6
CONTINUOUS
 62
     7
 10
-26.5
 20
111.6
 11
-26.5
 21
78.0
  0
LINE
  8
0
  6
CONTINUOUS
 62
     7
 10
-27.5
 20
110.6
 11
-26.5
 21
111.6
  0
LINE
  8
0
  6
CONTINUOUS
 62
     7
 10
-29.49999
 20
110.6
 11
-28.5
 21
111.6
  0
LINE
  8
0
  6
CONTINUOUS
 62
     7
 10
-29.5
 20
78.99993
 11
-28.5
 21
77.99993
  0
LINE
  8
0
  6
CONTINUOUS
 62
     7
 10
-27.49999
 20
78.99997
 11
-26.49999
 21
77.99997
  0
LINE
  8
0
  6
CONTINUOUS
 62
     7
 10
-30.5
 20
111.6
 11
-29.5
 21
111.6
  0
LINE
  8
0
  6
CONTINUOUS
 62
     7
 10
-28.5
 20
111.6
 11
-27.5
 21
111.6
  0
LINE
  8
0
  6
CONTINUOUS
 62
     7
 10
-30.5
 20
78.0
 11
-29.5
 21
78.0
  0
LINE
  8
0
  6
CONTINUOUS
 62
     7
 10
-28.5
 20
78.0
 11
-27.5
 21
78.0
  0
LINE
  8
0
  6
CONTINUOUS
 62
     7
 10
-26.5
 20
111.6
 11
38.00156
 21
111.6
  0
LINE
  8
0
  6
CONTINUOUS
 62
     7
 10
-26.5
 20
78.0
 11
28.99846
 21
78.0
  0
LINE
  8
0
  6
CONTINUOUS
 62
     7
 10
42.14267
 20
111.6
 11
109.5
 21
111.6
  0
LINE
  8
0
  6
CONTINUOUS
 62
     7
 10
33.13956
 20
78.0
 11
109.5
 21
78.0
  0
LINE
  8
0
  6
CONTINUOUS
 62
     7
 10
109.5
 20
111.6
 11
109.5
 21
78.0
  0
LINE
  8
0
  6
CONTINUOUS
 62
     7
 10
110.5
 20
111.6
 11
110.5
 21
78.0
  0
LINE
  8
0
  6
CONTINUOUS
 62
     7
 10
111.5
 20
111.6
 11
111.5
 21
78.0
  0
LINE
  8
0
  6
CONTINUOUS
 62
     7
 10
112.5
 20
111.6
 11
112.5
 21
78.0
  0
LINE
  8
0
  6
CONTINUOUS
 62
     7
 10
109.5
 20
111.6
 11
110.5
 21
110.6
  0
LINE
  8
0
  6
CONTINUOUS
 62
     7
 10
111.4997
 20
111.5998
 11
112.4997
 21
110.5998
  0
LINE
  8
0
  6
CONTINUOUS
 62
     7
 10
109.5
 20
78.00003
 11
110.5
 21
79.00002
  0
LINE
  8
0
  6
CONTINUOUS
 62
     7
 10
111.4999
 20
78.00001
 11
112.4999
 21
79.00002
  0
LINE
  8
0
  6
CONTINUOUS
 62
     7
 10
110.5
 20
111.6
 11
111.5
 21
111.6
  0
LINE
  8
0
  6
CONTINUOUS
 62
     7
 10
110.5
 20
78.0
 11
111.5
 21
78.0
  0
LINE
  8
0
  6
CENTER
 62
     2
 10
-99.5
 20
94.8
 11
125.5
 21
94.8
  0
LINE
  8
0
  6
CONTINUOUS
 62
     7
 10
-71.5
 20
99.8
 11
-71.5
 21
89.8
  0
LINE
  8
0
  6
CONTINUOUS
 62
     7
 10
-97.5
 20
98.8
 11
-74.5
 21
98.8
  0
LINE
  8
0
  6
CONTINUOUS
 62
     7
 10
-74.5
 20
90.8
 11
-97.50001
 21
90.8
  0
LINE
  8
0
  6
CONTINUOUS
 62
     7
 10
-74.50002
 20
98.80004
 11
-72.76796
 21
99.80003
  0
LINE
  8
0
  6
CONTINUOUS
 62
     7
 10
-74.49998
 20
90.79997
 11
-72.76792
 21
89.79996
  0
LINE
  8
0
  6
CONTINUOUS
 62
     7
 10
-96.5
 20
89.8
 11
-97.5
 21
90.8
  0
LINE
  8
0
  6
CONTINUOUS
 62
     7
 10
-97.5
 20
90.8
 11
-97.5
 21
98.8
  0
LINE
  8
0
  6
CONTINUOUS
 62
     7
 10
-97.49999
 20
98.79998
 11
-96.5
 21
99.79998
  0
LINE
  8
0
  6
CONTINUOUS
 62
     7
 10
-66.5
 20
120.0389
 11
-30.5
 21
120.0389
  0
LINE
  8
0
  6
CONTINUOUS
 62
     7
 10
-66.5
 20
69.56114
 11
-30.5
 21
69.56114
  0
LINE
  8
0
  6
CONTINUOUS
 62
     7
 10
-66.5
 20
121.8
 11
-30.5
 21
121.8
  0
LINE
  8
0
  6
CONTINUOUS
 62
     7
 10
-66.5
 20
67.8
 11
-30.5
 21
67.8
  0
LINE
  8
0
  6
CENTER
 62
     2
 10
-38.5
 20
104.4971
 11
-38.5
 21
65.8
  0
LINE
  8
0
  6
CONTINUOUS
 62
     7
 10
123.5
 20
105.8
 11
123.5
 21
83.8
  0
LINE
  8
0
  6
CONTINUOUS
 62
     7
 10
112.5
 20
111.6
 11
117.5
 21
111.6
  0
LINE
  8
0
  6
CONTINUOUS
 62
     7
 10
112.5
 20
78.0
 11
117.5
 21
78.0
  0
LINE
  8
0
  6
CONTINUOUS
 62
     7
 10
117.5
 20
105.8
 11
123.5
 21
105.8
  0
LINE
  8
0
  6
CONTINUOUS
 62
     7
 10
117.5
 20
83.8
 11
123.5
 21
83.8
  0
LINE
  8
0
  6
CONTINUOUS
 62
     7
 10
117.5
 20
111.6
 11
117.5
 21
105.8
  0
LINE
  8
0
  6
CONTINUOUS
 62
     7
 10
110.5
 20
111.6
 11
111.5
 21
111.6
  0
LINE
  8
0
  6
CONTINUOUS
 62
     7
 10
117.5
 20
83.8
 11
117.5
 21
78.0
  0
LINE
  8
0
  6
CONTINUOUS
 62
     7
 10
122.5
 20
105.8
 11
122.5
 21
83.8
  0
LINE
  8
0
  6
CONTINUOUS
 62
     7
 10
-66.5
 20
121.8
 11
-66.5
 21
67.8
  0
LINE
  8
0
  6
PHANTOM
 62
     2
 10
28.99845
 20
78.00002
 11
38.00155
 21
111.6
  0
LINE
  8
0
  6
DASHED
 62
     7
 10
-33.49998
 20
67.80002
 11
-34.49998
 21
68.80002
  0
LINE
  8
0
  6
DASHED
 62
     7
 10
-43.49999
 20
67.80001
 11
-42.49999
 21
68.80002
  0
LINE
  8
0
  6
DASHED
 62
     7
 10
-34.49998
 20
68.8
 11
-42.5
 21
68.8
  0
LINE
  8
0
  6
DASHED
 62
     7
 10
-42.5
 20
68.8
 11
-42.5
 21
74.02501
  0
LINE
  8
0
  6
DASHED
 62
     7
 10
-43.50001
 20
67.8
 11
-43.18119
 21
73.88319
  0
LINE
  8
0
  6
DASHED
 62
     7
 10
-34.5
 20
68.8
 11
-34.5
 21
74.025
  0
LINE
  8
0
  6
DASHED
 62
     7
 10
-33.50001
 20
67.80001
 11
-33.81879
 21
73.88319
  0
LINE
  8
0
  6
DASHED
 62
     7
 10
123.5
 20
99.80002
 11
122.5
 21
98.80002
  0
LINE
  8
0
  6
DASHED
 62
     7
 10
116.3748
 20
99.42662
 11
123.5
 21
99.80003
  0
LINE
  8
0
  6
DASHED
 62
     7
 10
116.5231
 20
90.16569
 11
123.5
 21
89.80004
  0
LINE
  8
0
  6
DASHED
 62
     7
 10
122.5
 20
98.8
 11
116.0
 21
98.8
  0
LINE
  8
0
  6
DASHED
 62
     7
 10
122.5
 20
90.8
 11
116.0
 21
90.8
  0
LINE
  8
0
  6
DASHED
 62
     7
 10
122.5001
 20
90.80007
 11
123.5001
 21
89.80007
  0
LINE
  8
0
  6
PHANTOM
 62
     2
 10
33.13955
 20
78.00001
 11
42.14266
 21
111.6
  0
LINE
  8
0
  6
CENTER
 62
     2
 10
-52.5
 20
86.8
 11
-52.5
 21
68.8
  0
LINE
  8
0
  6
CENTER
 62
     2
 10
-52.5
 20
120.8
 11
-52.5
 21
102.8
  0
LINE
  8
0
  6
CENTER
 62
     2
 10
-61.5
 20
111.8
 11
-43.5
 21
111.8
  0
LINE
  8
0
  6
CENTER
 62
     2
 10
-61.5
 20
77.8
 11
-43.5
 21
77.8
  0
LINE
  8
0
  6
CONTINUOUS
 62
     7
 10
-67.5
 20
89.80002
 11
-66.5
 21
88.80002
  0
LINE
  8
0
  6
CONTINUOUS
 62
     7
 10
-67.49998
 20
99.79998
 11
-66.49998
 21
100.8
  0
LINE
  8
0
  6
CONTINUOUS
 62
     7
 10
-238.3657
 20
-25.23155
 11
-238.3657
 21
5.23154
  0
LINE
  8
0
  6
CONTINUOUS
 62
     7
 10
-184.3657
 20
-25.23155
 11
-184.3657
 21
5.23154
  0
LINE
  8
0
  6
CONTINUOUS
 62
     7
 10
-236.6046
 20
-28.0
 11
-186.1269
 21
-28.0
  0
LINE
  8
0
  6
CONTINUOUS
 62
     7
 10
-236.6046
 20
8.0
 11
-186.1269
 21
8.0
  0
LINE
  8
0
  6
CENTER
 62
     2
 10
-228.3657
 20
-30.0
 11
-228.3657
 21
10.0
  0
LINE
  8
0
  6
CENTER
 62
     2
 10
-194.3657
 20
-30.0
 11
-194.3657
 21
10.0
  0
LINE
  8
0
  6
DASHED
 62
     7
 10
-235.3657
 20
-0.6
 11
-235.3657
 21
8.0
  0
LINE
  8
0
  6
DASHED
 62
     7
 10
-221.3657
 20
-0.6
 11
-221.3657
 21
8.0
  0
LINE
  8
0
  6
DASHED
 62
     7
 10
-201.3657
 20
-0.6
 11
-201.3657
 21
8.0
  0
LINE
  8
0
  6
DASHED
 62
     7
 10
-187.3657
 20
-0.6
 11
-187.3657
 21
8.0
  0
LINE
  8
0
  6
DASHED
 62
     7
 10
-201.3657
 20
-0.60001
 11
-187.3657
 21
-0.60001
  0
LINE
  8
0
  6
DASHED
 62
     7
 10
-235.3657
 20
-0.60001
 11
-221.3657
 21
-0.60001
  0
LINE
  8
0
  6
CENTER
 62
     2
 10
-211.3657
 20
-30.0
 11
-211.3657
 21
10.0
  0
LINE
  8
0
  6
CENTER
 62
     2
 10
-240.3657
 20
-10.0
 11
-182.3657
 21
-10.0
  0
LINE
  8
0
  6
DASHED
 62
     7
 10
-232.8657
 20
-0.6
 11
-232.8657
 21
-19.39999
  0
LINE
  8
0
  6
DASHED
 62
     7
 10
-235.3657
 20
-19.39999
 11
-221.3657
 21
-19.39999
  0
LINE
  8
0
  6
DASHED
 62
     7
 10
-235.3657
 20
-19.39999
 11
-235.3657
 21
-28.0
  0
LINE
  8
0
  6
DASHED
 62
     7
 10
-223.8657
 20
-0.6
 11
-223.8657
 21
-19.39999
  0
LINE
  8
0
  6
DASHED
 62
     7
 10
-221.3657
 20
-19.39999
 11
-221.3657
 21
-28.0
  0
LINE
  8
0
  6
DASHED
 62
     7
 10
-201.3657
 20
-19.39999
 11
-201.3657
 21
-28.0
  0
LINE
  8
0
  6
DASHED
 62
     7
 10
-201.3657
 20
-19.39999
 11
-187.3657
 21
-19.39999
  0
LINE
  8
0
  6
DASHED
 62
     7
 10
-187.3657
 20
-19.39999
 11
-187.3657
 21
-28.0
  0
LINE
  8
0
  6
DASHED
 62
     7
 10
-189.8657
 20
-0.6
 11
-189.8657
 21
-19.39999
  0
LINE
  8
0
  6
DASHED
 62
     7
 10
-198.8657
 20
-0.6
 11
-198.8657
 21
-19.39999
  0
LINE
  8
0
  6
DASHED
 62
     7
 10
-216.3656
 20
8.00007
 11
-215.3656
 21
7.00008
  0
LINE
  8
0
  6
DASHED
 62
     7
 10
-206.3657
 20
8.00002
 11
-207.3657
 21
7.00001
  0
LINE
  8
0
  6
DASHED
 62
     7
 10
-215.3657
 20
7.0
 11
-207.3657
 21
7.0
  0
LINE
  8
0
  6
DASHED
 62
     7
 10
-207.3657
 20
7.0
 11
-207.3657
 21
1.77501
  0
LINE
  8
0
  6
DASHED
 62
     7
 10
-206.3657
 20
7.99999
 11
-206.6844
 21
1.91682
  0
LINE
  8
0
  6
DASHED
 62
     7
 10
-215.3657
 20
7.0
 11
-215.3657
 21
1.775
  0
LINE
  8
0
  6
DASHED
 62
     7
 10
-216.3658
 20
8.0
 11
-216.047
 21
1.91683
  0
LINE
  8
0
  6
DASHED
 62
     7
 10
-184.3657
 20
-4.99998
 11
-185.3657
 21
-6.0
  0
LINE
  8
0
  6
DASHED
 62
     7
 10
-184.3656
 20
-14.9999
 11
-185.3656
 21
-13.9999
  0
LINE
  8
0
  6
DASHED
 62
     7
 10
-185.3657
 20
-6.0
 11
-185.3657
 21
-13.99995
  0
LINE
  8
0
  6
DASHED
 62
     7
 10
-185.3657
 20
-14.0
 11
-189.0657
 21
-14.0
  0
LINE
  8
0
  6
DASHED
 62
     7
 10
-184.3657
 20
-14.99999
 11
-188.8331
 21
-14.76586
  0
LINE
  8
0
  6
DASHED
 62
     7
 10
-185.3657
 20
-6.0
 11
-189.0157
 21
-6.0
  0
LINE
  8
0
  6
DASHED
 62
     7
 10
-184.3657
 20
-4.99999
 11
-188.8331
 21
-5.23412
  0
LINE
  8
0
  6
CONTINUOUS
 62
     7
 10
-206.3657
 20
-13.31661
 11
-206.3657
 21
-6.68338
  0
LINE
  8
0
  6
CONTINUOUS
 62
     7
 10
-216.3657
 20
-13.31661
 11
-216.3657
 21
-6.68338
  0
LINE
  8
0
  6
CONTINUOUS
 62
     7
 10
160.3657
 20
-25.23155
 11
160.3657
 21
5.23154
  0
LINE
  8
0
  6
CONTINUOUS
 62
     7
 10
214.3657
 20
-25.23155
 11
214.3657
 21
5.23154
  0
LINE
  8
0
  6
CONTINUOUS
 62
     7
 10
162.1268
 20
-28.0
 11
212.6046
 21
-28.0
  0
LINE
  8
0
  6
CONTINUOUS
 62
     7
 10
162.1268
 20
8.0
 11
212.6046
 21
8.0
  0
LINE
  8
0
  6
CENTER
 62
     2
 10
170.3657
 20
-30.0
 11
170.3657
 21
10.0
  0
LINE
  8
0
  6
CENTER
 62
     2
 10
204.3657
 20
-30.0
 11
204.3657
 21
10.0
  0
LINE
  8
0
  6
CENTER
 62
     2
 10
187.3657
 20
-30.0
 11
187.3657
 21
10.0
  0
LINE
  8
0
  6
CENTER
 62
     2
 10
158.3657
 20
-10.0
 11
216.3657
 21
-10.0
  0
LINE
  8
0
  6
CONTINUOUS
 62
     7
 10
198.3657
 20
-22.69803
 11
198.3657
 21
2.69803
  0
LINE
  8
0
  6
CONTINUOUS
 62
     7
 10
176.3657
 20
-22.69803
 11
176.3657
 21
2.69803
  0
LINE
  8
0
  6
CONTINUOUS
 62
     7
 10
-73.49999
 20
-134.0415
 11
-66.5
 21
-138.083
  0
LINE
  8
0
  6
CONTINUOUS
 62
     7
 10
-73.5
 20
-125.9586
 11
-73.5
 21
-134.0415
  0
LINE
  8
0
  6
CONTINUOUS
 62
     7
 10
-73.50003
 20
-125.9586
 11
-66.50003
 21
-121.9171
  0
LINE
  8
0
  6
CONTINUOUS
 62
     7
 10
-66.50003
 20
-121.9171
 11
-59.5
 21
-125.9586
  0
LINE
  8
0
  6
CONTINUOUS
 62
     7
 10
-59.5
 20
-125.9586
 11
-59.5
 21
-134.0415
  0
LINE
  8
0
  6
CONTINUOUS
 62
     7
 10
-66.50011
 20
-138.0829
 11
-59.5001
 21
-134.0414
  0
LINE
  8
0
  6
CENTER
 62
     2
 10
-76.5
 20
-130.0001
 11
-56.5
 21
-130.0001
  0
LINE
  8
0
  6
CENTER
 62
     2
 10
-66.5
 20
-120.0001
 11
-66.5
 21
-140.0001
  0
LINE
  8
0
  6
CONTINUOUS
 62
     7
 10
-5.87478
 20
-134.0415
 11
-1.12521
 21
-134.0415
  0
LINE
  8
0
  6
CONTINUOUS
 62
     7
 10
-1.1252
 20
-138.083
 11
-0.49999
 21
-137.0001
  0
LINE
  8
0
  6
CONTINUOUS
 62
     7
 10
-6.49999
 20
-137.0001
 11
-5.87479
 21
-138.083
  0
LINE
  8
0
  6
CONTINUOUS
 62
     7
 10
-5.87479
 20
-138.083
 11
-1.12521
 21
-138.083
  0
LINE
  8
0
  6
CONTINUOUS
 62
     7
 10
-6.5
 20
-123.0001
 11
-6.5
 21
-137.0001
  0
LINE
  8
0
  6
CONTINUOUS
 62
     7
 10
-0.5
 20
-123.0001
 11
-0.5
 21
-137.0001
  0
LINE
  8
0
  6
CONTINUOUS
 62
     7
 10
-6.49999
 20
-123.0001
 11
-5.87478
 21
-121.9171
  0
LINE
  8
0
  6
CONTINUOUS
 62
     7
 10
-1.12523
 20
-121.9172
 11
-0.50001
 21
-123.0001
  0
LINE
  8
0
  6
CONTINUOUS
 62
     7
 10
-5.87478
 20
-121.9172
 11
-1.12522
 21
-121.9172
  0
LINE
  8
0
  6
CONTINUOUS
 62
     7
 10
-5.87478
 20
-125.9586
 11
-1.12521
 21
-125.9586
  0
LINE
  8
0
  6
CENTER
 62
     2
 10
-8.5
 20
-130.0001
 11
1.5
 21
-130.0001
  0
ARC
  8
0
  6
CONTINUOUS
 62
     7
 10
193.0652
 20
-166.2024
 40
1.56404
 50
0.0
 51
89.99999
  0
ARC
  8
0
  6
CONTINUOUS
 62
     7
 10
205.9686
 20
-174.6092
 40
1.56404
 50
270.0
 51
0.0
  0
ARC
  8
0
  6
CONTINUOUS
 62
     7
 10
205.1865
 20
-166.9844
 40
2.34607
 50
0.0
 51
89.99999
  0
ARC
  8
0
  6
CONTINUOUS
 62
     7
 10
219.4585
 20
-166.2024
 40
1.56404
 50
0.0
 51
89.99999
  0
ARC
  8
0
  6
CONTINUOUS
 62
     7
 10
219.4585
 20
-167.4519
 40
1.56405
 50
295.0
 51
0.0
  0
ARC
  8
0
  6
CONTINUOUS
 62
     7
 10
231.5798
 20
-164.6383
 40
2.34607
 50
291.6882
 51
0.0
  0
ARC
  8
0
  6
CONTINUOUS
 62
     7
 10
230.7978
 20
-164.1077
 40
0.78203
 50
291.688
 51
0.0
  0
CIRCLE
  8
0
  6
CONTINUOUS
 62
     7
 10
-38.5
 20
-10.0
 40
5.0
  0
CIRCLE
  8
0
  6
CONTINUOUS
 62
     7
 10
-38.5
 20
-10.0
 40
4.0
  0
CIRCLE
  8
0
  6
CONTINUOUS
 62
     7
 10
-38.5
 20
-10.0
 40
1.15
  0
ARC
  8
0
  6
CONTINUOUS
 62
     7
 10
-66.49885
 20
-9.99965
 40
6.00115
 50
146.454
 51
213.554
  0
ARC
  8
0
  6
CONTINUOUS
 62
     7
 10
-72.5
 20
-10.0
 40
6.0
 50
326.4427
 51
33.5573
  0
CIRCLE
  8
0
  6
CONTINUOUS
 62
     7
 10
-52.5
 20
111.8
 40
4.5
  0
CIRCLE
  8
0
  6
CONTINUOUS
 62
     7
 10
-52.5
 20
77.8
 40
4.5
  0
CIRCLE
  8
0
  6
CONTINUOUS
 62
     7
 10
-52.5
 20
111.8
 40
7.0
  0
CIRCLE
  8
0
  6
CONTINUOUS
 62
     7
 10
-52.5
 20
77.8
 40
7.0
  0
CIRCLE
  8
0
  6
CONTINUOUS
 62
     7
 10
-38.5
 20
94.8
 40
5.0
  0
CIRCLE
  8
0
  6
CONTINUOUS
 62
     7
 10
-38.5
 20
94.8
 40
4.0
  0
CIRCLE
  8
0
  6
CONTINUOUS
 62
     7
 10
-38.5
 20
94.8
 40
1.15
  0
CIRCLE
  8
0
  6
CONTINUOUS
 62
     7
 10
-211.3657
 20
-10.0
 40
5.0
  0
CIRCLE
  8
0
  6
CONTINUOUS
 62
     7
 10
-211.3657
 20
-10.0
 40
4.0
  0
ARC
  8
0
  6
CONTINUOUS
 62
     7
 10
-211.3657
 20
-10.0
 40
31.0
 50
324.504
 51
330.5713
  0
ARC
  8
0
  6
CONTINUOUS
 62
     7
 10
-211.3657
 20
-10.0
 40
30.99999
 50
209.4287
 51
215.496
  0
ARC
  8
0
  6
CONTINUOUS
 62
     7
 10
-211.3657
 20
-10.0
 40
31.0
 50
144.5041
 51
150.5713
  0
ARC
  8
0
  6
CONTINUOUS
 62
     7
 10
-211.3657
 20
-10.0
 40
31.0
 50
29.4287
 51
35.49593
  0
CIRCLE
  8
0
  6
CONTINUOUS
 62
     7
 10
-211.3657
 20
-10.0
 40
6.0
  0
ARC
  8
0
  6
CONTINUOUS
 62
     7
 10
187.3657
 20
-10.0
 40
31.0
 50
324.504
 51
330.5713
  0
ARC
  8
0
  6
CONTINUOUS
 62
     7
 10
187.3657
 20
-10.0
 40
30.99999
 50
209.4287
 51
215.496
  0
ARC
  8
0
  6
CONTINUOUS
 62
     7
 10
187.3657
 20
-10.0
 40
31.0
 50
144.5041
 51
150.5713
  0
ARC
  8
0
  6
CONTINUOUS
 62
     7
 10
187.3657
 20
-10.0
 40
31.0
 50
29.4287
 51
35.49593
  0
CIRCLE
  8
0
  6
CONTINUOUS
 62
     7
 10
187.3657
 20
-10.0
 40
4.0
  0
CIRCLE
  8
0
  6
CONTINUOUS
 62
     7
 10
187.3657
 20
-10.0
 40
5.0
  0
CIRCLE
  8
0
  6
CONTINUOUS
 62
     7
 10
187.3657
 20
-10.0
 40
1.15
  0
CIRCLE
  8
0
  6
CONTINUOUS
 62
     7
 10
187.3657
 20
-10.0
 40
16.8
  0
ARC
  8
0
  6
CONTINUOUS
 62
     7
 10
187.3657
 20
-10.0
 40
15.8
 50
45.87687
 51
134.1231
  0
ARC
  8
0
  6
CONTINUOUS
 62
     7
 10
187.3657
 20
-10.0
 40
15.8
 50
225.8769
 51
314.1231
  0
CIRCLE
  8
0
  6
CONTINUOUS
 62
     7
 10
-66.5
 20
-130.0001
 40
7.0
  0
CIRCLE
  8
0
  6
CONTINUOUS
 62
     7
 10
-66.5
 20
-130.0001
 40
5.0
  0
CIRCLE
  8
0
  6
CONTINUOUS
 62
     7
 10
-66.5
 20
-130.0001
 40
4.0
  0
ARC
  8
0
  6
CONTINUOUS
 62
     7
 10
-2.92185
 20
-123.9379
 40
3.57814
 50
180.0
 51
214.3844
  0
ARC
  8
0
  6
CONTINUOUS
 62
     7
 10
6.87473
 20
-130.0001
 40
13.37472
 50
162.412
 51
197.588
  0
ARC
  8
0
  6
CONTINUOUS
 62
     7
 10
-2.92185
 20
-136.0622
 40
3.57814
 50
145.6157
 51
180.0
  0
ARC
  8
0
  6
CONTINUOUS
 62
     7
 10
-4.07814
 20
-136.0622
 40
3.57814
 50
0.0
 51
34.38429
  0
ARC
  8
0
  6
CONTINUOUS
 62
     7
 10
-13.87472
 20
-130.0001
 40
13.37473
 50
342.4119
 51
17.588
  0
ARC
  8
0
  6
CONTINUOUS
 62
     7
 10
-4.07814
 20
-123.9379
 40
3.57814
 50
325.6156
 51
0.0
  0
TEXT
  8
0
  6
CONTINUOUS
 62
     7
 10
-93.03571
 20
-82.35006
 40
5.0
  1
ROD NUT(M10)
 41
0.8
  7
STANDARD
  0
TEXT
  8
0
  6
CONTINUOUS
 62
     7
 10
161.9774
 20
167.0677
 40
6.0
  1
DATE : AUG ,1989
 41
0.8
  7
STANDARD
  0
TEXT
  8
0
  6
CONTINUOUS
 62
     7
 10
-256.1446
 20
166.5977
 40
7.0
  1
SLIM BLOCK CYL
 41
0.8
  7
STANDARD
  0
TEXT
  8
0
  6
CONTINUOUS
 62
     7
 10
-254.3972
 20
141.4853
 40
7.0
  1
MODEL : DAB 32*ST-2(100)
 41
0.8
  7
STANDARD
  0
TEXT
  8
0
  6
CONTINUOUS
 62
     7
 10
23.33538
 20
-44.35
 40
5.0
  1
CATALOG
 41
0.8
  7
STANDARD
  0
ENDSEC
  0
EOF
