  0
SECTION
  2
HEADER
  9
$ACADVER
  1
AC1012
  9
$DWGCODEPAGE
  3
dos932
  9
$INSBASE
 10
0.0
 20
0.0
 30
0.0
  9
$EXTMIN
 10
0.0
 20
0.0
 30
0.0
  9
$EXTMAX
 10
594.0
 20
420.0
 30
0.0
  9
$LIMMIN
 10
0.0
 20
0.0
  9
$LIMMAX
 10
0.0
 20
0.0
  9
$ORTHOMODE
 70
         0
  9
$REGENMODE
 70
         1
  9
$FILLMODE
 70
         1
  9
$QTEXTMODE
 70
         0
  9
$MIRRTEXT
 70
         1
  9
$DRAGMODE
 70
         2
  9
$LTSCALE
 40
1.0
  9
$OSMODE
 70
         0
  9
$ATTMODE
 70
         1
  9
$TEXTSIZE
 40
3.5
  9
$TRACEWID
 40
0.05
  9
$TEXTSTYLE
  7
STANDARD
  9
$CLAYER
  8
0
  9
$CELTYPE
  6
CONTINUOUS
  9
$CECOLOR
 62
       256
  9
$CELTSCALE
 40
1.0
  9
$DELOBJ
 70
         1
  9
$DISPSILH
 70
         0
  9
$DIMSCALE
 40
1.0
  9
$DIMASZ
 40
0.012850053
  9
$DIMEXO
 40
0.0
  9
$DIMDLI
 40
0.38
  9
$DIMRND
 40
0.0
  9
$DIMDLE
 40
0.0
  9
$DIMEXE
 40
0.18
  9
$DIMTP
 40
0.0
  9
$DIMTM
 40
0.0
  9
$DIMTXT
 40
3.5
  9
$DIMCEN
 40
0.09
  9
$DIMTSZ
 40
0.0
  9
$DIMTOL
 70
         0
  9
$DIMLIM
 70
         0
  9
$DIMTIH
 70
         1
  9
$DIMTOH
 70
         1
  9
$DIMSE1
 70
         0
  9
$DIMSE2
 70
         0
  9
$DIMTAD
 70
         1
  9
$DIMZIN
 70
         0
  9
$DIMBLK
  1

  9
$DIMASO
 70
         1
  9
$DIMSHO
 70
         1
  9
$DIMPOST
  1

  9
$DIMAPOST
  1

  9
$DIMALT
 70
         0
  9
$DIMALTD
 70
         2
  9
$DIMALTF
 40
0.0394
  9
$DIMLFAC
 40
1.0
  9
$DIMTOFL
 70
         0
  9
$DIMTVP
 40
0.0
  9
$DIMTIX
 70
         0
  9
$DIMSOXD
 70
         0
  9
$DIMSAH
 70
         0
  9
$DIMBLK1
  1

  9
$DIMBLK2
  1

  9
$DIMSTYLE
  2
STANDARD
  9
$DIMCLRD
 70
         0
  9
$DIMCLRE
 70
         0
  9
$DIMCLRT
 70
         0
  9
$DIMTFAC
 40
1.0
  9
$DIMGAP
 40
0.0
  9
$DIMJUST
 70
         0
  9
$DIMSD1
 70
         0
  9
$DIMSD2
 70
         0
  9
$DIMTOLJ
 70
         1
  9
$DIMTZIN
 70
         0
  9
$DIMALTZ
 70
         0
  9
$DIMALTTZ
 70
         0
  9
$DIMFIT
 70
         3
  9
$DIMUPT
 70
         0
  9
$DIMUNIT
 70
         2
  9
$DIMDEC
 70
         4
  9
$DIMTDEC
 70
         4
  9
$DIMALTU
 70
         2
  9
$DIMALTTD
 70
         2
  9
$DIMTXSTY
  7
STANDARD
  9
$DIMAUNIT
 70
         0
  9
$LUNITS
 70
         2
  9
$LUPREC
 70
         2
  9
$SKETCHINC
 40
0.1
  9
$FILLETRAD
 40
0.0
  9
$AUNITS
 70
         0
  9
$AUPREC
 70
         2
  9
$MENU
  1
acad
  9
$ELEVATION
 40
0.0
  9
$PELEVATION
 40
0.0
  9
$THICKNESS
 40
0.0
  9
$LIMCHECK
 70
         0
  9
$BLIPMODE
 70
         1
  9
$CHAMFERA
 40
0.0
  9
$CHAMFERB
 40
0.0
  9
$CHAMFERC
 40
0.0
  9
$CHAMFERD
 40
0.0
  9
$SKPOLY
 70
         0
  9
$TDCREATE
 40
0.000000000
  9
$TDUPDATE
 40
0.000000000
  9
$TDINDWG
 40
0.0000000000
  9
$TDUSRTIMER
 40
0.0000000000
  9
$USRTIMER
 70
         1
  9
$ANGBASE
 50
0.0
  9
$ANGDIR
 70
         0
  9
$PDMODE
 70
         0
  9
$PDSIZE
 40
-1.0
  9
$PLINEWID
 40
0.0
  9
$COORDS
 70
         0
  9
$SPLFRAME
 70
         0
  9
$SPLINETYPE
 70
         6
  9
$SPLINESEGS
 70
         8
  9
$ATTDIA
 70
         0
  9
$ATTREQ
 70
         1
  9
$HANDLING
 70
         1
  9
$HANDSEED
  5
38E
  9
$SURFTAB1
 70
         6
  9
$SURFTAB2
 70
         6
  9
$SURFTYPE
 70
         6
  9
$SURFU
 70
         6
  9
$SURFV
 70
         6
  9
$UCSNAME
  2

  9
$UCSORG
 10
0.0
 20
0.0
 30
0.0
  9
$UCSXDIR
 10
1.0
 20
0.0
 30
0.0
  9
$UCSYDIR
 10
0.0
 20
1.0
 30
0.0
  9
$PUCSNAME
  2

  9
$PUCSORG
 10
0.0
 20
0.0
 30
0.0
  9
$PUCSXDIR
 10
1.0
 20
0.0
 30
0.0
  9
$PUCSYDIR
 10
0.0
 20
1.0
 30
0.0
  9
$USERI1
 70
         0
  9
$USERI2
 70
         0
  9
$USERI3
 70
         0
  9
$USERI4
 70
         0
  9
$USERI5
 70
         0
  9
$USERR1
 40
0.0
  9
$USERR2
 40
0.0
  9
$USERR3
 40
0.0
  9
$USERR4
 40
0.0
  9
$USERR5
 40
0.0
  9
$WORLDVIEW
 70
         1
  9
$SHADEDGE
 70
         3
  9
$SHADEDIF
 70
        70
  9
$TILEMODE
 70
         1
  9
$MAXACTVP
 70
        16
  9
$PINSBASE
 10
0.0
 20
0.0
 30
0.0
  9
$PLIMCHECK
 70
         0
  9
$PEXTMIN
 10
1.0000000000E+20
 20
1.0000000000E+20
 30
1.0000000000E+20
  9
$PEXTMAX
 10
-1.0000000000E+20
 20
-1.0000000000E+20
 30
-1.0000000000E+20
  9
$PLIMMIN
 10
0.0
 20
0.0
  9
$PLIMMAX
 10
12.0
 20
9.0
  9
$UNITMODE
 70
         0
  9
$VISRETAIN
 70
         0
  9
$PLINEGEN
 70
         1
  9
$PSLTSCALE
 70
         1
  9
$TREEDEPTH
 70
      3020
  9
$PICKSTYLE
 70
         1
  9
$CMLSTYLE
  2
STANDARD
  9
$CMLJUST
 70
         0
  9
$CMLSCALE
 40
1.0
  9
$SAVEIMAGES
 70
         0
  0
ENDSEC
  0
SECTION
  2
CLASSES
  0
CLASS
  1
LWPOLYLINE
  2
AcDbPolyline
  3
"AutoCAD"
 90
    32768
280
         0
281
         1
  0
CLASS
  1
IMAGE
  2
AcDbRasterImage
  3
ISM
 90
    32895
280
         0
281
         1
  0
CLASS
  1
OLE2FRAME
  2
AcDbOle2Frame
  3
""
 90
    32768
280
         0
281
         1
  0
CLASS
  1
HATCH
  2
AcDbHatch
  3
"ACAD_SEDONA"
 90
    32768
280
         0
281
         1
  0
CLASS
  1
DICTIONARYVAR
  2
AcDbDictionaryVar
  3
"AutoCAD"
 90
    32768
280
         0
281
         0
  0
CLASS
  1
RASTERVARIABLES
  2
AcDbRasterVariables
  3
ISM
 90
    32768
280
         0
281
         0
  0
CLASS
  1
IMAGEDEF
  2
AcDbRasterImageDef
  3
ISM
 90
    32768
280
         0
281
         0
  0
CLASS
  1
IMAGEDEF_REACTOR
  2
AcDbRasterImageDefReactor
  3
ISM
 90
    32769
280
         0
281
         0
  0
CLASS
  1
IDBUFFER
  2
AcDbIdBuffer
  3
"Acad"
 90
    32768
280
         0
281
         0
  0
CLASS
  1
SPATIAL_FILTER
  2
AcDbSpatialFilter
  3
"Acad"
 90
    32768
280
         0
281
         0
  0
CLASS
  1
XRECORD
  2
AcDbXrecord
  3
"<Built In>"
 90
    32768
280
         0
281
         0
  0
CLASS
  1
SORTENTSTABLE
  2
AcDbSortentsTable
  3
"AutoCAD"
 90
    32768
280
         0
281
         0
  0
CLASS
  1
LAYER_INDEX
  2
AcDbLayerIndex
  3
"Acad"
 90
    32768
280
         0
281
         0
  0
CLASS
  1
SPATIAL_INDEX
  2
AcDbSpatialIndex
  3
"Acad"
 90
    32768
280
         0
281
         0
  0
CLASS
  1
OBJECT_PTR
  2
CAseDLPNTableRecord
  3
"ASE-LPNTableRecord"
 90
    32769
280
         0
281
         0
  0
CLASS
  1
LAYOUT
  2
AcDbLayout
  3
"AutoCAD 2000"
 90
    32768
280
         0
281
         0
  0
CLASS
  1
PLOTSETTINGS
  2
AcDbPlotSettings
  3
"AutoCAD 2000"
 90
    32768
280
         0
281
         0
  0
CLASS
  1
ACDBDICTIONARYWDFLT
  2
AcDbDictionaryWithDefault
  3
"AutoCAD 2000"
 90
    32768
280
         0
281
         0
  0
CLASS
  1
ACDBPLACEHOLDER
  2
AcDbPlaceHolder
  3
"AutoCAD 2000"
 90
    32768
280
         0
281
         0
  0
CLASS
  1
VBA_PROJECT
  2
AcDbVbaProject
  3
"acadvba"
 90
    32768
280
         0
281
         0
  0
CLASS
  1
WIPEOUT
  2
AcDbWipeout
  3
WipeOut|AutoCAD Express Tool|expresstools@autodesk.com
 90
    32895
280
         0
281
         1
  0
CLASS
  1
WIPEOUTVARIABLES
  2
AcDbWipeoutVariables
  3
WipeOut|AutoCAD Express Tool|expresstools@autodesk.com
 90
    32768
280
         0
281
         0
  0
CLASS
  1
RTEXT
  2
RText
  3
RText|AutoCAD Express Tool|expresstools@autodesk.com
 90
    32768
280
         0
281
         1
  0
CLASS
  1
ARCALIGNEDTEXT
  2
AcDbArcAlignedText
  3
ATEXT|AutoCAD Express Tool|expresstools@autodesk.com
 90
    32768
280
         0
281
         1
  0
ENDSEC
  0
SECTION
  2
TABLES
  0
TABLE
  2
VPORT
  5
7
100
AcDbSymbolTable
 70
         1
  0
VPORT
  5
15
100
AcDbSymbolTableRecord
100
AcDbViewportTableRecord
  2
*ACTIVE
 70
         0
 10
0.0
 20
0.0
 11
1.0
 21
1.0
 12
297.0
 22
210.0
 13
0.0
 23
0.0
 14
1.0
 24
1.0
 15
0.0
 25
0.0
 16
0.0
 26
0.0
 36
1.0
 17
0.0
 27
0.0
 37
0.0
 40
420.0
 41
0.7070707071
 42
50.0
 43
0.0
 44
0.0
 50
0.0
 51
0.0
 71
         0
 72
      2000
 73
         1
 74
         1
 75
         0
 76
         0
 77
         0
 78
         0
  0
ENDTAB
  0
TABLE
  2
LTYPE
  5
4
100
AcDbSymbolTable
 70
         8
  0
LTYPE
  5
11
100
AcDbSymbolTableRecord
100
AcDbLinetypeTableRecord
  2
BYBLOCK
 70
        64
  3

 72
        65
 73
         0
 40
0.0
  0
LTYPE
  5
12
100
AcDbSymbolTableRecord
100
AcDbLinetypeTableRecord
  2
BYLAYER
 70
        64
  3

 72
        65
 73
         0
 40
0.0
  0
LTYPE
  5
13
100
AcDbSymbolTableRecord
100
AcDbLinetypeTableRecord
  2
CONTINUOUS
 70
        64
  3
Solid line
 72
        65
 73
         0
 40
0.0
  0
LTYPE
  5
1D
100
AcDbSymbolTableRecord
100
AcDbLinetypeTableRecord
  2
HIDDEN
 70
        64
  3
Hidden __ __ __ __ __ __ __ __ __ __ __ __ __ __
 72
        65
 73
         2
 40
1.905
 49
1.27
 74
         0
 49
-0.635
 74
         0
  0
LTYPE
  5
1E
100
AcDbSymbolTableRecord
100
AcDbLinetypeTableRecord
  2
PHANTOM
 70
        64
  3
Phantom ______  __  __  ______  __  __  ______
 72
        65
 73
         6
 40
12.7
 49
6.35
 74
         0
 49
-1.27
 74
         0
 49
1.27
 74
         0
 49
-1.27
 74
         0
 49
1.27
 74
         0
 49
-1.27
 74
         0
  0
LTYPE
  5
1F
100
AcDbSymbolTableRecord
100
AcDbLinetypeTableRecord
  2
CENTER
 70
        64
  3
Center ____ _ ____ _ ____ _ ____ _ ____ _ ____
 72
        65
 73
         4
 40
10.16
 49
6.35
 74
         0
 49
-1.27
 74
         0
 49
1.27
 74
         0
 49
-1.27
 74
         0
  0
LTYPE
  5
20
100
AcDbSymbolTableRecord
100
AcDbLinetypeTableRecord
  2
CENTERX2
 70
        64
  3
Center (2x) ________  __  ________  __  _____
 72
        65
 73
         4
 40
20.32
 49
12.7
 74
         0
 49
-2.54
 74
         0
 49
2.54
 74
         0
 49
-2.54
 74
         0
  0
LTYPE
  5
21
100
AcDbSymbolTableRecord
100
AcDbLinetypeTableRecord
  2
DOT2
 70
        64
  3
Dot (.5x) ........................................
 72
        65
 73
         2
 40
0.635
 49
0.0
 74
         0
 49
-0.635
 74
         0
  0
ENDTAB
  0
TABLE
  2
LAYER
  5
2
100
AcDbSymbolTable
 70
         2
  0
LAYER
  5
14
100
AcDbSymbolTableRecord
100
AcDbLayerTableRecord
  2
0
 70
         0
 62
         7
  6
CONTINUOUS
  0
LAYER
  5
23
100
AcDbSymbolTableRecord
100
AcDbLayerTableRecord
  2
DEFPOINTS
 70
         0
 62
         7
  6
CONTINUOUS
  0
ENDTAB
  0
TABLE
  2
STYLE
  5
3
100
AcDbSymbolTable
 70
         1
  0
STYLE
  5
17
100
AcDbSymbolTableRecord
100
AcDbTextStyleTableRecord
  2
STANDARD
 70
         0
 40
0.0
 41
1.0
 50
0.0
 71
         0
 42
0.0
  3
txt
  4
bigfont
  0
ENDTAB
  0
TABLE
  2
VIEW
  5
5
100
AcDbSymbolTable
 70
         0
  0
ENDTAB
  0
TABLE
  2
UCS
  5
6
100
AcDbSymbolTable
 70
         0
  0
ENDTAB
  0
TABLE
  2
APPID
  5
8
100
AcDbSymbolTable
 70
         1
  0
APPID
  5
16
100
AcDbSymbolTableRecord
100
AcDbRegAppTableRecord
  2
ACAD
 70
         0
  0
ENDTAB
  0
TABLE
  2
DIMSTYLE
  5
9
100
AcDbSymbolTable
 70
         1
  0
DIMSTYLE
105
18
100
AcDbSymbolTableRecord
100
AcDbDimStyleTableRecord
  2
STANDARD
 70
         0
  3

  4

  5

  6

  7

 40
1.0
 41
0.18
 42
0.0625
 43
0.38
 44
0.18
 45
0.0
 46
0.0
 47
0.0
 48
0.0
 71
         0
 72
         0
 73
         1
 74
         1
 75
         0
 76
         0
 77
         0
 78
         0
140
0.18
141
0.09
142
0.0
143
25.4
144
1.0
145
0.0
146
1.0
147
0.09
170
         0
171
         2
172
         0
173
         0
174
         0
175
         0
176
         0
177
         0
178
         0
270
         2
271
         4
272
         4
273
         2
274
         2
275
         0
280
         0
281
         0
282
         0
283
         1
284
         0
285
         0
286
         0
287
         3
288
         0
340
17
  0
ENDTAB
  0
TABLE
  2
BLOCK_RECORD
  5
1
100
AcDbSymbolTable
 70
         0
  0
BLOCK_RECORD
  5
A
100
AcDbSymbolTableRecord
100
AcDbBlockTableRecord
  2
*MODEL_SPACE
  0
BLOCK_RECORD
  5
B
100
AcDbSymbolTableRecord
100
AcDbBlockTableRecord
  2
*PAPER_SPACE
  0
ENDTAB
  0
ENDSEC
  0
SECTION
  2
BLOCKS
  0
BLOCK
  5
D
100
AcDbEntity
  8
0
100
AcDbBlockBegin
  2
*MODEL_SPACE
 70
         0
 10
0.0
 20
0.0
 30
0.0
  3
*MODEL_SPACE
  1

  0
ENDBLK
  5
E
100
AcDbEntity
  8
0
100
AcDbBlockEnd
  0
BLOCK
  5
F
100
AcDbEntity
 67
         1
  8
0
100
AcDbBlockBegin
  2
*PAPER_SPACE
 70
         0
 10
0.0
 20
0.0
 30
0.0
  3
*PAPER_SPACE
  1

  0
ENDBLK
  5
10
100
AcDbEntity
 67
         1
  8
0
100
AcDbBlockEnd
  0
ENDSEC
  0
SECTION
  2
ENTITIES
  0
LINE
  5
24
100
AcDbEntity
  8
0
  6
CONTINUOUS
 62
         7
100
AcDbLine
 10
235.6112195122
 20
189.4142929568
 30
0.0
 11
235.6112195122
 21
189.4142929568
 31
0.0
  0
LINE
  5
25
100
AcDbEntity
  8
0
  6
CONTINUOUS
 62
         7
100
AcDbLine
 10
235.6112195122
 20
189.4142929568
 30
0.0
 11
235.6112195122
 21
189.6198938051
 31
0.0
  0
LINE
  5
26
100
AcDbEntity
  8
0
  6
CONTINUOUS
 62
         7
100
AcDbLine
 10
264.4112195122
 20
178.7142929568
 30
0.0
 11
264.8112195122
 21
178.7142929568
 31
0.0
  0
LINE
  5
27
100
AcDbEntity
  8
0
  6
CONTINUOUS
 62
         7
100
AcDbLine
 10
264.8112195122
 20
200.1142929568
 30
0.0
 11
264.4112195122
 21
200.1142929568
 31
0.0
  0
LINE
  5
28
100
AcDbEntity
  8
0
  6
CONTINUOUS
 62
         7
100
AcDbLine
 10
263.6112195122
 20
178.7142929568
 30
0.0
 11
264.0112195122
 21
178.7142929568
 31
0.0
  0
LINE
  5
29
100
AcDbEntity
  8
0
  6
CONTINUOUS
 62
         7
100
AcDbLine
 10
264.0112195122
 20
200.1142929568
 30
0.0
 11
263.6112195122
 21
200.1142929568
 31
0.0
  0
LINE
  5
2A
100
AcDbEntity
  8
0
  6
CONTINUOUS
 62
         7
100
AcDbLine
 10
356.6112195122
 20
178.7142929568
 30
0.0
 11
366.6112195122
 21
178.7142929568
 31
0.0
  0
LINE
  5
2B
100
AcDbEntity
  8
0
  6
CONTINUOUS
 62
         7
100
AcDbLine
 10
366.6112195122
 20
200.1142929568
 30
0.0
 11
356.6112195122
 21
200.1142929568
 31
0.0
  0
LINE
  5
2C
100
AcDbEntity
  8
0
  6
CONTINUOUS
 62
         7
100
AcDbLine
 10
265.2112195122
 20
178.7142929568
 30
0.0
 11
273.6112195122
 21
178.7142929568
 31
0.0
  0
LINE
  5
2D
100
AcDbEntity
  8
0
  6
CONTINUOUS
 62
         7
100
AcDbLine
 10
281.6112195122
 20
178.7142929568
 30
0.0
 11
321.6112195122
 21
178.7142929568
 31
0.0
  0
LINE
  5
2E
100
AcDbEntity
  8
0
  6
CONTINUOUS
 62
         7
100
AcDbLine
 10
329.6112195122
 20
178.7142929568
 30
0.0
 11
355.4112195122
 21
178.7142929568
 31
0.0
  0
LINE
  5
2F
100
AcDbEntity
  8
0
  6
CONTINUOUS
 62
         7
100
AcDbLine
 10
355.4112195122
 20
200.1142929568
 30
0.0
 11
329.6112195122
 21
200.1142929568
 31
0.0
  0
LINE
  5
30
100
AcDbEntity
  8
0
  6
CONTINUOUS
 62
         7
100
AcDbLine
 10
321.6112195122
 20
200.1142929568
 30
0.0
 11
288.6112195122
 21
200.1142929568
 31
0.0
  0
LINE
  5
31
100
AcDbEntity
  8
0
  6
CONTINUOUS
 62
         7
100
AcDbLine
 10
266.6112195122
 20
200.1142929568
 30
0.0
 11
265.2112195122
 21
200.1142929568
 31
0.0
  0
LINE
  5
32
100
AcDbEntity
  8
0
  6
CONTINUOUS
 62
         7
100
AcDbLine
 10
355.8112195122
 20
178.7142929568
 30
0.0
 11
356.2112195122
 21
178.7142929568
 31
0.0
  0
LINE
  5
33
100
AcDbEntity
  8
0
  6
CONTINUOUS
 62
         7
100
AcDbLine
 10
356.2112195122
 20
200.1142929568
 30
0.0
 11
355.8112195122
 21
200.1142929568
 31
0.0
  0
LINE
  5
34
100
AcDbEntity
  8
0
  6
CONTINUOUS
 62
         7
100
AcDbLine
 10
264.8112195122
 20
179.1142929568
 30
0.0
 11
265.2112195122
 21
179.1142929568
 31
0.0
  0
LINE
  5
35
100
AcDbEntity
  8
0
  6
CONTINUOUS
 62
         7
100
AcDbLine
 10
265.2112195122
 20
199.7142929568
 30
0.0
 11
264.8112195122
 21
199.7142929568
 31
0.0
  0
LINE
  5
36
100
AcDbEntity
  8
0
  6
CONTINUOUS
 62
         7
100
AcDbLine
 10
264.0112195122
 20
179.1142929568
 30
0.0
 11
264.4112195122
 21
179.1142929568
 31
0.0
  0
LINE
  5
37
100
AcDbEntity
  8
0
  6
CONTINUOUS
 62
         7
100
AcDbLine
 10
264.4112195122
 20
199.7142929568
 30
0.0
 11
264.0112195122
 21
199.7142929568
 31
0.0
  0
LINE
  5
38
100
AcDbEntity
  8
0
  6
CONTINUOUS
 62
         7
100
AcDbLine
 10
355.4112195122
 20
179.1142929568
 30
0.0
 11
355.8112195122
 21
179.1142929568
 31
0.0
  0
LINE
  5
39
100
AcDbEntity
  8
0
  6
CONTINUOUS
 62
         7
100
AcDbLine
 10
355.8112195122
 20
199.7142929568
 30
0.0
 11
355.4112195122
 21
199.7142929568
 31
0.0
  0
LINE
  5
3A
100
AcDbEntity
  8
0
  6
CONTINUOUS
 62
         7
100
AcDbLine
 10
356.2112195122
 20
179.1142929568
 30
0.0
 11
356.6112195122
 21
179.1142929568
 31
0.0
  0
LINE
  5
3B
100
AcDbEntity
  8
0
  6
CONTINUOUS
 62
         7
100
AcDbLine
 10
356.6112195122
 20
199.7142929568
 30
0.0
 11
356.2112195122
 21
199.7142929568
 31
0.0
  0
LINE
  5
3C
100
AcDbEntity
  8
0
  6
CONTINUOUS
 62
         7
100
AcDbLine
 10
235.6112195122
 20
193.4142929568
 30
0.0
 11
227.7112195122
 21
193.4142929568
 31
0.0
  0
LINE
  5
3D
100
AcDbEntity
  8
0
  6
CONTINUOUS
 62
         7
100
AcDbLine
 10
227.7112195122
 20
185.4142929568
 30
0.0
 11
235.6112195122
 21
185.4142929568
 31
0.0
  0
LINE
  5
3E
100
AcDbEntity
  8
0
  6
CONTINUOUS
 62
         7
100
AcDbLine
 10
227.6112195122
 20
193.4142929568
 30
0.0
 11
222.6112195122
 21
193.4142929568
 31
0.0
  0
LINE
  5
3F
100
AcDbEntity
  8
0
  6
CONTINUOUS
 62
         7
100
AcDbLine
 10
217.6112195122
 20
193.4142929568
 30
0.0
 11
213.1112195122
 21
193.4142929568
 31
0.0
  0
LINE
  5
40
100
AcDbEntity
  8
0
  6
CONTINUOUS
 62
         7
100
AcDbLine
 10
213.1112195122
 20
185.4142929568
 30
0.0
 11
217.6112195122
 21
185.4142929568
 31
0.0
  0
LINE
  5
41
100
AcDbEntity
  8
0
  6
CONTINUOUS
 62
         7
100
AcDbLine
 10
222.6112195122
 20
185.4142929568
 30
0.0
 11
227.6112195122
 21
185.4142929568
 31
0.0
  0
LINE
  5
42
100
AcDbEntity
  8
0
  6
CONTINUOUS
 62
         7
100
AcDbLine
 10
213.1112195122
 20
193.4142929568
 30
0.0
 11
212.6112195122
 21
192.9142929568
 31
0.0
  0
LINE
  5
43
100
AcDbEntity
  8
0
  6
CONTINUOUS
 62
         7
100
AcDbLine
 10
212.6112195122
 20
185.9142929568
 30
0.0
 11
213.1112195122
 21
185.4142929568
 31
0.0
  0
LINE
  5
44
100
AcDbEntity
  8
0
  6
CONTINUOUS
 62
         7
100
AcDbLine
 10
222.6112195122
 20
195.842496187
 30
0.0
 11
222.1112195122
 21
196.342496187
 31
0.0
  0
LINE
  5
45
100
AcDbEntity
  8
0
  6
CONTINUOUS
 62
         7
100
AcDbLine
 10
218.1112195122
 20
196.342496187
 30
0.0
 11
217.6112195122
 21
195.842496187
 31
0.0
  0
LINE
  5
46
100
AcDbEntity
  8
0
  6
CONTINUOUS
 62
         7
100
AcDbLine
 10
222.1112195122
 20
182.4860897265
 30
0.0
 11
222.6112195122
 21
182.9860897265
 31
0.0
  0
LINE
  5
47
100
AcDbEntity
  8
0
  6
CONTINUOUS
 62
         7
100
AcDbLine
 10
217.6112195122
 20
182.9860897265
 30
0.0
 11
218.1112195122
 21
182.4860897265
 31
0.0
  0
LINE
  5
48
100
AcDbEntity
  8
0
  6
CONTINUOUS
 62
         7
100
AcDbLine
 10
273.6112195122
 20
178.2142929568
 30
0.0
 11
281.6112195122
 21
178.2142929568
 31
0.0
  0
ARC
  5
49
100
AcDbEntity
  8
0
  6
CONTINUOUS
 62
         7
100
AcDbCircle
 10
288.3112195122
 20
200.0650847836
 30
0.0
 40
0.3
100
AcDbArc
 50
270.0
 51
0.0
  0
ARC
  5
4A
100
AcDbEntity
  8
0
  6
CONTINUOUS
 62
         7
100
AcDbCircle
 10
266.9112195122
 20
200.0650847836
 30
0.0
 40
0.3
100
AcDbArc
 50
180.0
 51
270.0
  0
LINE
  5
4B
100
AcDbEntity
  8
0
  6
CONTINUOUS
 62
         7
100
AcDbLine
 10
266.9112195122
 20
199.7650847836
 30
0.0
 11
273.6112195122
 21
199.7650847836
 31
0.0
  0
LINE
  5
4C
100
AcDbEntity
  8
0
  6
CONTINUOUS
 62
         7
100
AcDbLine
 10
281.6112195122
 20
199.7650847836
 30
0.0
 11
288.3112195122
 21
199.7650847836
 31
0.0
  0
ARC
  5
4D
100
AcDbEntity
  8
0
  6
CONTINUOUS
 62
         7
100
AcDbCircle
 10
275.3112195122
 20
207.9142929568
 30
0.0
 40
0.2
100
AcDbArc
 50
90.0
 51
180.0
  0
LINE
  5
4E
100
AcDbEntity
  8
0
  6
CONTINUOUS
 62
         7
100
AcDbLine
 10
280.1112195122
 20
207.1142929568
 30
0.0
 11
280.1112195122
 21
207.9142929568
 31
0.0
  0
LINE
  5
4F
100
AcDbEntity
  8
0
  6
CONTINUOUS
 62
         7
100
AcDbLine
 10
275.1112195122
 20
207.9142929568
 30
0.0
 11
275.1112195122
 21
207.1142929568
 31
0.0
  0
ARC
  5
50
100
AcDbEntity
  8
0
  6
CONTINUOUS
 62
         7
100
AcDbCircle
 10
268.7599000441
 20
207.0818301552
 30
0.0
 40
0.4
100
AcDbArc
 50
117.6437345335
 51
175.3449265487
  0
ARC
  5
51
100
AcDbEntity
  8
0
  6
CONTINUOUS
 62
         7
100
AcDbCircle
 10
271.4625389803
 20
207.0818301552
 30
0.0
 40
0.4
100
AcDbArc
 50
4.6550734513
 51
62.3562654665
  0
LINE
  5
52
100
AcDbEntity
  8
0
  6
CONTINUOUS
 62
         7
100
AcDbLine
 10
288.6112195122
 20
202.4142929568
 30
0.0
 11
289.6112195122
 21
202.4142929568
 31
0.0
  0
LINE
  5
53
100
AcDbEntity
  8
0
  6
CONTINUOUS
 62
         7
100
AcDbLine
 10
289.6112195122
 20
205.8142929568
 30
0.0
 11
288.6112195122
 21
205.8142929568
 31
0.0
  0
LINE
  5
54
100
AcDbEntity
  8
0
  6
CONTINUOUS
 62
         7
100
AcDbLine
 10
289.6112195122
 20
202.4142929568
 30
0.0
 11
294.6112195122
 21
202.4142929568
 31
0.0
  0
LINE
  5
55
100
AcDbEntity
  8
0
  6
CONTINUOUS
 62
         7
100
AcDbLine
 10
294.6112195122
 20
205.8142929568
 30
0.0
 11
289.6112195122
 21
205.8142929568
 31
0.0
  0
ARC
  5
56
100
AcDbEntity
  8
0
  6
CONTINUOUS
 62
         7
100
AcDbCircle
 10
270.1112195122
 20
204.5017929568
 30
0.0
 40
3.3125
100
AcDbArc
 50
62.3562654665
 51
117.6437345335
  0
ARC
  5
57
100
AcDbEntity
  8
0
  6
CONTINUOUS
 62
         7
100
AcDbCircle
 10
279.9112195122
 20
207.9142929568
 30
0.0
 40
0.2
100
AcDbArc
 50
0.0
 51
90.0
  0
LINE
  5
58
100
AcDbEntity
  8
0
  6
CONTINUOUS
 62
         7
100
AcDbLine
 10
329.6112195122
 20
200.6142929568
 30
0.0
 11
321.6112195122
 21
200.6142929568
 31
0.0
  0
LINE
  5
59
100
AcDbEntity
  8
0
  6
CONTINUOUS
 62
         7
100
AcDbLine
 10
321.6112195122
 20
178.2142929568
 30
0.0
 11
329.6112195122
 21
178.2142929568
 31
0.0
  0
ARC
  5
5A
100
AcDbEntity
  8
0
  6
CONTINUOUS
 62
         7
100
AcDbCircle
 10
337.7595601853
 20
193.8172055039
 30
0.0
 40
7.692987465
100
AcDbArc
 50
54.9398090842
 51
91.1048791284
  0
LINE
  5
5B
100
AcDbEntity
  8
0
  6
CONTINUOUS
 62
         7
100
AcDbLine
 10
337.6112195122
 20
201.5087626402
 30
0.0
 11
336.6112195122
 21
201.5087626402
 31
0.0
  0
ARC
  5
5C
100
AcDbEntity
  8
0
  6
CONTINUOUS
 62
         7
100
AcDbCircle
 10
336.3112195122
 20
203.9806926492
 30
0.0
 40
0.3
100
AcDbArc
 50
0.0
 51
90.0
  0
ARC
  5
5D
100
AcDbEntity
  8
0
  6
CONTINUOUS
 62
         7
100
AcDbCircle
 10
314.9112195122
 20
203.9806926492
 30
0.0
 40
0.3
100
AcDbArc
 50
90.0
 51
180.0
  0
LINE
  5
5E
100
AcDbEntity
  8
0
  6
CONTINUOUS
 62
         7
100
AcDbLine
 10
336.3112195122
 20
204.2806926492
 30
0.0
 11
330.6112195122
 21
204.2806926492
 31
0.0
  0
LINE
  5
5F
100
AcDbEntity
  8
0
  6
CONTINUOUS
 62
         7
100
AcDbLine
 10
320.6112195122
 20
204.2806926492
 30
0.0
 11
314.9112195122
 21
204.2806926492
 31
0.0
  0
LINE
  5
60
100
AcDbEntity
  8
0
  6
CONTINUOUS
 62
         7
100
AcDbLine
 10
235.6112195122
 20
203.4142929568
 30
0.0
 11
263.6112195122
 21
203.4142929568
 31
0.0
  0
LINE
  5
61
100
AcDbEntity
  8
0
  6
CONTINUOUS
 62
         7
100
AcDbLine
 10
263.6112195122
 20
201.9142929568
 30
0.0
 11
235.6112195122
 21
201.9142929568
 31
0.0
  0
LINE
  5
62
100
AcDbEntity
  8
0
  6
CONTINUOUS
 62
         7
100
AcDbLine
 10
235.6112195122
 20
201.9142929568
 30
0.0
 11
235.6112195122
 21
203.4142929568
 31
0.0
  0
LINE
  5
63
100
AcDbEntity
  8
0
  6
CONTINUOUS
 62
         7
100
AcDbLine
 10
263.6112195122
 20
203.4142929568
 30
0.0
 11
263.6112195122
 21
201.9142929568
 31
0.0
  0
LINE
  5
64
100
AcDbEntity
  8
0
  6
CONTINUOUS
 62
         7
100
AcDbLine
 10
235.6112195122
 20
176.9142929568
 30
0.0
 11
263.6112195122
 21
176.9142929568
 31
0.0
  0
LINE
  5
65
100
AcDbEntity
  8
0
  6
CONTINUOUS
 62
         7
100
AcDbLine
 10
263.6112195122
 20
175.4142929568
 30
0.0
 11
235.6112195122
 21
175.4142929568
 31
0.0
  0
LINE
  5
66
100
AcDbEntity
  8
0
  6
CONTINUOUS
 62
         7
100
AcDbLine
 10
235.6112195122
 20
175.4142929568
 30
0.0
 11
235.6112195122
 21
176.9142929568
 31
0.0
  0
LINE
  5
67
100
AcDbEntity
  8
0
  6
CONTINUOUS
 62
         7
100
AcDbLine
 10
263.6112195122
 20
176.9142929568
 30
0.0
 11
263.6112195122
 21
175.4142929568
 31
0.0
  0
CIRCLE
  5
68
100
AcDbEntity
  8
0
  6
CONTINUOUS
 62
         7
100
AcDbCircle
 10
255.6112195122
 20
189.4142929568
 30
0.0
 40
4.35
  0
CIRCLE
  5
69
100
AcDbEntity
  8
0
  6
CONTINUOUS
 62
         7
100
AcDbCircle
 10
255.6112195122
 20
189.4142929568
 30
0.0
 40
4.85
  0
LINE
  5
6A
100
AcDbEntity
  8
0
  6
CONTINUOUS
 62
         7
100
AcDbLine
 10
235.6112195122
 20
201.9142929568
 30
0.0
 11
235.6112195122
 21
176.9142929568
 31
0.0
  0
LINE
  5
6B
100
AcDbEntity
  8
0
  6
CONTINUOUS
 62
         7
100
AcDbLine
 10
263.6112195122
 20
201.9142929568
 30
0.0
 11
263.6112195122
 21
176.9142929568
 31
0.0
  0
LINE
  5
6C
100
AcDbEntity
  8
0
  6
CONTINUOUS
 62
         7
100
AcDbLine
 10
264.8112195122
 20
178.7142929568
 30
0.0
 11
264.8112195122
 21
200.1142929568
 31
0.0
  0
LINE
  5
6D
100
AcDbEntity
  8
0
  6
CONTINUOUS
 62
         7
100
AcDbLine
 10
264.4112195122
 20
178.7142929568
 30
0.0
 11
264.4112195122
 21
200.1142929568
 31
0.0
  0
LINE
  5
6E
100
AcDbEntity
  8
0
  6
CONTINUOUS
 62
         7
100
AcDbLine
 10
264.0112195122
 20
178.7142929568
 30
0.0
 11
264.0112195122
 21
200.1142929568
 31
0.0
  0
LINE
  5
6F
100
AcDbEntity
  8
0
  6
CONTINUOUS
 62
         7
100
AcDbLine
 10
361.6112195122
 20
195.9135236805
 30
0.0
 11
366.6112195122
 21
195.9135236805
 31
0.0
  0
LINE
  5
70
100
AcDbEntity
  8
0
  6
CONTINUOUS
 62
         7
100
AcDbLine
 10
361.6112195122
 20
182.915062233
 30
0.0
 11
366.6112195122
 21
182.915062233
 31
0.0
  0
LINE
  5
71
100
AcDbEntity
  8
0
  6
CONTINUOUS
 62
         7
100
AcDbLine
 10
366.6112195122
 20
178.7142929568
 30
0.0
 11
366.6112195122
 21
182.915062233
 31
0.0
  0
LINE
  5
72
100
AcDbEntity
  8
0
  6
CONTINUOUS
 62
         7
100
AcDbLine
 10
366.6112195122
 20
195.9135236805
 30
0.0
 11
366.6112195122
 21
200.1142929568
 31
0.0
  0
LINE
  5
73
100
AcDbEntity
  8
0
  6
CONTINUOUS
 62
         7
100
AcDbLine
 10
361.6112195122
 20
195.9135236805
 30
0.0
 11
361.6112195122
 21
182.915062233
 31
0.0
  0
LINE
  5
74
100
AcDbEntity
  8
0
  6
CONTINUOUS
 62
         7
100
AcDbLine
 10
356.6112195122
 20
178.7142929568
 30
0.0
 11
356.6112195122
 21
200.1142929568
 31
0.0
  0
LINE
  5
75
100
AcDbEntity
  8
0
  6
CONTINUOUS
 62
         7
100
AcDbLine
 10
355.4112195122
 20
178.7142929568
 30
0.0
 11
355.4112195122
 21
200.1142929568
 31
0.0
  0
LINE
  5
76
100
AcDbEntity
  8
0
  6
CONTINUOUS
 62
         7
100
AcDbLine
 10
265.2112195122
 20
178.7142929568
 30
0.0
 11
265.2112195122
 21
200.1142929568
 31
0.0
  0
LINE
  5
77
100
AcDbEntity
  8
0
  6
CONTINUOUS
 62
         7
100
AcDbLine
 10
356.2112195122
 20
178.7142929568
 30
0.0
 11
356.2112195122
 21
200.1142929568
 31
0.0
  0
LINE
  5
78
100
AcDbEntity
  8
0
  6
CONTINUOUS
 62
         7
100
AcDbLine
 10
355.8112195122
 20
178.7142929568
 30
0.0
 11
355.8112195122
 21
200.1142929568
 31
0.0
  0
LINE
  5
79
100
AcDbEntity
  8
0
  6
CONTINUOUS
 62
         7
100
AcDbLine
 10
366.6112195122
 20
182.915062233
 30
0.0
 11
366.6112195122
 21
195.9135236805
 31
0.0
  0
LINE
  5
7A
100
AcDbEntity
  8
0
  6
CONTINUOUS
 62
         7
100
AcDbLine
 10
227.7112195122
 20
185.4855066724
 30
0.0
 11
227.7112195122
 21
185.4142929568
 31
0.0
  0
LINE
  5
7B
100
AcDbEntity
  8
0
  6
CONTINUOUS
 62
         7
100
AcDbLine
 10
227.7112195122
 20
193.4142929568
 30
0.0
 11
227.7112195122
 21
185.4855066724
 31
0.0
  0
LINE
  5
7C
100
AcDbEntity
  8
0
  6
CONTINUOUS
 62
         7
100
AcDbLine
 10
227.6112195122
 20
185.4855066724
 30
0.0
 11
227.6112195122
 21
185.4142929568
 31
0.0
  0
LINE
  5
7D
100
AcDbEntity
  8
0
  6
CONTINUOUS
 62
         7
100
AcDbLine
 10
227.6112195122
 20
193.4142929568
 30
0.0
 11
227.6112195122
 21
185.4855066724
 31
0.0
  0
LINE
  5
7E
100
AcDbEntity
  8
0
  6
CONTINUOUS
 62
         7
100
AcDbLine
 10
213.1112195122
 20
193.4142929568
 30
0.0
 11
213.1112195122
 21
185.4142929568
 31
0.0
  0
LINE
  5
7F
100
AcDbEntity
  8
0
  6
CONTINUOUS
 62
         7
100
AcDbLine
 10
212.6112195122
 20
185.9142929568
 30
0.0
 11
212.6112195122
 21
192.9142929568
 31
0.0
  0
LINE
  5
80
100
AcDbEntity
  8
0
  6
CONTINUOUS
 62
         7
100
AcDbLine
 10
218.1112195122
 20
196.342496187
 30
0.0
 11
217.6112195122
 21
195.7638963721
 31
0.0
  0
LINE
  5
81
100
AcDbEntity
  8
0
  6
CONTINUOUS
 62
         7
100
AcDbLine
 10
218.1112195122
 20
196.342496187
 30
0.0
 11
222.1112195122
 21
196.342496187
 31
0.0
  0
LINE
  5
82
100
AcDbEntity
  8
0
  6
CONTINUOUS
 62
         7
100
AcDbLine
 10
222.6112195122
 20
195.7638963721
 30
0.0
 11
222.1112195122
 21
196.342496187
 31
0.0
  0
LINE
  5
83
100
AcDbEntity
  8
0
  6
CONTINUOUS
 62
         7
100
AcDbLine
 10
222.6112195122
 20
195.7638963721
 30
0.0
 11
222.6112195122
 21
193.4569943868
 31
0.0
  0
LINE
  5
84
100
AcDbEntity
  8
0
  6
CONTINUOUS
 62
         7
100
AcDbLine
 10
222.1112195122
 20
192.8783945719
 30
0.0
 11
222.6112195122
 21
193.4569943868
 31
0.0
  0
LINE
  5
85
100
AcDbEntity
  8
0
  6
CONTINUOUS
 62
         7
100
AcDbLine
 10
218.1112195122
 20
192.8783945719
 30
0.0
 11
222.1112195122
 21
192.8783945719
 31
0.0
  0
LINE
  5
86
100
AcDbEntity
  8
0
  6
CONTINUOUS
 62
         7
100
AcDbLine
 10
217.6112195122
 20
193.4569943868
 30
0.0
 11
218.1112195122
 21
192.8783945719
 31
0.0
  0
LINE
  5
87
100
AcDbEntity
  8
0
  6
CONTINUOUS
 62
         7
100
AcDbLine
 10
217.6112195122
 20
195.7638963721
 30
0.0
 11
217.6112195122
 21
193.4569943868
 31
0.0
  0
LINE
  5
88
100
AcDbEntity
  8
0
  6
CONTINUOUS
 62
         7
100
AcDbLine
 10
218.1112195122
 20
192.8783945719
 30
0.0
 11
217.6112195122
 21
191.721194942
 31
0.0
  0
LINE
  5
89
100
AcDbEntity
  8
0
  6
CONTINUOUS
 62
         7
100
AcDbLine
 10
217.6112195122
 20
193.4569943868
 30
0.0
 11
217.6112195122
 21
191.721194942
 31
0.0
  0
LINE
  5
8A
100
AcDbEntity
  8
0
  6
CONTINUOUS
 62
         7
100
AcDbLine
 10
222.6112195122
 20
191.721194942
 30
0.0
 11
222.1112195122
 21
192.8783945719
 31
0.0
  0
LINE
  5
8B
100
AcDbEntity
  8
0
  6
CONTINUOUS
 62
         7
100
AcDbLine
 10
222.6112195122
 20
193.4569943868
 30
0.0
 11
222.6112195122
 21
191.721194942
 31
0.0
  0
POLYLINE
  5
8C
100
AcDbEntity
  8
0
  6
CONTINUOUS
 62
         7
100
AcDb2dPolyline
 66
         1
 10
0.0
 20
0.0
 30
0.0
 70
       128
  0
VERTEX
  5
8D
100
AcDbEntity
  8
0
100
AcDbVertex
100
AcDb2dVertex
 10
222.1112195122
 20
185.9501913416
 30
0.0
  0
VERTEX
  5
8E
100
AcDbEntity
  8
0
100
AcDbVertex
100
AcDb2dVertex
 10
222.4818755813
 20
186.768272403
 30
0.0
  0
VERTEX
  5
8F
100
AcDbEntity
  8
0
100
AcDbVertex
100
AcDb2dVertex
 10
222.6112195122
 20
187.1073909715
 30
0.0
  0
SEQEND
  5
90
100
AcDbEntity
  8
0
  0
LINE
  5
91
100
AcDbEntity
  8
0
  6
CONTINUOUS
 62
         7
100
AcDbLine
 10
218.1112195122
 20
185.9501913416
 30
0.0
 11
222.1112195122
 21
185.9501913416
 31
0.0
  0
POLYLINE
  5
92
100
AcDbEntity
  8
0
  6
CONTINUOUS
 62
         7
100
AcDb2dPolyline
 66
         1
 10
0.0
 20
0.0
 30
0.0
 70
       128
  0
VERTEX
  5
93
100
AcDbEntity
  8
0
100
AcDbVertex
100
AcDb2dVertex
 10
217.6112195122
 20
187.1073909715
 30
0.0
  0
VERTEX
  5
94
100
AcDbEntity
  8
0
100
AcDbVertex
100
AcDb2dVertex
 10
217.7405634431
 20
186.768272403
 30
0.0
  0
VERTEX
  5
95
100
AcDbEntity
  8
0
100
AcDbVertex
100
AcDb2dVertex
 10
218.1112195122
 20
185.9501913416
 30
0.0
  0
SEQEND
  5
96
100
AcDbEntity
  8
0
  0
LINE
  5
97
100
AcDbEntity
  8
0
  6
CONTINUOUS
 62
         7
100
AcDbLine
 10
222.6112195122
 20
191.721194942
 30
0.0
 11
222.6112195122
 21
187.1073909715
 31
0.0
  0
LINE
  5
98
100
AcDbEntity
  8
0
  6
CONTINUOUS
 62
         7
100
AcDbLine
 10
217.6112195122
 20
191.721194942
 30
0.0
 11
217.6112195122
 21
187.1073909715
 31
0.0
  0
LINE
  5
99
100
AcDbEntity
  8
0
  6
CONTINUOUS
 62
         7
100
AcDbLine
 10
222.6112195122
 20
185.3715915267
 30
0.0
 11
222.1112195122
 21
185.9501913416
 31
0.0
  0
LINE
  5
9A
100
AcDbEntity
  8
0
  6
CONTINUOUS
 62
         7
100
AcDbLine
 10
222.6112195122
 20
187.1073909715
 30
0.0
 11
222.6112195122
 21
185.3715915267
 31
0.0
  0
LINE
  5
9B
100
AcDbEntity
  8
0
  6
CONTINUOUS
 62
         7
100
AcDbLine
 10
218.1112195122
 20
185.9501913416
 30
0.0
 11
217.6112195122
 21
185.3715915267
 31
0.0
  0
LINE
  5
9C
100
AcDbEntity
  8
0
  6
CONTINUOUS
 62
         7
100
AcDbLine
 10
217.6112195122
 20
187.1073909715
 30
0.0
 11
217.6112195122
 21
185.3715915267
 31
0.0
  0
LINE
  5
9D
100
AcDbEntity
  8
0
  6
CONTINUOUS
 62
         7
100
AcDbLine
 10
222.1112195122
 20
182.4860897265
 30
0.0
 11
222.6112195122
 21
183.0646895414
 31
0.0
  0
LINE
  5
9E
100
AcDbEntity
  8
0
  6
CONTINUOUS
 62
         7
100
AcDbLine
 10
218.1112195122
 20
182.4860897265
 30
0.0
 11
222.1112195122
 21
182.4860897265
 31
0.0
  0
LINE
  5
9F
100
AcDbEntity
  8
0
  6
CONTINUOUS
 62
         7
100
AcDbLine
 10
217.6112195122
 20
183.0646895414
 30
0.0
 11
218.1112195122
 21
182.4860897265
 31
0.0
  0
LINE
  5
A0
100
AcDbEntity
  8
0
  6
CONTINUOUS
 62
         7
100
AcDbLine
 10
222.6112195122
 20
185.3715915267
 30
0.0
 11
222.6112195122
 21
183.0646895414
 31
0.0
  0
LINE
  5
A1
100
AcDbEntity
  8
0
  6
CONTINUOUS
 62
         7
100
AcDbLine
 10
217.6112195122
 20
185.3715915267
 30
0.0
 11
217.6112195122
 21
183.0646895414
 31
0.0
  0
LINE
  5
A2
100
AcDbEntity
  8
0
  6
CONTINUOUS
 62
         7
100
AcDbLine
 10
222.6112195122
 20
195.842496187
 30
0.0
 11
222.6112195122
 21
195.7638963721
 31
0.0
  0
LINE
  5
A3
100
AcDbEntity
  8
0
  6
CONTINUOUS
 62
         7
100
AcDbLine
 10
217.6112195122
 20
195.842496187
 30
0.0
 11
217.6112195122
 21
195.7638963721
 31
0.0
  0
LINE
  5
A4
100
AcDbEntity
  8
0
  6
CONTINUOUS
 62
         7
100
AcDbLine
 10
222.6112195122
 20
183.0646895414
 30
0.0
 11
222.6112195122
 21
182.9860897265
 31
0.0
  0
LINE
  5
A5
100
AcDbEntity
  8
0
  6
CONTINUOUS
 62
         7
100
AcDbLine
 10
217.6112195122
 20
183.0646895414
 30
0.0
 11
217.6112195122
 21
182.9860897265
 31
0.0
  0
LINE
  5
A6
100
AcDbEntity
  8
0
  6
CONTINUOUS
 62
         7
100
AcDbLine
 10
273.6112195122
 20
178.2142929568
 30
0.0
 11
273.6112195122
 21
199.5095235607
 31
0.0
  0
LINE
  5
A7
100
AcDbEntity
  8
0
  6
CONTINUOUS
 62
         7
100
AcDbLine
 10
281.6112195122
 20
178.2142929568
 30
0.0
 11
281.6112195122
 21
199.5095235607
 31
0.0
  0
LINE
  5
A8
100
AcDbEntity
  8
0
  6
CONTINUOUS
 62
         7
100
AcDbLine
 10
273.6112195122
 20
199.5095235607
 30
0.0
 11
273.6112195122
 21
200.8615633738
 31
0.0
  0
LINE
  5
A9
100
AcDbEntity
  8
0
  6
CONTINUOUS
 62
         7
100
AcDbLine
 10
281.6112195122
 20
199.5095235607
 30
0.0
 11
281.6112195122
 21
200.8615633738
 31
0.0
  0
LINE
  5
AA
100
AcDbEntity
  8
0
  6
CONTINUOUS
 62
         7
100
AcDbLine
 10
273.6112195122
 20
207.1142929568
 30
0.0
 11
281.6112195122
 21
207.1142929568
 31
0.0
  0
LINE
  5
AB
100
AcDbEntity
  8
0
  6
CONTINUOUS
 62
         7
100
AcDbLine
 10
273.6112195122
 20
200.8615633738
 30
0.0
 11
273.6112195122
 21
207.1142929568
 31
0.0
  0
LINE
  5
AC
100
AcDbEntity
  8
0
  6
CONTINUOUS
 62
         7
100
AcDbLine
 10
281.6112195122
 20
200.8615633738
 30
0.0
 11
281.6112195122
 21
207.1142929568
 31
0.0
  0
LINE
  5
AD
100
AcDbEntity
  8
0
  6
CONTINUOUS
 62
         7
100
AcDbLine
 10
288.6112195122
 20
200.4650847836
 30
0.0
 11
288.6112195122
 21
200.0650847836
 31
0.0
  0
LINE
  5
AE
100
AcDbEntity
  8
0
  6
CONTINUOUS
 62
         7
100
AcDbLine
 10
288.6112195122
 20
206.8142929568
 30
0.0
 11
288.6112195122
 21
200.4650847836
 31
0.0
  0
LINE
  5
AF
100
AcDbEntity
  8
0
  6
CONTINUOUS
 62
         7
100
AcDbLine
 10
266.6112195122
 20
200.0650847836
 30
0.0
 11
266.6112195122
 21
200.4650847836
 31
0.0
  0
LINE
  5
B0
100
AcDbEntity
  8
0
  6
CONTINUOUS
 62
         7
100
AcDbLine
 10
266.6112195122
 20
200.4650847836
 30
0.0
 11
266.6112195122
 21
206.8142929568
 31
0.0
  0
LINE
  5
B1
100
AcDbEntity
  8
0
  6
CONTINUOUS
 62
         7
100
AcDbLine
 10
272.6112195122
 20
207.1142929568
 30
0.0
 11
266.9112195122
 21
207.1142929568
 31
0.0
  0
LINE
  5
B2
100
AcDbEntity
  8
0
  6
CONTINUOUS
 62
         7
100
AcDbLine
 10
272.6112195122
 20
207.1142929568
 30
0.0
 11
272.6112195122
 21
206.8142929568
 31
0.0
  0
LINE
  5
B3
100
AcDbEntity
  8
0
  6
CONTINUOUS
 62
         7
100
AcDbLine
 10
288.3112195122
 20
207.1142929568
 30
0.0
 11
282.6112195122
 21
207.1142929568
 31
0.0
  0
LINE
  5
B4
100
AcDbEntity
  8
0
  6
CONTINUOUS
 62
         7
100
AcDbLine
 10
282.6112195122
 20
206.8142929568
 30
0.0
 11
282.6112195122
 21
207.1142929568
 31
0.0
  0
LINE
  5
B5
100
AcDbEntity
  8
0
  6
CONTINUOUS
 62
         7
100
AcDbLine
 10
281.6112195122
 20
206.6142929568
 30
0.0
 11
282.6112195122
 21
206.6142929568
 31
0.0
  0
LINE
  5
B6
100
AcDbEntity
  8
0
  6
CONTINUOUS
 62
         7
100
AcDbLine
 10
272.6112195122
 20
206.6142929568
 30
0.0
 11
273.6112195122
 21
206.6142929568
 31
0.0
  0
LINE
  5
B7
100
AcDbEntity
  8
0
  6
CONTINUOUS
 62
         7
100
AcDbLine
 10
272.6112195122
 20
206.6142929568
 30
0.0
 11
272.6112195122
 21
206.8142929568
 31
0.0
  0
LINE
  5
B8
100
AcDbEntity
  8
0
  6
CONTINUOUS
 62
         7
100
AcDbLine
 10
282.6112195122
 20
206.6142929568
 30
0.0
 11
282.6112195122
 21
206.8142929568
 31
0.0
  0
ARC
  5
B9
100
AcDbEntity
  8
0
  6
CONTINUOUS
 62
         7
100
AcDbCircle
 10
288.3112195122
 20
206.8142929568
 30
0.0
 40
0.3
100
AcDbArc
 50
0.0
 51
90.0
  0
ARC
  5
BA
100
AcDbEntity
  8
0
  6
CONTINUOUS
 62
         7
100
AcDbCircle
 10
266.9112195122
 20
206.8142929568
 30
0.0
 40
0.3
100
AcDbArc
 50
90.0
 51
180.0
  0
LINE
  5
BB
100
AcDbEntity
  8
0
  6
CONTINUOUS
 62
         7
100
AcDbLine
 10
266.6112195122
 20
200.1142929568
 30
0.0
 11
266.6112195122
 21
200.4142929568
 31
0.0
  0
LINE
  5
BC
100
AcDbEntity
  8
0
  6
CONTINUOUS
 62
         7
100
AcDbLine
 10
288.6112195122
 20
200.4142929568
 30
0.0
 11
288.6112195122
 21
200.1142929568
 31
0.0
  0
LINE
  5
BD
100
AcDbEntity
  8
0
  6
CONTINUOUS
 62
         7
100
AcDbLine
 10
275.3112195122
 20
208.1142929568
 30
0.0
 11
278.8451169082
 21
208.1142929568
 31
0.0
  0
ARC
  5
BE
100
AcDbEntity
  8
0
  6
CONTINUOUS
 62
         7
100
AcDbCircle
 10
278.812129717
 20
207.9381702989
 30
0.0
 40
0.1791852265
100
AcDbArc
 50
352.3422681222
 51
79.3915982002
  0
LINE
  5
BF
100
AcDbEntity
  8
0
  6
CONTINUOUS
 62
         7
100
AcDbLine
 10
278.9897169292
 20
207.6142929568
 30
0.0
 11
278.9897169292
 21
207.9142929568
 31
0.0
  0
LINE
  5
C0
100
AcDbEntity
  8
0
  6
CONTINUOUS
 62
         7
100
AcDbLine
 10
278.9897169292
 20
207.6142929568
 30
0.0
 11
279.6968237104
 21
207.6142929568
 31
0.0
  0
LINE
  5
C1
100
AcDbEntity
  8
0
  6
CONTINUOUS
 62
         7
100
AcDbLine
 10
279.6968237104
 20
207.6142929568
 30
0.0
 11
279.6968237104
 21
207.9142929568
 31
0.0
  0
ARC
  5
C2
100
AcDbEntity
  8
0
  6
CONTINUOUS
 62
         7
100
AcDbCircle
 10
294.6112195122
 20
204.1142929568
 30
0.0
 40
1.7
100
AcDbArc
 50
270.0
 51
90.0
  0
LINE
  5
C3
100
AcDbEntity
  8
0
  6
CONTINUOUS
 62
         7
100
AcDbLine
 10
279.5522236894
 20
208.1142929568
 30
0.0
 11
278.8451169082
 21
208.1142929568
 31
0.0
  0
ARC
  5
C4
100
AcDbEntity
  8
0
  6
CONTINUOUS
 62
         7
100
AcDbCircle
 10
279.5289311051
 20
207.9451795007
 30
0.0
 40
0.1707100041
100
AcDbArc
 50
349.5760714869
 51
82.1577948574
  0
LINE
  5
C5
100
AcDbEntity
  8
0
  6
CONTINUOUS
 62
         7
100
AcDbLine
 10
279.5522236894
 20
208.1142929568
 30
0.0
 11
279.9112195122
 21
208.1142929568
 31
0.0
  0
LINE
  5
C6
100
AcDbEntity
  8
0
  6
CONTINUOUS
 62
         7
100
AcDbLine
 10
329.6112195122
 20
178.2142929568
 30
0.0
 11
329.6112195122
 21
200.6142929568
 31
0.0
  0
LINE
  5
C7
100
AcDbEntity
  8
0
  6
CONTINUOUS
 62
         7
100
AcDbLine
 10
321.6112195122
 20
178.2142929568
 30
0.0
 11
321.6112195122
 21
200.6142929568
 31
0.0
  0
LINE
  5
C8
100
AcDbEntity
  8
0
  6
CONTINUOUS
 62
         7
100
AcDbLine
 10
321.6112195122
 20
204.7585101085
 30
0.0
 11
329.6112195122
 21
204.7585101085
 31
0.0
  0
LINE
  5
C9
100
AcDbEntity
  8
0
  6
CONTINUOUS
 62
         7
100
AcDbLine
 10
329.6112195122
 20
200.6142929568
 30
0.0
 11
329.6112195122
 21
204.7585101085
 31
0.0
  0
LINE
  5
CA
100
AcDbEntity
  8
0
  6
CONTINUOUS
 62
         7
100
AcDbLine
 10
321.6112195122
 20
200.6142929568
 30
0.0
 11
321.6112195122
 21
204.7585101085
 31
0.0
  0
LINE
  5
CB
100
AcDbEntity
  8
0
  6
CONTINUOUS
 62
         7
100
AcDbLine
 10
336.6112195122
 20
203.9806926492
 30
0.0
 11
336.6112195122
 21
200.1142929568
 31
0.0
  0
LINE
  5
CC
100
AcDbEntity
  8
0
  6
CONTINUOUS
 62
         7
100
AcDbLine
 10
314.6112195122
 20
200.1142929568
 30
0.0
 11
314.6112195122
 21
203.9806926492
 31
0.0
  0
LINE
  5
CD
100
AcDbEntity
  8
0
  6
CONTINUOUS
 62
         7
100
AcDbLine
 10
329.6112195122
 20
204.0514033273
 30
0.0
 11
330.6112195122
 21
204.0514033273
 31
0.0
  0
LINE
  5
CE
100
AcDbEntity
  8
0
  6
CONTINUOUS
 62
         7
100
AcDbLine
 10
330.6112195122
 20
204.0514033273
 30
0.0
 11
330.6112195122
 21
204.1928246836
 31
0.0
  0
LINE
  5
CF
100
AcDbEntity
  8
0
  6
CONTINUOUS
 62
         7
100
AcDbLine
 10
320.6112195122
 20
204.0514033273
 30
0.0
 11
320.6112195122
 21
204.1928246836
 31
0.0
  0
LINE
  5
D0
100
AcDbEntity
  8
0
  6
CONTINUOUS
 62
         7
100
AcDbLine
 10
320.6112195122
 20
204.0514033273
 30
0.0
 11
321.6112195122
 21
204.0514033273
 31
0.0
  0
LINE
  5
D1
100
AcDbEntity
  8
0
  6
CONTINUOUS
 62
         7
100
AcDbLine
 10
330.6112195122
 20
204.1928246836
 30
0.0
 11
330.6112195122
 21
204.2806926492
 31
0.0
  0
LINE
  5
D2
100
AcDbEntity
  8
0
  6
CONTINUOUS
 62
         7
100
AcDbLine
 10
320.6112195122
 20
204.2806926492
 30
0.0
 11
320.6112195122
 21
204.1928246836
 31
0.0
  0
LINE
  5
D3
100
AcDbEntity
  8
0
  6
CONTINUOUS
 62
         7
100
AcDbLine
 10
235.6112195122
 20
293.0320847208
 30
0.0
 11
235.6112195122
 21
292.9292842967
 31
0.0
  0
LINE
  5
D4
100
AcDbEntity
  8
0
  6
CONTINUOUS
 62
         7
100
AcDbLine
 10
235.6112195122
 20
293.0320847208
 30
0.0
 11
235.6112195122
 21
293.0320847208
 31
0.0
  0
LINE
  5
D5
100
AcDbEntity
  8
0
  6
CONTINUOUS
 62
         7
100
AcDbLine
 10
356.6112195122
 20
282.3320847208
 30
0.0
 11
361.6112195122
 21
282.3320847208
 31
0.0
  0
LINE
  5
D6
100
AcDbEntity
  8
0
  6
CONTINUOUS
 62
         7
100
AcDbLine
 10
361.6112195122
 20
303.7320847208
 30
0.0
 11
356.6112195122
 21
303.7320847208
 31
0.0
  0
LINE
  5
D7
100
AcDbEntity
  8
0
  6
CONTINUOUS
 62
         7
100
AcDbLine
 10
264.4112195122
 20
282.3320847208
 30
0.0
 11
264.8112195122
 21
282.3320847208
 31
0.0
  0
LINE
  5
D8
100
AcDbEntity
  8
0
  6
CONTINUOUS
 62
         7
100
AcDbLine
 10
264.8112195122
 20
303.7320847208
 30
0.0
 11
264.4112195122
 21
303.7320847208
 31
0.0
  0
LINE
  5
D9
100
AcDbEntity
  8
0
  6
CONTINUOUS
 62
         7
100
AcDbLine
 10
265.2112195122
 20
282.3320847208
 30
0.0
 11
273.6112195122
 21
282.3320847208
 31
0.0
  0
LINE
  5
DA
100
AcDbEntity
  8
0
  6
CONTINUOUS
 62
         7
100
AcDbLine
 10
281.6112195122
 20
282.3320847208
 30
0.0
 11
321.6112195122
 21
282.3320847208
 31
0.0
  0
LINE
  5
DB
100
AcDbEntity
  8
0
  6
CONTINUOUS
 62
         7
100
AcDbLine
 10
329.6112195122
 20
282.3320847208
 30
0.0
 11
355.4112195122
 21
282.3320847208
 31
0.0
  0
LINE
  5
DC
100
AcDbEntity
  8
0
  6
CONTINUOUS
 62
         7
100
AcDbLine
 10
355.4112195122
 20
303.7320847208
 30
0.0
 11
342.8854942542
 21
303.7320847208
 31
0.0
  0
LINE
  5
DD
100
AcDbEntity
  8
0
  6
CONTINUOUS
 62
         7
100
AcDbLine
 10
314.6112195122
 20
303.7320847208
 30
0.0
 11
295.8625811479
 21
303.7320847208
 31
0.0
  0
LINE
  5
DE
100
AcDbEntity
  8
0
  6
CONTINUOUS
 62
         7
100
AcDbLine
 10
292.1958136886
 20
303.7320847208
 30
0.0
 11
281.6112195122
 21
303.7320847208
 31
0.0
  0
LINE
  5
DF
100
AcDbEntity
  8
0
  6
CONTINUOUS
 62
         7
100
AcDbLine
 10
273.6112195122
 20
303.7320847208
 30
0.0
 11
265.2112195122
 21
303.7320847208
 31
0.0
  0
LINE
  5
E0
100
AcDbEntity
  8
0
  6
CONTINUOUS
 62
         7
100
AcDbLine
 10
263.6112195122
 20
282.3320847208
 30
0.0
 11
264.0112195122
 21
282.3320847208
 31
0.0
  0
LINE
  5
E1
100
AcDbEntity
  8
0
  6
CONTINUOUS
 62
         7
100
AcDbLine
 10
264.0112195122
 20
303.7320847208
 30
0.0
 11
263.6112195122
 21
303.7320847208
 31
0.0
  0
LINE
  5
E2
100
AcDbEntity
  8
0
  6
CONTINUOUS
 62
         7
100
AcDbLine
 10
355.8112195122
 20
282.3320847208
 30
0.0
 11
356.2112195122
 21
282.3320847208
 31
0.0
  0
LINE
  5
E3
100
AcDbEntity
  8
0
  6
CONTINUOUS
 62
         7
100
AcDbLine
 10
356.2112195122
 20
303.7320847208
 30
0.0
 11
355.8112195122
 21
303.7320847208
 31
0.0
  0
LINE
  5
E4
100
AcDbEntity
  8
0
  6
CONTINUOUS
 62
         7
100
AcDbLine
 10
264.0112195122
 20
282.7320847208
 30
0.0
 11
264.4112195122
 21
282.7320847208
 31
0.0
  0
LINE
  5
E5
100
AcDbEntity
  8
0
  6
CONTINUOUS
 62
         7
100
AcDbLine
 10
264.4112195122
 20
303.3320847208
 30
0.0
 11
264.0112195122
 21
303.3320847208
 31
0.0
  0
LINE
  5
E6
100
AcDbEntity
  8
0
  6
CONTINUOUS
 62
         7
100
AcDbLine
 10
264.8112195122
 20
282.7320847208
 30
0.0
 11
265.2112195122
 21
282.7320847208
 31
0.0
  0
LINE
  5
E7
100
AcDbEntity
  8
0
  6
CONTINUOUS
 62
         7
100
AcDbLine
 10
265.2112195122
 20
303.3320847208
 30
0.0
 11
264.8112195122
 21
303.3320847208
 31
0.0
  0
LINE
  5
E8
100
AcDbEntity
  8
0
  6
CONTINUOUS
 62
         7
100
AcDbLine
 10
355.4112195122
 20
282.7320847208
 30
0.0
 11
355.8112195122
 21
282.7320847208
 31
0.0
  0
LINE
  5
E9
100
AcDbEntity
  8
0
  6
CONTINUOUS
 62
         7
100
AcDbLine
 10
355.8112195122
 20
303.3320847208
 30
0.0
 11
355.4112195122
 21
303.3320847208
 31
0.0
  0
LINE
  5
EA
100
AcDbEntity
  8
0
  6
CONTINUOUS
 62
         7
100
AcDbLine
 10
356.2112195122
 20
282.7320847208
 30
0.0
 11
356.6112195122
 21
282.7320847208
 31
0.0
  0
LINE
  5
EB
100
AcDbEntity
  8
0
  6
CONTINUOUS
 62
         7
100
AcDbLine
 10
356.6112195122
 20
303.3320847208
 30
0.0
 11
356.2112195122
 21
303.3320847208
 31
0.0
  0
LINE
  5
EC
100
AcDbEntity
  8
0
  6
CONTINUOUS
 62
         7
100
AcDbLine
 10
261.6112195122
 20
312.0320847208
 30
0.0
 11
261.6112195122
 21
314.0320847208
 31
0.0
  0
LINE
  5
ED
100
AcDbEntity
  8
0
  6
CONTINUOUS
 62
         7
100
AcDbLine
 10
249.6112195122
 20
314.0320847208
 30
0.0
 11
249.6112195122
 21
312.0320847208
 31
0.0
  0
LINE
  5
EE
100
AcDbEntity
  8
0
  6
CONTINUOUS
 62
         7
100
AcDbLine
 10
235.6112195122
 20
297.0320847208
 30
0.0
 11
227.7112195122
 21
297.0320847208
 31
0.0
  0
LINE
  5
EF
100
AcDbEntity
  8
0
  6
CONTINUOUS
 62
         7
100
AcDbLine
 10
227.7112195122
 20
289.0320847208
 30
0.0
 11
235.6112195122
 21
289.0320847208
 31
0.0
  0
LINE
  5
F0
100
AcDbEntity
  8
0
  6
CONTINUOUS
 62
         7
100
AcDbLine
 10
227.6112195122
 20
297.0320847208
 30
0.0
 11
222.6112195122
 21
297.0320847208
 31
0.0
  0
LINE
  5
F1
100
AcDbEntity
  8
0
  6
CONTINUOUS
 62
         7
100
AcDbLine
 10
217.6112195122
 20
297.0320847208
 30
0.0
 11
213.1112195122
 21
297.0320847208
 31
0.0
  0
LINE
  5
F2
100
AcDbEntity
  8
0
  6
CONTINUOUS
 62
         7
100
AcDbLine
 10
213.1112195122
 20
289.0320847208
 30
0.0
 11
217.6112195122
 21
289.0320847208
 31
0.0
  0
LINE
  5
F3
100
AcDbEntity
  8
0
  6
CONTINUOUS
 62
         7
100
AcDbLine
 10
222.6112195122
 20
289.0320847208
 30
0.0
 11
227.6112195122
 21
289.0320847208
 31
0.0
  0
LINE
  5
F4
100
AcDbEntity
  8
0
  6
CONTINUOUS
 62
         7
100
AcDbLine
 10
213.1112195122
 20
297.0320847208
 30
0.0
 11
212.6112195122
 21
296.5320847208
 31
0.0
  0
LINE
  5
F5
100
AcDbEntity
  8
0
  6
CONTINUOUS
 62
         7
100
AcDbLine
 10
212.6112195122
 20
289.5320847208
 30
0.0
 11
213.1112195122
 21
289.0320847208
 31
0.0
  0
LINE
  5
F6
100
AcDbEntity
  8
0
  6
CONTINUOUS
 62
         7
100
AcDbLine
 10
289.9112195122
 20
318.0320847208
 30
0.0
 11
289.9112195122
 21
310.2479564404
 31
0.0
  0
LINE
  5
F7
100
AcDbEntity
  8
0
  6
CONTINUOUS
 62
         7
100
AcDbLine
 10
293.3112195122
 20
310.2479564404
 30
0.0
 11
293.3112195122
 21
318.0320847208
 31
0.0
  0
ARC
  5
F8
100
AcDbEntity
  8
0
  6
CONTINUOUS
 62
         7
100
AcDbCircle
 10
299.6112195122
 20
310.2479564404
 30
0.0
 40
6.3
100
AcDbArc
 50
180.0
 51
210.9637565321
  0
ARC
  5
F9
100
AcDbEntity
  8
0
  6
CONTINUOUS
 62
         7
100
AcDbCircle
 10
299.6112195122
 20
310.2479564404
 30
0.0
 40
9.7
100
AcDbArc
 50
180.0
 51
210.9637565321
  0
LINE
  5
FA
100
AcDbEntity
  8
0
  6
CONTINUOUS
 62
         7
100
AcDbLine
 10
291.2935381328
 20
305.2573476128
 30
0.0
 11
292.0134249442
 21
304.0575362604
 31
0.0
  0
LINE
  5
FB
100
AcDbEntity
  8
0
  6
CONTINUOUS
 62
         7
100
AcDbLine
 10
294.9289008916
 20
305.8068218289
 30
0.0
 11
294.2090140802
 21
307.0066331812
 31
0.0
  0
ARC
  5
FC
100
AcDbEntity
  8
0
  6
CONTINUOUS
 62
         7
100
AcDbCircle
 10
286.6112195122
 20
300.8162130012
 30
0.0
 40
6.3
100
AcDbArc
 50
0.0
 51
30.9637565321
  0
ARC
  5
FD
100
AcDbEntity
  8
0
  6
CONTINUOUS
 62
         7
100
AcDbCircle
 10
286.6112195122
 20
300.8162130012
 30
0.0
 40
9.7
100
AcDbArc
 50
0.0
 51
30.9637565321
  0
LINE
  5
FE
100
AcDbEntity
  8
0
  6
CONTINUOUS
 62
         7
100
AcDbLine
 10
292.9112195122
 20
300.8162130012
 30
0.0
 11
292.9112195122
 21
298.0320847208
 31
0.0
  0
LINE
  5
FF
100
AcDbEntity
  8
0
  6
CONTINUOUS
 62
         7
100
AcDbLine
 10
296.3112195122
 20
298.0320847208
 30
0.0
 11
296.3112195122
 21
300.8162130012
 31
0.0
  0
ARC
  5
100
100
AcDbEntity
  8
0
  6
CONTINUOUS
 62
         7
100
AcDbCircle
 10
289.6112195122
 20
298.0320847208
 30
0.0
 40
3.3
100
AcDbArc
 50
270.0
 51
0.0
  0
ARC
  5
101
100
AcDbEntity
  8
0
  6
CONTINUOUS
 62
         7
100
AcDbCircle
 10
289.6112195122
 20
298.0320847208
 30
0.0
 40
6.7
100
AcDbArc
 50
270.0
 51
0.0
  0
LINE
  5
102
100
AcDbEntity
  8
0
  6
CONTINUOUS
 62
         7
100
AcDbLine
 10
288.6112195122
 20
291.3320847208
 30
0.0
 11
289.6112195122
 21
291.3320847208
 31
0.0
  0
LINE
  5
103
100
AcDbEntity
  8
0
  6
CONTINUOUS
 62
         7
100
AcDbLine
 10
289.6112195122
 20
294.7320847208
 30
0.0
 11
288.6112195122
 21
294.7320847208
 31
0.0
  0
LINE
  5
104
100
AcDbEntity
  8
0
  6
CONTINUOUS
 62
         7
100
AcDbLine
 10
281.6112195122
 20
304.2320847208
 30
0.0
 11
273.6112195122
 21
304.2320847208
 31
0.0
  0
LINE
  5
105
100
AcDbEntity
  8
0
  6
CONTINUOUS
 62
         7
100
AcDbLine
 10
273.6112195122
 20
281.8320847208
 30
0.0
 11
281.6112195122
 21
281.8320847208
 31
0.0
  0
LINE
  5
106
100
AcDbEntity
  8
0
  6
CONTINUOUS
 62
         7
100
AcDbLine
 10
321.6112195122
 20
281.8320847208
 30
0.0
 11
329.6112195122
 21
281.8320847208
 31
0.0
  0
LINE
  5
107
100
AcDbEntity
  8
0
  6
CONTINUOUS
 62
         7
100
AcDbLine
 10
328.1112195122
 20
305.5478747478
 30
0.0
 11
328.1112195122
 21
306.1135601728
 31
0.0
  0
LINE
  5
108
100
AcDbEntity
  8
0
  6
CONTINUOUS
 62
         7
100
AcDbLine
 10
323.1112195122
 20
306.1135601728
 30
0.0
 11
323.1112195122
 21
305.5478747478
 31
0.0
  0
ARC
  5
109
100
AcDbEntity
  8
0
  6
CONTINUOUS
 62
         7
100
AcDbCircle
 10
318.3048892879
 20
305.3105335146
 30
0.0
 40
1.5818144922
100
AcDbArc
 50
13.5299546579
 51
97.0326658898
  0
ARC
  5
10A
100
AcDbEntity
  8
0
  6
CONTINUOUS
 62
         7
100
AcDbCircle
 10
317.9265458036
 20
305.3182887828
 30
0.0
 40
1.573036371
100
AcDbArc
 50
83.2579551039
 51
168.1574481659
  0
LINE
  5
10B
100
AcDbEntity
  8
0
  6
CONTINUOUS
 62
         7
100
AcDbLine
 10
336.6112195122
 20
301.7265544043
 30
0.0
 11
337.6112195122
 21
301.7265544043
 31
0.0
  0
LINE
  5
10C
100
AcDbEntity
  8
0
  6
CONTINUOUS
 62
         7
100
AcDbLine
 10
337.6112195122
 20
305.1265544043
 30
0.0
 11
336.6112195122
 21
305.1265544043
 31
0.0
  0
POLYLINE
  5
10D
100
AcDbEntity
  8
0
  6
CONTINUOUS
 62
         7
100
AcDb2dPolyline
 66
         1
 10
0.0
 20
0.0
 30
0.0
 70
       128
  0
VERTEX
  5
10E
100
AcDbEntity
  8
0
100
AcDbVertex
100
AcDb2dVertex
 10
337.6112195122
 20
301.7265544043
 30
0.0
  0
VERTEX
  5
10F
100
AcDbEntity
  8
0
100
AcDbVertex
100
AcDb2dVertex
 10
338.1775323731
 20
301.7448712237
 30
0.0
  0
VERTEX
  5
110
100
AcDbEntity
  8
0
100
AcDbVertex
100
AcDb2dVertex
 10
339.1850343888
 20
301.8698627607
 30
0.0
  0
VERTEX
  5
111
100
AcDbEntity
  8
0
100
AcDbVertex
100
AcDb2dVertex
 10
340.1617804295
 20
302.1126888735
 30
0.0
  0
VERTEX
  5
112
100
AcDbEntity
  8
0
100
AcDbVertex
100
AcDb2dVertex
 10
341.0860176948
 20
302.4715722739
 30
0.0
  0
VERTEX
  5
113
100
AcDbEntity
  8
0
100
AcDbVertex
100
AcDb2dVertex
 10
341.9360388511
 20
302.9433392717
 30
0.0
  0
VERTEX
  5
114
100
AcDbEntity
  8
0
100
AcDbVertex
100
AcDb2dVertex
 10
342.68769998
 20
303.5210552162
 30
0.0
  0
VERTEX
  5
115
100
AcDbEntity
  8
0
100
AcDbVertex
100
AcDb2dVertex
 10
343.316520276
 20
304.1919524708
 30
0.0
  0
VERTEX
  5
116
100
AcDbEntity
  8
0
100
AcDbVertex
100
AcDb2dVertex
 10
343.8007841725
 20
304.9356395834
 30
0.0
  0
VERTEX
  5
117
100
AcDbEntity
  8
0
100
AcDbVertex
100
AcDb2dVertex
 10
344.1264394118
 20
305.7258600654
 30
0.0
  0
VERTEX
  5
118
100
AcDbEntity
  8
0
100
AcDbVertex
100
AcDb2dVertex
 10
344.2895284961
 20
306.5356211823
 30
0.0
  0
VERTEX
  5
119
100
AcDbEntity
  8
0
100
AcDbVertex
100
AcDb2dVertex
 10
344.3112195122
 20
306.9620883102
 30
0.0
  0
SEQEND
  5
11A
100
AcDbEntity
  8
0
  0
ARC
  5
11B
100
AcDbEntity
  8
0
  6
CONTINUOUS
 62
         7
100
AcDbCircle
 10
338.1092451954
 20
308.1153891992
 30
0.0
 40
3.0300434011
100
AcDbArc
 50
260.5397938414
 51
337.6277898519
  0
ARC
  5
11C
100
AcDbEntity
  8
0
  6
CONTINUOUS
 62
         7
100
AcDbCircle
 10
314.9112195122
 20
298.4662755717
 30
0.0
 40
0.3
100
AcDbArc
 50
180.0
 51
270.0
  0
ARC
  5
11D
100
AcDbEntity
  8
0
  6
CONTINUOUS
 62
         7
100
AcDbCircle
 10
336.3112195122
 20
298.4662755717
 30
0.0
 40
0.3
100
AcDbArc
 50
270.0
 51
0.0
  0
LINE
  5
11E
100
AcDbEntity
  8
0
  6
CONTINUOUS
 62
         7
100
AcDbLine
 10
314.9112195122
 20
298.1662755717
 30
0.0
 11
321.6112195122
 21
298.1662755717
 31
0.0
  0
LINE
  5
11F
100
AcDbEntity
  8
0
  6
CONTINUOUS
 62
         7
100
AcDbLine
 10
329.6112195122
 20
298.1662755717
 30
0.0
 11
336.3112195122
 21
298.1662755717
 31
0.0
  0
LINE
  5
120
100
AcDbEntity
  8
0
  6
CONTINUOUS
 62
         7
100
AcDbLine
 10
336.3112195122
 20
307.8984844133
 30
0.0
 11
330.6112195122
 21
307.8984844133
 31
0.0
  0
ARC
  5
121
100
AcDbEntity
  8
0
  6
CONTINUOUS
 62
         7
100
AcDbCircle
 10
336.3112195122
 20
307.5984844133
 30
0.0
 40
0.3
100
AcDbArc
 50
0.0
 51
90.0
  0
LINE
  5
122
100
AcDbEntity
  8
0
  6
CONTINUOUS
 62
         7
100
AcDbLine
 10
320.6112195122
 20
307.8984844133
 30
0.0
 11
314.9112195122
 21
307.8984844133
 31
0.0
  0
ARC
  5
123
100
AcDbEntity
  8
0
  6
CONTINUOUS
 62
         7
100
AcDbCircle
 10
314.9112195122
 20
307.5984844133
 30
0.0
 40
0.3
100
AcDbArc
 50
90.0
 51
180.0
  0
LINE
  5
124
100
AcDbEntity
  8
0
  6
CONTINUOUS
 62
         7
100
AcDbLine
 10
340.9112195122
 20
308.930764297
 30
0.0
 11
340.9112195122
 21
306.9620883102
 31
0.0
  0
LINE
  5
125
100
AcDbEntity
  8
0
  6
CONTINUOUS
 62
         7
100
AcDbLine
 10
344.3112195122
 20
306.9620883102
 30
0.0
 11
344.3112195122
 21
308.930764297
 31
0.0
  0
ARC
  5
126
100
AcDbEntity
  8
0
  6
CONTINUOUS
 62
         7
100
AcDbCircle
 10
338.0899656546
 20
308.838138375
 30
0.0
 40
6.2219433558
100
AcDbArc
 50
0.8529924085
 51
41.2565579471
  0
ARC
  5
127
100
AcDbEntity
  8
0
  6
CONTINUOUS
 62
         7
100
AcDbCircle
 10
338.0662479648
 20
308.8287740517
 30
0.0
 40
2.8467990999
100
AcDbArc
 50
2.0531344819
 51
42.2073328703
  0
LINE
  5
128
100
AcDbEntity
  8
0
  6
CONTINUOUS
 62
         7
100
AcDbLine
 10
339.4550382587
 20
311.5896922541
 30
0.0
 11
340.1749250701
 21
310.7412975107
 31
0.0
  0
LINE
  5
129
100
AcDbEntity
  8
0
  6
CONTINUOUS
 62
         7
100
AcDbLine
 10
342.7674007657
 20
312.9410860841
 30
0.0
 11
342.0475139543
 21
313.7894808275
 31
0.0
  0
ARC
  5
12A
100
AcDbEntity
  8
0
  6
CONTINUOUS
 62
         7
100
AcDbCircle
 10
344.1561910596
 20
315.7020042865
 30
0.0
 40
2.8467990999
100
AcDbArc
 50
182.0531344825
 51
222.2073328704
  0
ARC
  5
12B
100
AcDbEntity
  8
0
  6
CONTINUOUS
 62
         7
100
AcDbCircle
 10
344.1324733698
 20
315.6926399632
 30
0.0
 40
6.2219433557
100
AcDbArc
 50
180.8529924084
 51
221.2565579472
  0
LINE
  5
12C
100
AcDbEntity
  8
0
  6
CONTINUOUS
 62
         7
100
AcDbLine
 10
337.9112195122
 20
321.1042239339
 30
0.0
 11
337.9112195122
 21
315.6000140412
 31
0.0
  0
LINE
  5
12D
100
AcDbEntity
  8
0
  6
CONTINUOUS
 62
         7
100
AcDbLine
 10
341.3112195122
 20
315.6000140412
 30
0.0
 11
341.3112195122
 21
321.1042239339
 31
0.0
  0
LINE
  5
12E
100
AcDbEntity
  8
0
  6
CONTINUOUS
 62
         7
100
AcDbLine
 10
235.6112195122
 20
312.0320847208
 30
0.0
 11
263.6112195122
 21
312.0320847208
 31
0.0
  0
LINE
  5
12F
100
AcDbEntity
  8
0
  6
CONTINUOUS
 62
         7
100
AcDbLine
 10
263.6112195122
 20
312.0320847208
 30
0.0
 11
263.6112195122
 21
310.5320847208
 31
0.0
  0
LINE
  5
130
100
AcDbEntity
  8
0
  6
CONTINUOUS
 62
         7
100
AcDbLine
 10
263.6112195122
 20
310.5320847208
 30
0.0
 11
235.6112195122
 21
310.5320847208
 31
0.0
  0
LINE
  5
131
100
AcDbEntity
  8
0
  6
CONTINUOUS
 62
         7
100
AcDbLine
 10
235.6112195122
 20
310.5320847208
 30
0.0
 11
235.6112195122
 21
312.0320847208
 31
0.0
  0
LINE
  5
132
100
AcDbEntity
  8
0
  6
CONTINUOUS
 62
         7
100
AcDbLine
 10
235.6112195122
 20
275.5320847208
 30
0.0
 11
263.6112195122
 21
275.5320847208
 31
0.0
  0
CIRCLE
  5
133
100
AcDbEntity
  8
0
  6
CONTINUOUS
 62
         7
100
AcDbCircle
 10
255.6112195122
 20
293.0320847208
 30
0.0
 40
4.85
  0
CIRCLE
  5
134
100
AcDbEntity
  8
0
  6
CONTINUOUS
 62
         7
100
AcDbCircle
 10
246.6112195122
 20
304.0320847208
 30
0.0
 40
5.5
  0
CIRCLE
  5
135
100
AcDbEntity
  8
0
  6
CONTINUOUS
 62
         7
100
AcDbCircle
 10
246.6112195122
 20
282.0320847208
 30
0.0
 40
5.5
  0
LINE
  5
136
100
AcDbEntity
  8
0
  6
CONTINUOUS
 62
         7
100
AcDbLine
 10
263.6112195122
 20
310.5320847208
 30
0.0
 11
263.6112195122
 21
275.5320847208
 31
0.0
  0
LINE
  5
137
100
AcDbEntity
  8
0
  6
CONTINUOUS
 62
         7
100
AcDbLine
 10
235.6112195122
 20
310.5320847208
 30
0.0
 11
235.6112195122
 21
275.5320847208
 31
0.0
  0
CIRCLE
  5
138
100
AcDbEntity
  8
0
  6
CONTINUOUS
 62
         7
100
AcDbCircle
 10
255.6112195122
 20
293.0320847208
 30
0.0
 40
4.35
  0
LINE
  5
139
100
AcDbEntity
  8
0
  6
CONTINUOUS
 62
         7
100
AcDbLine
 10
263.6112195122
 20
274.0320847208
 30
0.0
 11
235.6112195122
 21
274.0320847208
 31
0.0
  0
LINE
  5
13A
100
AcDbEntity
  8
0
  6
CONTINUOUS
 62
         7
100
AcDbLine
 10
263.6112195122
 20
275.5320847208
 30
0.0
 11
263.6112195122
 21
274.0320847208
 31
0.0
  0
LINE
  5
13B
100
AcDbEntity
  8
0
  6
CONTINUOUS
 62
         7
100
AcDbLine
 10
235.6112195122
 20
274.0320847208
 30
0.0
 11
235.6112195122
 21
275.5320847208
 31
0.0
  0
LINE
  5
13C
100
AcDbEntity
  8
0
  6
CONTINUOUS
 62
         7
100
AcDbLine
 10
356.6112195122
 20
282.3320847208
 30
0.0
 11
356.6112195122
 21
303.7320847208
 31
0.0
  0
LINE
  5
13D
100
AcDbEntity
  8
0
  6
CONTINUOUS
 62
         7
100
AcDbLine
 10
361.6112195122
 20
284.5320847208
 30
0.0
 11
366.6112195122
 21
284.5320847208
 31
0.0
  0
LINE
  5
13E
100
AcDbEntity
  8
0
  6
CONTINUOUS
 62
         7
100
AcDbLine
 10
361.6112195122
 20
284.5320847208
 30
0.0
 11
361.6112195122
 21
282.3320847208
 31
0.0
  0
LINE
  5
13F
100
AcDbEntity
  8
0
  6
CONTINUOUS
 62
         7
100
AcDbLine
 10
361.6112195122
 20
303.7320847208
 30
0.0
 11
361.6112195122
 21
301.5320847208
 31
0.0
  0
LINE
  5
140
100
AcDbEntity
  8
0
  6
CONTINUOUS
 62
         7
100
AcDbLine
 10
361.6112195122
 20
301.5320847208
 30
0.0
 11
366.6112195122
 21
301.5320847208
 31
0.0
  0
LINE
  5
141
100
AcDbEntity
  8
0
  6
CONTINUOUS
 62
         7
100
AcDbLine
 10
366.6112195122
 20
284.5320847208
 30
0.0
 11
366.6112195122
 21
301.5320847208
 31
0.0
  0
LINE
  5
142
100
AcDbEntity
  8
0
  6
CONTINUOUS
 62
         7
100
AcDbLine
 10
264.8112195122
 20
282.3320847208
 30
0.0
 11
264.8112195122
 21
303.7320847208
 31
0.0
  0
LINE
  5
143
100
AcDbEntity
  8
0
  6
CONTINUOUS
 62
         7
100
AcDbLine
 10
264.4112195122
 20
282.3320847208
 30
0.0
 11
264.4112195122
 21
303.7320847208
 31
0.0
  0
LINE
  5
144
100
AcDbEntity
  8
0
  6
CONTINUOUS
 62
         7
100
AcDbLine
 10
355.4112195122
 20
282.3320847208
 30
0.0
 11
355.4112195122
 21
303.7320847208
 31
0.0
  0
LINE
  5
145
100
AcDbEntity
  8
0
  6
CONTINUOUS
 62
         7
100
AcDbLine
 10
265.2112195122
 20
282.3320847208
 30
0.0
 11
265.2112195122
 21
303.7320847208
 31
0.0
  0
LINE
  5
146
100
AcDbEntity
  8
0
  6
CONTINUOUS
 62
         7
100
AcDbLine
 10
264.0112195122
 20
282.3320847208
 30
0.0
 11
264.0112195122
 21
303.7320847208
 31
0.0
  0
LINE
  5
147
100
AcDbEntity
  8
0
  6
CONTINUOUS
 62
         7
100
AcDbLine
 10
356.2112195122
 20
282.3320847208
 30
0.0
 11
356.2112195122
 21
303.7320847208
 31
0.0
  0
LINE
  5
148
100
AcDbEntity
  8
0
  6
CONTINUOUS
 62
         7
100
AcDbLine
 10
355.8112195122
 20
282.3320847208
 30
0.0
 11
355.8112195122
 21
303.7320847208
 31
0.0
  0
CIRCLE
  5
149
100
AcDbEntity
  8
0
  6
CONTINUOUS
 62
         7
100
AcDbCircle
 10
246.6112195122
 20
304.0320847208
 30
0.0
 40
3.3
  0
CIRCLE
  5
14A
100
AcDbEntity
  8
0
  6
CONTINUOUS
 62
         7
100
AcDbCircle
 10
246.6112195122
 20
282.0320847208
 30
0.0
 40
3.3
  0
LINE
  5
14B
100
AcDbEntity
  8
0
  6
CONTINUOUS
 62
         7
100
AcDbLine
 10
249.6112195122
 20
314.0320847208
 30
0.0
 11
261.6112195122
 21
314.0320847208
 31
0.0
  0
LINE
  5
14C
100
AcDbEntity
  8
0
  6
CONTINUOUS
 62
         7
100
AcDbLine
 10
227.7112195122
 20
297.0320847208
 30
0.0
 11
227.7112195122
 21
289.0320847208
 31
0.0
  0
LINE
  5
14D
100
AcDbEntity
  8
0
  6
CONTINUOUS
 62
         7
100
AcDbLine
 10
227.6112195122
 20
297.0320847208
 30
0.0
 11
227.6112195122
 21
289.0320847208
 31
0.0
  0
LINE
  5
14E
100
AcDbEntity
  8
0
  6
CONTINUOUS
 62
         7
100
AcDbLine
 10
213.1112195122
 20
293.7835089232
 30
0.0
 11
213.1112195122
 21
289.0320847208
 31
0.0
  0
LINE
  5
14F
100
AcDbEntity
  8
0
  6
CONTINUOUS
 62
         7
100
AcDbLine
 10
213.1112195122
 20
297.0320847208
 30
0.0
 11
213.1112195122
 21
293.7835089232
 31
0.0
  0
LINE
  5
150
100
AcDbEntity
  8
0
  6
CONTINUOUS
 62
         7
100
AcDbLine
 10
212.6112195122
 20
293.6895808979
 30
0.0
 11
212.6112195122
 21
296.5320847208
 31
0.0
  0
LINE
  5
151
100
AcDbEntity
  8
0
  6
CONTINUOUS
 62
         7
100
AcDbLine
 10
212.6112195122
 20
289.5320847208
 30
0.0
 11
212.6112195122
 21
293.6895808979
 31
0.0
  0
LINE
  5
152
100
AcDbEntity
  8
0
  6
CONTINUOUS
 62
         7
100
AcDbLine
 10
218.1112195122
 20
299.0320847208
 30
0.0
 11
217.6112195122
 21
298.0299204441
 31
0.0
  0
LINE
  5
153
100
AcDbEntity
  8
0
  6
CONTINUOUS
 62
         7
100
AcDbLine
 10
218.1112195122
 20
299.0320847208
 30
0.0
 11
222.1112195122
 21
299.0320847208
 31
0.0
  0
LINE
  5
154
100
AcDbEntity
  8
0
  6
CONTINUOUS
 62
         7
100
AcDbLine
 10
222.6112195122
 20
298.0299204441
 30
0.0
 11
222.1112195122
 21
299.0320847208
 31
0.0
  0
LINE
  5
155
100
AcDbEntity
  8
0
  6
CONTINUOUS
 62
         7
100
AcDbLine
 10
222.6112195122
 20
298.0299204441
 30
0.0
 11
222.6112195122
 21
294.0342489975
 31
0.0
  0
LINE
  5
156
100
AcDbEntity
  8
0
  6
CONTINUOUS
 62
         7
100
AcDbLine
 10
222.1112195122
 20
293.0320847208
 30
0.0
 11
222.6112195122
 21
294.0342489975
 31
0.0
  0
LINE
  5
157
100
AcDbEntity
  8
0
  6
CONTINUOUS
 62
         7
100
AcDbLine
 10
218.1112195122
 20
293.0320847208
 30
0.0
 11
222.1112195122
 21
293.0320847208
 31
0.0
  0
LINE
  5
158
100
AcDbEntity
  8
0
  6
CONTINUOUS
 62
         7
100
AcDbLine
 10
217.6112195122
 20
294.0342489975
 30
0.0
 11
218.1112195122
 21
293.0320847208
 31
0.0
  0
LINE
  5
159
100
AcDbEntity
  8
0
  6
CONTINUOUS
 62
         7
100
AcDbLine
 10
217.6112195122
 20
298.0299204441
 30
0.0
 11
217.6112195122
 21
294.0342489975
 31
0.0
  0
LINE
  5
15A
100
AcDbEntity
  8
0
  6
CONTINUOUS
 62
         7
100
AcDbLine
 10
222.6112195122
 20
292.0299204441
 30
0.0
 11
222.1112195122
 21
293.0320847208
 31
0.0
  0
LINE
  5
15B
100
AcDbEntity
  8
0
  6
CONTINUOUS
 62
         7
100
AcDbLine
 10
222.6112195122
 20
294.0342489975
 30
0.0
 11
222.6112195122
 21
292.0299204441
 31
0.0
  0
LINE
  5
15C
100
AcDbEntity
  8
0
  6
CONTINUOUS
 62
         7
100
AcDbLine
 10
218.1112195122
 20
293.0320847208
 30
0.0
 11
217.6112195122
 21
292.0299204441
 31
0.0
  0
LINE
  5
15D
100
AcDbEntity
  8
0
  6
CONTINUOUS
 62
         7
100
AcDbLine
 10
222.6112195122
 20
292.0299204441
 30
0.0
 11
222.6112195122
 21
288.0342489975
 31
0.0
  0
LINE
  5
15E
100
AcDbEntity
  8
0
  6
CONTINUOUS
 62
         7
100
AcDbLine
 10
222.1112195122
 20
287.0320847208
 30
0.0
 11
222.6112195122
 21
288.0342489975
 31
0.0
  0
LINE
  5
15F
100
AcDbEntity
  8
0
  6
CONTINUOUS
 62
         7
100
AcDbLine
 10
218.1112195122
 20
287.0320847208
 30
0.0
 11
222.1112195122
 21
287.0320847208
 31
0.0
  0
LINE
  5
160
100
AcDbEntity
  8
0
  6
CONTINUOUS
 62
         7
100
AcDbLine
 10
217.6112195122
 20
288.0342489975
 30
0.0
 11
218.1112195122
 21
287.0320847208
 31
0.0
  0
LINE
  5
161
100
AcDbEntity
  8
0
  6
CONTINUOUS
 62
         7
100
AcDbLine
 10
217.6112195122
 20
292.0299204441
 30
0.0
 11
217.6112195122
 21
288.0342489975
 31
0.0
  0
LINE
  5
162
100
AcDbEntity
  8
0
  6
CONTINUOUS
 62
         7
100
AcDbLine
 10
217.6112195122
 20
294.0342489975
 30
0.0
 11
217.6112195122
 21
292.0299204441
 31
0.0
  0
LINE
  5
163
100
AcDbEntity
  8
0
  6
CONTINUOUS
 62
         7
100
AcDbLine
 10
222.1112195122
 20
299.0320847208
 30
0.0
 11
222.6112195122
 21
299.0320847208
 31
0.0
  0
LINE
  5
164
100
AcDbEntity
  8
0
  6
CONTINUOUS
 62
         7
100
AcDbLine
 10
222.6112195122
 20
299.0320847208
 30
0.0
 11
222.6112195122
 21
298.0299204441
 31
0.0
  0
LINE
  5
165
100
AcDbEntity
  8
0
  6
CONTINUOUS
 62
         7
100
AcDbLine
 10
217.6112195122
 20
299.0320847208
 30
0.0
 11
218.1112195122
 21
299.0320847208
 31
0.0
  0
LINE
  5
166
100
AcDbEntity
  8
0
  6
CONTINUOUS
 62
         7
100
AcDbLine
 10
217.6112195122
 20
299.0320847208
 30
0.0
 11
217.6112195122
 21
298.0299204441
 31
0.0
  0
LINE
  5
167
100
AcDbEntity
  8
0
  6
CONTINUOUS
 62
         7
100
AcDbLine
 10
222.6112195122
 20
287.0320847208
 30
0.0
 11
222.1112195122
 21
287.0320847208
 31
0.0
  0
LINE
  5
168
100
AcDbEntity
  8
0
  6
CONTINUOUS
 62
         7
100
AcDbLine
 10
222.6112195122
 20
288.0342489975
 30
0.0
 11
222.6112195122
 21
287.0320847208
 31
0.0
  0
LINE
  5
169
100
AcDbEntity
  8
0
  6
CONTINUOUS
 62
         7
100
AcDbLine
 10
218.1112195122
 20
287.0320847208
 30
0.0
 11
217.6112195122
 21
287.0320847208
 31
0.0
  0
LINE
  5
16A
100
AcDbEntity
  8
0
  6
CONTINUOUS
 62
         7
100
AcDbLine
 10
217.6112195122
 20
288.0342489975
 30
0.0
 11
217.6112195122
 21
287.0320847208
 31
0.0
  0
LINE
  5
16B
100
AcDbEntity
  8
0
  6
CONTINUOUS
 62
         7
100
AcDbLine
 10
276.3773221161
 20
294.9730888981
 30
0.0
 11
276.2327220952
 21
295.117688919
 31
0.0
  0
ARC
  5
16C
100
AcDbEntity
  8
0
  6
CONTINUOUS
 62
         7
100
AcDbCircle
 10
277.6112195122
 20
293.0320847208
 30
0.0
 40
2.5
100
AcDbArc
 50
326.5369590328
 51
123.4630409672
  0
LINE
  5
16D
100
AcDbEntity
  8
0
  6
CONTINUOUS
 62
         7
100
AcDbLine
 10
279.6968237104
 20
291.6535873039
 30
0.0
 11
279.5522236894
 21
291.7981873248
 31
0.0
  0
ARC
  5
16E
100
AcDbEntity
  8
0
  6
CONTINUOUS
 62
         7
100
AcDbCircle
 10
277.6112195122
 20
293.0320847208
 30
0.0
 40
2.5
100
AcDbArc
 50
146.5369590328
 51
303.4630409672
  0
LINE
  5
16F
100
AcDbEntity
  8
0
  6
CONTINUOUS
 62
         7
100
AcDbLine
 10
275.525615314
 20
294.4105821378
 30
0.0
 11
275.670215335
 21
294.2659821169
 31
0.0
  0
LINE
  5
170
100
AcDbEntity
  8
0
  6
CONTINUOUS
 62
         7
100
AcDbLine
 10
278.8451169082
 20
291.0910805436
 30
0.0
 11
278.9897169292
 21
290.9464805227
 31
0.0
  0
LINE
  5
171
100
AcDbEntity
  8
0
  6
CONTINUOUS
 62
         7
100
AcDbLine
 10
279.5522236894
 20
291.7981873248
 30
0.0
 11
276.3773221161
 21
294.9730888981
 31
0.0
  0
LINE
  5
172
100
AcDbEntity
  8
0
  6
CONTINUOUS
 62
         7
100
AcDbLine
 10
275.670215335
 20
294.2659821169
 30
0.0
 11
278.8451169082
 21
291.0910805436
 31
0.0
  0
ARC
  5
173
100
AcDbEntity
  8
0
  6
CONTINUOUS
 62
         7
100
AcDbCircle
 10
277.6112195122
 20
293.0320847208
 30
0.0
 40
2.5
100
AcDbArc
 50
303.4630409672
 51
326.5369590328
  0
ARC
  5
174
100
AcDbEntity
  8
0
  6
CONTINUOUS
 62
         7
100
AcDbCircle
 10
277.6112195122
 20
293.0320847208
 30
0.0
 40
2.5
100
AcDbArc
 50
123.4630409672
 51
146.5369590328
  0
CIRCLE
  5
175
100
AcDbEntity
  8
0
  6
CONTINUOUS
 62
         7
100
AcDbCircle
 10
270.1112195122
 20
293.0320847208
 30
0.0
 40
1.75
  0
LINE
  5
176
100
AcDbEntity
  8
0
  6
CONTINUOUS
 62
         7
100
AcDbLine
 10
273.6112195122
 20
289.0320847208
 30
0.0
 11
281.6112195122
 21
289.0320847208
 31
0.0
  0
LINE
  5
177
100
AcDbEntity
  8
0
  6
CONTINUOUS
 62
         7
100
AcDbLine
 10
273.6112195122
 20
297.0320847208
 30
0.0
 11
281.6112195122
 21
297.0320847208
 31
0.0
  0
LINE
  5
178
100
AcDbEntity
  8
0
  6
CONTINUOUS
 62
         7
100
AcDbLine
 10
281.6112195122
 20
289.0320847208
 30
0.0
 11
281.6112195122
 21
297.0320847208
 31
0.0
  0
LINE
  5
179
100
AcDbEntity
  8
0
  6
CONTINUOUS
 62
         7
100
AcDbLine
 10
273.6112195122
 20
289.0320847208
 30
0.0
 11
273.6112195122
 21
297.0320847208
 31
0.0
  0
LINE
  5
17A
100
AcDbEntity
  8
0
  6
CONTINUOUS
 62
         7
100
AcDbLine
 10
288.3112195122
 20
296.5320847208
 30
0.0
 11
282.6112195122
 21
296.5320847208
 31
0.0
  0
LINE
  5
17B
100
AcDbEntity
  8
0
  6
CONTINUOUS
 62
         7
100
AcDbLine
 10
282.6112195122
 20
296.2320847208
 30
0.0
 11
282.6112195122
 21
296.5320847208
 31
0.0
  0
ARC
  5
17C
100
AcDbEntity
  8
0
  6
CONTINUOUS
 62
         7
100
AcDbCircle
 10
266.9112195122
 20
296.2320847208
 30
0.0
 40
0.3
100
AcDbArc
 50
90.0
 51
180.0
  0
LINE
  5
17D
100
AcDbEntity
  8
0
  6
CONTINUOUS
 62
         7
100
AcDbLine
 10
272.6112195122
 20
296.5320847208
 30
0.0
 11
266.9112195122
 21
296.5320847208
 31
0.0
  0
LINE
  5
17E
100
AcDbEntity
  8
0
  6
CONTINUOUS
 62
         7
100
AcDbLine
 10
272.6112195122
 20
296.5320847208
 30
0.0
 11
272.6112195122
 21
296.2320847208
 31
0.0
  0
ARC
  5
17F
100
AcDbEntity
  8
0
  6
CONTINUOUS
 62
         7
100
AcDbCircle
 10
288.3112195122
 20
296.2320847208
 30
0.0
 40
0.3
100
AcDbArc
 50
0.0
 51
90.0
  0
LINE
  5
180
100
AcDbEntity
  8
0
  6
CONTINUOUS
 62
         7
100
AcDbLine
 10
282.6112195122
 20
289.8320847208
 30
0.0
 11
282.6112195122
 21
296.2320847208
 31
0.0
  0
LINE
  5
181
100
AcDbEntity
  8
0
  6
CONTINUOUS
 62
         7
100
AcDbLine
 10
288.6112195122
 20
296.2320847208
 30
0.0
 11
288.6112195122
 21
289.8320847208
 31
0.0
  0
LINE
  5
182
100
AcDbEntity
  8
0
  6
CONTINUOUS
 62
         7
100
AcDbLine
 10
272.6112195122
 20
296.2320847208
 30
0.0
 11
272.6112195122
 21
289.8320847208
 31
0.0
  0
LINE
  5
183
100
AcDbEntity
  8
0
  6
CONTINUOUS
 62
         7
100
AcDbLine
 10
266.6112195122
 20
289.8320847208
 30
0.0
 11
266.6112195122
 21
296.2320847208
 31
0.0
  0
LINE
  5
184
100
AcDbEntity
  8
0
  6
CONTINUOUS
 62
         7
100
AcDbLine
 10
288.3112195122
 20
289.5320847208
 30
0.0
 11
282.6112195122
 21
289.5320847208
 31
0.0
  0
LINE
  5
185
100
AcDbEntity
  8
0
  6
CONTINUOUS
 62
         7
100
AcDbLine
 10
282.6112195122
 20
289.5320847208
 30
0.0
 11
282.6112195122
 21
289.8320847208
 31
0.0
  0
LINE
  5
186
100
AcDbEntity
  8
0
  6
CONTINUOUS
 62
         7
100
AcDbLine
 10
272.6112195122
 20
289.5320847208
 30
0.0
 11
266.9112195122
 21
289.5320847208
 31
0.0
  0
LINE
  5
187
100
AcDbEntity
  8
0
  6
CONTINUOUS
 62
         7
100
AcDbLine
 10
272.6112195122
 20
289.8320847208
 30
0.0
 11
272.6112195122
 21
289.5320847208
 31
0.0
  0
ARC
  5
188
100
AcDbEntity
  8
0
  6
CONTINUOUS
 62
         7
100
AcDbCircle
 10
288.3112195122
 20
289.8320847208
 30
0.0
 40
0.3
100
AcDbArc
 50
270.0
 51
0.0
  0
ARC
  5
189
100
AcDbEntity
  8
0
  6
CONTINUOUS
 62
         7
100
AcDbCircle
 10
266.9112195122
 20
289.8320847208
 30
0.0
 40
0.3
100
AcDbArc
 50
180.0
 51
270.0
  0
LINE
  5
18A
100
AcDbEntity
  8
0
  6
CONTINUOUS
 62
         7
100
AcDbLine
 10
272.6112195122
 20
289.5320847208
 30
0.0
 11
273.6112195122
 21
289.5320847208
 31
0.0
  0
LINE
  5
18B
100
AcDbEntity
  8
0
  6
CONTINUOUS
 62
         7
100
AcDbLine
 10
273.6112195122
 20
296.5320847208
 30
0.0
 11
272.6112195122
 21
296.5320847208
 31
0.0
  0
LINE
  5
18C
100
AcDbEntity
  8
0
  6
CONTINUOUS
 62
         7
100
AcDbLine
 10
281.6112195122
 20
289.5320847208
 30
0.0
 11
282.6112195122
 21
289.5320847208
 31
0.0
  0
LINE
  5
18D
100
AcDbEntity
  8
0
  6
CONTINUOUS
 62
         7
100
AcDbLine
 10
282.6112195122
 20
296.5320847208
 30
0.0
 11
281.6112195122
 21
296.5320847208
 31
0.0
  0
LINE
  5
18E
100
AcDbEntity
  8
0
  6
CONTINUOUS
 62
         7
100
AcDbLine
 10
289.9112195122
 20
318.0320847208
 30
0.0
 11
293.3112195122
 21
318.0320847208
 31
0.0
  0
LINE
  5
18F
100
AcDbEntity
  8
0
  6
CONTINUOUS
 62
         7
100
AcDbLine
 10
281.6112195122
 20
297.0320847208
 30
0.0
 11
281.6112195122
 21
297.8824784216
 31
0.0
  0
LINE
  5
190
100
AcDbEntity
  8
0
  6
CONTINUOUS
 62
         7
100
AcDbLine
 10
273.6112195122
 20
297.0320847208
 30
0.0
 11
273.6112195122
 21
297.8824784216
 31
0.0
  0
LINE
  5
191
100
AcDbEntity
  8
0
  6
CONTINUOUS
 62
         7
100
AcDbLine
 10
281.6112195122
 20
288.18169102
 30
0.0
 11
281.6112195122
 21
289.0320847208
 31
0.0
  0
LINE
  5
192
100
AcDbEntity
  8
0
  6
CONTINUOUS
 62
         7
100
AcDbLine
 10
273.6112195122
 20
288.18169102
 30
0.0
 11
273.6112195122
 21
289.0320847208
 31
0.0
  0
LINE
  5
193
100
AcDbEntity
  8
0
  6
CONTINUOUS
 62
         7
100
AcDbLine
 10
281.6112195122
 20
297.8824784216
 30
0.0
 11
281.6112195122
 21
304.2320847208
 31
0.0
  0
LINE
  5
194
100
AcDbEntity
  8
0
  6
CONTINUOUS
 62
         7
100
AcDbLine
 10
281.6112195122
 20
281.8320847208
 30
0.0
 11
281.6112195122
 21
288.18169102
 31
0.0
  0
LINE
  5
195
100
AcDbEntity
  8
0
  6
CONTINUOUS
 62
         7
100
AcDbLine
 10
273.6112195122
 20
297.8824784216
 30
0.0
 11
273.6112195122
 21
304.2320847208
 31
0.0
  0
LINE
  5
196
100
AcDbEntity
  8
0
  6
CONTINUOUS
 62
         7
100
AcDbLine
 10
273.6112195122
 20
281.8320847208
 30
0.0
 11
273.6112195122
 21
288.18169102
 31
0.0
  0
POLYLINE
  5
197
100
AcDbEntity
  8
0
  6
CONTINUOUS
 62
         7
100
AcDb2dPolyline
 66
         1
 10
0.0
 20
0.0
 30
0.0
 70
       128
  0
VERTEX
  5
198
100
AcDbEntity
  8
0
100
AcDbVertex
100
AcDb2dVertex
 10
325.6112195122
 20
303.7801077949
 30
0.0
  0
VERTEX
  5
199
100
AcDbEntity
  8
0
100
AcDbVertex
100
AcDb2dVertex
 10
326.258267125
 20
303.8403429931
 30
0.0
  0
VERTEX
  5
19A
100
AcDbEntity
  8
0
100
AcDbVertex
100
AcDb2dVertex
 10
326.8612195122
 20
304.0169436586
 30
0.0
  0
VERTEX
  5
19B
100
AcDbEntity
  8
0
100
AcDbVertex
100
AcDb2dVertex
 10
327.3789864652
 20
304.2978747478
 30
0.0
  0
VERTEX
  5
19C
100
AcDbEntity
  8
0
100
AcDbVertex
100
AcDb2dVertex
 10
327.7762830217
 20
304.6639912714
 30
0.0
  0
VERTEX
  5
19D
100
AcDbEntity
  8
0
100
AcDbVertex
100
AcDb2dVertex
 10
328.0260340779
 20
305.0903429931
 30
0.0
  0
VERTEX
  5
19E
100
AcDbEntity
  8
0
100
AcDbVertex
100
AcDb2dVertex
 10
328.1112195122
 20
305.5478747478
 30
0.0
  0
SEQEND
  5
19F
100
AcDbEntity
  8
0
  0
POLYLINE
  5
1A0
100
AcDbEntity
  8
0
  6
CONTINUOUS
 62
         7
100
AcDb2dPolyline
 66
         1
 10
0.0
 20
0.0
 30
0.0
 70
       128
  0
VERTEX
  5
1A1
100
AcDbEntity
  8
0
100
AcDbVertex
100
AcDb2dVertex
 10
323.1112195122
 20
305.5478747478
 30
0.0
  0
VERTEX
  5
1A2
100
AcDbEntity
  8
0
100
AcDbVertex
100
AcDb2dVertex
 10
323.1964049465
 20
305.0903429931
 30
0.0
  0
VERTEX
  5
1A3
100
AcDbEntity
  8
0
100
AcDbVertex
100
AcDb2dVertex
 10
323.4461560027
 20
304.6639912714
 30
0.0
  0
VERTEX
  5
1A4
100
AcDbEntity
  8
0
100
AcDbVertex
100
AcDb2dVertex
 10
323.8434525592
 20
304.2978747478
 30
0.0
  0
VERTEX
  5
1A5
100
AcDbEntity
  8
0
100
AcDbVertex
100
AcDb2dVertex
 10
324.3612195122
 20
304.0169436586
 30
0.0
  0
VERTEX
  5
1A6
100
AcDbEntity
  8
0
100
AcDbVertex
100
AcDb2dVertex
 10
324.9641718994
 20
303.8403429931
 30
0.0
  0
VERTEX
  5
1A7
100
AcDbEntity
  8
0
100
AcDbVertex
100
AcDb2dVertex
 10
325.6112195122
 20
303.7801077949
 30
0.0
  0
SEQEND
  5
1A8
100
AcDbEntity
  8
0
  0
LINE
  5
1A9
100
AcDbEntity
  8
0
  6
CONTINUOUS
 62
         7
100
AcDbLine
 10
321.6112195122
 20
302.7194476231
 30
0.0
 11
329.6112195122
 21
302.7194476231
 31
0.0
  0
LINE
  5
1AA
100
AcDbEntity
  8
0
  6
CONTINUOUS
 62
         7
100
AcDbLine
 10
321.6112195122
 20
308.3763018726
 30
0.0
 11
329.6112195122
 21
308.3763018726
 31
0.0
  0
LINE
  5
1AB
100
AcDbEntity
  8
0
  6
CONTINUOUS
 62
         7
100
AcDbLine
 10
321.6112195122
 20
302.7194476231
 30
0.0
 11
321.6112195122
 21
308.3763018726
 31
0.0
  0
LINE
  5
1AC
100
AcDbEntity
  8
0
  6
CONTINUOUS
 62
         7
100
AcDbLine
 10
329.6112195122
 20
302.7194476231
 30
0.0
 11
329.6112195122
 21
308.3763018726
 31
0.0
  0
LINE
  5
1AD
100
AcDbEntity
  8
0
  6
CONTINUOUS
 62
         7
100
AcDbLine
 10
321.6112195122
 20
298.298100134
 30
0.0
 11
321.6112195122
 21
302.7194476231
 31
0.0
  0
LINE
  5
1AE
100
AcDbEntity
  8
0
  6
CONTINUOUS
 62
         7
100
AcDbLine
 10
329.6112195122
 20
298.298100134
 30
0.0
 11
329.6112195122
 21
302.7194476231
 31
0.0
  0
LINE
  5
1AF
100
AcDbEntity
  8
0
  6
CONTINUOUS
 62
         7
100
AcDbLine
 10
321.6112195122
 20
281.8320847208
 30
0.0
 11
321.6112195122
 21
296.7407444613
 31
0.0
  0
LINE
  5
1B0
100
AcDbEntity
  8
0
  6
CONTINUOUS
 62
         7
100
AcDbLine
 10
329.6112195122
 20
281.8320847208
 30
0.0
 11
329.6112195122
 21
296.7407444613
 31
0.0
  0
POLYLINE
  5
1B1
100
AcDbEntity
  8
0
  6
CONTINUOUS
 62
         7
100
AcDb2dPolyline
 66
         1
 10
0.0
 20
0.0
 30
0.0
 70
       128
  0
VERTEX
  5
1B2
100
AcDbEntity
  8
0
100
AcDbVertex
100
AcDb2dVertex
 10
326.8628007864
 20
304.5832751807
 30
0.0
  0
VERTEX
  5
1B3
100
AcDbEntity
  8
0
100
AcDbVertex
100
AcDb2dVertex
 10
326.3742293178
 20
304.4301386515
 30
0.0
  0
VERTEX
  5
1B4
100
AcDbEntity
  8
0
100
AcDbVertex
100
AcDb2dVertex
 10
325.7018618417
 20
304.3469555243
 30
0.0
  0
VERTEX
  5
1B5
100
AcDbEntity
  8
0
100
AcDbVertex
100
AcDb2dVertex
 10
325.022737279
 20
304.3954669476
 30
0.0
  0
VERTEX
  5
1B6
100
AcDbEntity
  8
0
100
AcDbVertex
100
AcDb2dVertex
 10
324.3874821259
 20
304.5720565547
 30
0.0
  0
VERTEX
  5
1B7
100
AcDbEntity
  8
0
100
AcDbVertex
100
AcDb2dVertex
 10
323.8434525592
 20
304.8635601728
 30
0.0
  0
VERTEX
  5
1B8
100
AcDbEntity
  8
0
100
AcDbVertex
100
AcDb2dVertex
 10
323.431204189
 20
305.2482471685
 30
0.0
  0
VERTEX
  5
1B9
100
AcDbEntity
  8
0
100
AcDbVertex
100
AcDb2dVertex
 10
323.1814687717
 20
305.6974403951
 30
0.0
  0
VERTEX
  5
1BA
100
AcDbEntity
  8
0
100
AcDbVertex
100
AcDb2dVertex
 10
323.112863259
 20
306.1776539787
 30
0.0
  0
VERTEX
  5
1BB
100
AcDbEntity
  8
0
100
AcDbVertex
100
AcDb2dVertex
 10
323.2305019656
 20
306.6530895804
 30
0.0
  0
VERTEX
  5
1BC
100
AcDbEntity
  8
0
100
AcDbVertex
100
AcDb2dVertex
 10
323.525615314
 20
307.0883050442
 30
0.0
  0
SEQEND
  5
1BD
100
AcDbEntity
  8
0
  0
ARC
  5
1BE
100
AcDbEntity
  8
0
  6
CONTINUOUS
 62
         7
100
AcDbCircle
 10
323.6049024527
 20
307.0821006404
 30
0.0
 40
0.0795295227
100
AcDbArc
 50
34.7908121813
 51
175.5255894561
  0
ARC
  5
1BF
100
AcDbEntity
  8
0
  6
CONTINUOUS
 62
         7
100
AcDbCircle
 10
326.6429781514
 20
304.5977901509
 30
0.0
 40
0.3491573327
100
AcDbArc
 50
6.7477041814
 51
54.6244584968
  0
LINE
  5
1C0
100
AcDbEntity
  8
0
  6
CONTINUOUS
 62
         7
100
AcDbLine
 10
330.6112195122
 20
302.8608689793
 30
0.0
 11
330.6112195122
 21
303.285133048
 31
0.0
  0
LINE
  5
1C1
100
AcDbEntity
  8
0
  6
CONTINUOUS
 62
         7
100
AcDbLine
 10
320.6112195122
 20
303.285133048
 30
0.0
 11
320.6112195122
 21
302.8608689793
 31
0.0
  0
LINE
  5
1C2
100
AcDbEntity
  8
0
  6
CONTINUOUS
 62
         7
100
AcDbLine
 10
326.9897169292
 20
304.426683267
 30
0.0
 11
326.9897169292
 21
304.6388153014
 31
0.0
  0
POLYLINE
  5
1C3
100
AcDbEntity
  8
0
  6
CONTINUOUS
 62
         7
100
AcDb2dPolyline
 66
         1
 10
0.0
 20
0.0
 30
0.0
 70
       128
  0
VERTEX
  5
1C4
100
AcDbEntity
  8
0
100
AcDbVertex
100
AcDb2dVertex
 10
326.9897169292
 20
304.426683267
 30
0.0
  0
VERTEX
  5
1C5
100
AcDbEntity
  8
0
100
AcDbVertex
100
AcDb2dVertex
 10
327.0929145939
 20
304.47759885
 30
0.0
  0
VERTEX
  5
1C6
100
AcDbEntity
  8
0
100
AcDbVertex
100
AcDb2dVertex
 10
327.1923583423
 20
304.5321217447
 30
0.0
  0
VERTEX
  5
1C7
100
AcDbEntity
  8
0
100
AcDbVertex
100
AcDb2dVertex
 10
327.2877962309
 20
304.5901138157
 30
0.0
  0
VERTEX
  5
1C8
100
AcDbEntity
  8
0
100
AcDbVertex
100
AcDb2dVertex
 10
327.3789864652
 20
304.6514281384
 30
0.0
  0
VERTEX
  5
1C9
100
AcDbEntity
  8
0
100
AcDbVertex
100
AcDb2dVertex
 10
327.465698012
 20
304.7159093714
 30
0.0
  0
VERTEX
  5
1CA
100
AcDbEntity
  8
0
100
AcDbVertex
100
AcDb2dVertex
 10
327.5477111853
 20
304.7833941497
 30
0.0
  0
VERTEX
  5
1CB
100
AcDbEntity
  8
0
100
AcDbVertex
100
AcDb2dVertex
 10
327.6248182023
 20
304.8537114985
 30
0.0
  0
VERTEX
  5
1CC
100
AcDbEntity
  8
0
100
AcDbVertex
100
AcDb2dVertex
 10
327.6968237104
 20
304.926683267
 30
0.0
  0
SEQEND
  5
1CD
100
AcDbEntity
  8
0
  0
LINE
  5
1CE
100
AcDbEntity
  8
0
  6
CONTINUOUS
 62
         7
100
AcDbLine
 10
327.6968237104
 20
304.926683267
 30
0.0
 11
327.6968237104
 21
305.1388153014
 31
0.0
  0
POLYLINE
  5
1CF
100
AcDbEntity
  8
0
  6
CONTINUOUS
 62
         7
100
AcDb2dPolyline
 66
         1
 10
0.0
 20
0.0
 30
0.0
 70
       128
  0
VERTEX
  5
1D0
100
AcDbEntity
  8
0
100
AcDbVertex
100
AcDb2dVertex
 10
328.1112195122
 20
306.1135601728
 30
0.0
  0
VERTEX
  5
1D1
100
AcDbEntity
  8
0
100
AcDbVertex
100
AcDb2dVertex
 10
328.1095757654
 20
306.0494663669
 30
0.0
  0
VERTEX
  5
1D2
100
AcDbEntity
  8
0
100
AcDbVertex
100
AcDb2dVertex
 10
327.9919370588
 20
305.5740307651
 30
0.0
  0
VERTEX
  5
1D3
100
AcDbEntity
  8
0
100
AcDbVertex
100
AcDb2dVertex
 10
327.6968237104
 20
305.1388153014
 30
0.0
  0
SEQEND
  5
1D4
100
AcDbEntity
  8
0
  0
LINE
  5
1D5
100
AcDbEntity
  8
0
  6
CONTINUOUS
 62
         7
100
AcDbLine
 10
324.2327220952
 20
307.3761730098
 30
0.0
 11
324.2327220952
 21
307.5883050442
 31
0.0
  0
POLYLINE
  5
1D6
100
AcDbEntity
  8
0
  6
CONTINUOUS
 62
         7
100
AcDb2dPolyline
 66
         1
 10
0.0
 20
0.0
 30
0.0
 70
       128
  0
VERTEX
  5
1D7
100
AcDbEntity
  8
0
100
AcDbVertex
100
AcDb2dVertex
 10
324.2327220952
 20
307.3761730098
 30
0.0
  0
VERTEX
  5
1D8
100
AcDbEntity
  8
0
100
AcDbVertex
100
AcDb2dVertex
 10
324.1295244305
 20
307.3252574268
 30
0.0
  0
VERTEX
  5
1D9
100
AcDbEntity
  8
0
100
AcDbVertex
100
AcDb2dVertex
 10
324.0300806821
 20
307.2707345322
 30
0.0
  0
VERTEX
  5
1DA
100
AcDbEntity
  8
0
100
AcDbVertex
100
AcDb2dVertex
 10
323.9346427935
 20
307.2127424612
 30
0.0
  0
VERTEX
  5
1DB
100
AcDbEntity
  8
0
100
AcDbVertex
100
AcDb2dVertex
 10
323.8434525592
 20
307.1514281384
 30
0.0
  0
VERTEX
  5
1DC
100
AcDbEntity
  8
0
100
AcDbVertex
100
AcDb2dVertex
 10
323.7567410124
 20
307.0869469054
 30
0.0
  0
VERTEX
  5
1DD
100
AcDbEntity
  8
0
100
AcDbVertex
100
AcDb2dVertex
 10
323.7429347836
 20
307.0760583298
 30
0.0
  0
SEQEND
  5
1DE
100
AcDbEntity
  8
0
  0
LINE
  5
1DF
100
AcDbEntity
  8
0
  6
CONTINUOUS
 62
         7
100
AcDbLine
 10
323.670215335
 20
307.1274787451
 30
0.0
 11
326.8451169082
 21
304.882484313
 31
0.0
  0
LINE
  5
1E0
100
AcDbEntity
  8
0
  6
CONTINUOUS
 62
         7
100
AcDbLine
 10
330.6112195122
 20
303.285133048
 30
0.0
 11
330.6112195122
 21
307.8106164476
 31
0.0
  0
LINE
  5
1E1
100
AcDbEntity
  8
0
  6
CONTINUOUS
 62
         7
100
AcDbLine
 10
314.6112195122
 20
298.5834328593
 30
0.0
 11
314.6112195122
 21
303.0730010137
 31
0.0
  0
LINE
  5
1E2
100
AcDbEntity
  8
0
  6
CONTINUOUS
 62
         7
100
AcDbLine
 10
336.6112195122
 20
307.5984844133
 30
0.0
 11
336.6112195122
 21
303.0730010137
 31
0.0
  0
LINE
  5
1E3
100
AcDbEntity
  8
0
  6
CONTINUOUS
 62
         7
100
AcDbLine
 10
314.6112195122
 20
303.0730010137
 30
0.0
 11
314.6112195122
 21
307.5984844133
 31
0.0
  0
POLYLINE
  5
1E4
100
AcDbEntity
  8
0
  6
CONTINUOUS
 62
         7
100
AcDb2dPolyline
 66
         1
 10
0.0
 20
0.0
 30
0.0
 70
       128
  0
VERTEX
  5
1E5
100
AcDbEntity
  8
0
100
AcDbVertex
100
AcDb2dVertex
 10
316.3665881776
 20
305.6447290361
 30
0.0
  0
VERTEX
  5
1E6
100
AcDbEntity
  8
0
100
AcDbVertex
100
AcDb2dVertex
 10
316.3612195122
 20
305.5478747478
 30
0.0
  0
VERTEX
  5
1E7
100
AcDbEntity
  8
0
100
AcDbVertex
100
AcDb2dVertex
 10
316.4468706087
 20
305.1654857264
 30
0.0
  0
VERTEX
  5
1E8
100
AcDbEntity
  8
0
100
AcDbVertex
100
AcDb2dVertex
 10
316.695439772
 20
304.8205276067
 30
0.0
  0
VERTEX
  5
1E9
100
AcDbEntity
  8
0
100
AcDbVertex
100
AcDb2dVertex
 10
317.0825953207
 20
304.5467672929
 30
0.0
  0
VERTEX
  5
1EA
100
AcDbEntity
  8
0
100
AcDbVertex
100
AcDb2dVertex
 10
317.570439772
 20
304.3710023519
 30
0.0
  0
VERTEX
  5
1EB
100
AcDbEntity
  8
0
100
AcDbVertex
100
AcDb2dVertex
 10
318.1112195122
 20
304.3104378808
 30
0.0
  0
VERTEX
  5
1EC
100
AcDbEntity
  8
0
100
AcDbVertex
100
AcDb2dVertex
 10
318.6519992524
 20
304.3710023519
 30
0.0
  0
VERTEX
  5
1ED
100
AcDbEntity
  8
0
100
AcDbVertex
100
AcDb2dVertex
 10
319.1398437037
 20
304.5467672929
 30
0.0
  0
VERTEX
  5
1EE
100
AcDbEntity
  8
0
100
AcDbVertex
100
AcDb2dVertex
 10
319.5269992524
 20
304.8205276067
 30
0.0
  0
VERTEX
  5
1EF
100
AcDbEntity
  8
0
100
AcDbVertex
100
AcDb2dVertex
 10
319.7755684157
 20
305.1654857264
 30
0.0
  0
VERTEX
  5
1F0
100
AcDbEntity
  8
0
100
AcDbVertex
100
AcDb2dVertex
 10
319.8612195122
 20
305.5478747478
 30
0.0
  0
VERTEX
  5
1F1
100
AcDbEntity
  8
0
100
AcDbVertex
100
AcDb2dVertex
 10
319.8517306672
 20
305.6765621972
 30
0.0
  0
SEQEND
  5
1F2
100
AcDbEntity
  8
0
  0
LINE
  5
1F3
100
AcDbEntity
  8
0
  6
CONTINUOUS
 62
         7
100
AcDbLine
 10
320.6112195122
 20
307.8106164476
 30
0.0
 11
320.6112195122
 21
303.285133048
 31
0.0
  0
LINE
  5
1F4
100
AcDbEntity
  8
0
  6
CONTINUOUS
 62
         7
100
AcDbLine
 10
336.6112195122
 20
303.0730010137
 30
0.0
 11
336.6112195122
 21
298.5834328593
 31
0.0
  0
LINE
  5
1F5
100
AcDbEntity
  8
0
  6
CONTINUOUS
 62
         7
100
AcDbLine
 10
329.6112195122
 20
302.7194476231
 30
0.0
 11
330.6112195122
 21
302.7194476231
 31
0.0
  0
LINE
  5
1F6
100
AcDbEntity
  8
0
  6
CONTINUOUS
 62
         7
100
AcDbLine
 10
320.6112195122
 20
302.7194476231
 30
0.0
 11
321.6112195122
 21
302.7194476231
 31
0.0
  0
LINE
  5
1F7
100
AcDbEntity
  8
0
  6
CONTINUOUS
 62
         7
100
AcDbLine
 10
330.6112195122
 20
302.7194476231
 30
0.0
 11
330.6112195122
 21
302.8608689793
 31
0.0
  0
LINE
  5
1F8
100
AcDbEntity
  8
0
  6
CONTINUOUS
 62
         7
100
AcDbLine
 10
320.6112195122
 20
302.7194476231
 30
0.0
 11
320.6112195122
 21
302.8608689793
 31
0.0
  0
LINE
  5
1F9
100
AcDbEntity
  8
0
  6
CONTINUOUS
 62
         7
100
AcDbLine
 10
330.6112195122
 20
307.6691950914
 30
0.0
 11
329.6112195122
 21
307.6691950914
 31
0.0
  0
LINE
  5
1FA
100
AcDbEntity
  8
0
  6
CONTINUOUS
 62
         7
100
AcDbLine
 10
321.6112195122
 20
307.6691950914
 30
0.0
 11
320.6112195122
 21
307.6691950914
 31
0.0
  0
LINE
  5
1FB
100
AcDbEntity
  8
0
  6
CONTINUOUS
 62
         7
100
AcDbLine
 10
327.6968237104
 20
304.926683267
 30
0.0
 11
324.2327220952
 21
307.3761730098
 31
0.0
  0
POLYLINE
  5
1FC
100
AcDbEntity
  8
0
  6
CONTINUOUS
 62
         7
100
AcDb2dPolyline
 66
         1
 10
0.0
 20
0.0
 30
0.0
 70
       128
  0
VERTEX
  5
1FD
100
AcDbEntity
  8
0
100
AcDbVertex
100
AcDb2dVertex
 10
324.3773221161
 20
307.6274787451
 30
0.0
  0
VERTEX
  5
1FE
100
AcDbEntity
  8
0
100
AcDbVertex
100
AcDb2dVertex
 10
324.3636189705
 20
307.63653414
 30
0.0
  0
VERTEX
  5
1FF
100
AcDbEntity
  8
0
100
AcDbVertex
100
AcDb2dVertex
 10
324.315479293
 20
307.657652961
 30
0.0
  0
VERTEX
  5
200
100
AcDbEntity
  8
0
100
AcDbVertex
100
AcDb2dVertex
 10
324.2747858366
 20
307.6583329958
 30
0.0
  0
VERTEX
  5
201
100
AcDbEntity
  8
0
100
AcDbVertex
100
AcDb2dVertex
 10
324.2465225528
 20
307.6388882167
 30
0.0
  0
VERTEX
  5
202
100
AcDbEntity
  8
0
100
AcDbVertex
100
AcDb2dVertex
 10
324.23350191
 20
307.6024343299
 30
0.0
  0
VERTEX
  5
203
100
AcDbEntity
  8
0
100
AcDbVertex
100
AcDb2dVertex
 10
324.2327220952
 20
307.5883050442
 30
0.0
  0
SEQEND
  5
204
100
AcDbEntity
  8
0
  0
LINE
  5
205
100
AcDbEntity
  8
0
  6
CONTINUOUS
 62
         7
100
AcDbLine
 10
327.5522236894
 20
305.382484313
 30
0.0
 11
324.3773221161
 21
307.6274787451
 31
0.0
  0
ARC
  5
206
100
AcDbEntity
  8
0
  6
CONTINUOUS
 62
         7
100
AcDbCircle
 10
327.3427388724
 20
305.0934307928
 30
0.0
 40
0.3569815486
100
AcDbArc
 50
7.3040109876
 51
54.0681516938
  0
LINE
  5
207
100
AcDbEntity
  8
0
  6
CONTINUOUS
 62
         7
100
AcDbLine
 10
321.6112195122
 20
296.7407444613
 30
0.0
 11
321.6112195122
 21
298.298100134
 31
0.0
  0
LINE
  5
208
100
AcDbEntity
  8
0
  6
CONTINUOUS
 62
         7
100
AcDbLine
 10
329.6112195122
 20
296.7407444613
 30
0.0
 11
329.6112195122
 21
298.298100134
 31
0.0
  0
LINE
  5
209
100
AcDbEntity
  8
0
  6
CONTINUOUS
 62
         7
100
AcDbLine
 10
314.6112195122
 20
298.4662755717
 30
0.0
 11
314.6112195122
 21
298.5834328593
 31
0.0
  0
LINE
  5
20A
100
AcDbEntity
  8
0
  6
CONTINUOUS
 62
         7
100
AcDbLine
 10
336.6112195122
 20
298.5834328593
 30
0.0
 11
336.6112195122
 21
298.4662755717
 31
0.0
  0
LINE
  5
20B
100
AcDbEntity
  8
0
  6
CONTINUOUS
 62
         7
100
AcDbLine
 10
330.6112195122
 20
307.8106164476
 30
0.0
 11
330.6112195122
 21
307.8984844133
 31
0.0
  0
LINE
  5
20C
100
AcDbEntity
  8
0
  6
CONTINUOUS
 62
         7
100
AcDbLine
 10
320.6112195122
 20
307.8984844133
 30
0.0
 11
320.6112195122
 21
307.8106164476
 31
0.0
  0
POLYLINE
  5
20D
100
AcDbEntity
  8
0
  6
CONTINUOUS
 62
         7
100
AcDb2dPolyline
 66
         1
 10
0.0
 20
0.0
 30
0.0
 70
       128
  0
VERTEX
  5
20E
100
AcDbEntity
  8
0
100
AcDbVertex
100
AcDb2dVertex
 10
337.9112195122
 20
321.1042239339
 30
0.0
  0
VERTEX
  5
20F
100
AcDbEntity
  8
0
100
AcDbVertex
100
AcDb2dVertex
 10
338.0033302013
 20
321.494539168
 30
0.0
  0
VERTEX
  5
210
100
AcDbEntity
  8
0
100
AcDbVertex
100
AcDb2dVertex
 10
338.2696806462
 20
321.8425576901
 30
0.0
  0
VERTEX
  5
211
100
AcDbEntity
  8
0
100
AcDbVertex
100
AcDb2dVertex
 10
338.6814076434
 20
322.1105662933
 30
0.0
  0
VERTEX
  5
212
100
AcDbEntity
  8
0
100
AcDbVertex
100
AcDb2dVertex
 10
339.1938941841
 20
322.2695220869
 30
0.0
  0
VERTEX
  5
213
100
AcDbEntity
  8
0
100
AcDbVertex
100
AcDb2dVertex
 10
339.7516043995
 20
322.3021997441
 30
0.0
  0
VERTEX
  5
214
100
AcDbEntity
  8
0
100
AcDbVertex
100
AcDb2dVertex
 10
340.2941017341
 20
322.2050581338
 30
0.0
  0
VERTEX
  5
215
100
AcDbEntity
  8
0
100
AcDbVertex
100
AcDb2dVertex
 10
340.762598184
 20
321.9886240567
 30
0.0
  0
VERTEX
  5
216
100
AcDbEntity
  8
0
100
AcDbVertex
100
AcDb2dVertex
 10
341.1063248892
 20
321.6763515034
 30
0.0
  0
VERTEX
  5
217
100
AcDbEntity
  8
0
100
AcDbVertex
100
AcDb2dVertex
 10
341.288033728
 20
321.3020800505
 30
0.0
  0
VERTEX
  5
218
100
AcDbEntity
  8
0
100
AcDbVertex
100
AcDb2dVertex
 10
341.3112195122
 20
321.1042239339
 30
0.0
  0
SEQEND
  5
219
100
AcDbEntity
  8
0
  0
LINE
  5
21A
100
AcDbEntity
  8
0
  6
CONTINUOUS
 62
         7
100
AcDbLine
 10
109.8824857988
 20
189.4142929568
 30
0.0
 11
109.985286223
 21
189.4142929568
 31
0.0
  0
LINE
  5
21B
100
AcDbEntity
  8
0
  6
CONTINUOUS
 62
         7
100
AcDbLine
 10
109.8824857988
 20
189.4142929568
 30
0.0
 11
109.8824857988
 21
189.6198938051
 31
0.0
  0
LINE
  5
21C
100
AcDbEntity
  8
0
  6
CONTINUOUS
 62
         7
100
AcDbLine
 10
90.8824857988
 20
195.4142929568
 30
0.0
 11
88.8824857988
 21
195.4142929568
 31
0.0
  0
LINE
  5
21D
100
AcDbEntity
  8
0
  6
CONTINUOUS
 62
         7
100
AcDbLine
 10
88.8824857988
 20
183.4142929568
 30
0.0
 11
90.8824857988
 21
183.4142929568
 31
0.0
  0
ARC
  5
21E
100
AcDbEntity
  8
0
  6
CONTINUOUS
 62
         7
100
AcDbCircle
 10
108.5311663307
 20
207.0818301552
 30
0.0
 40
0.4
100
AcDbArc
 50
117.6437345335
 51
175.3449265487
  0
ARC
  5
21F
100
AcDbEntity
  8
0
  6
CONTINUOUS
 62
         7
100
AcDbCircle
 10
111.2338052669
 20
207.0818301552
 30
0.0
 40
0.4
100
AcDbArc
 50
4.6550734513
 51
62.3562654665
  0
ARC
  5
220
100
AcDbEntity
  8
0
  6
CONTINUOUS
 62
         7
100
AcDbCircle
 10
109.8824857988
 20
204.5017929568
 30
0.0
 40
3.3125
100
AcDbArc
 50
62.3562654665
 51
117.6437345335
  0
ARC
  5
221
100
AcDbEntity
  8
0
  6
CONTINUOUS
 62
         7
100
AcDbCircle
 10
112.1824857988
 20
207.9142929568
 30
0.0
 40
0.2
100
AcDbArc
 50
0.0
 51
90.0
  0
LINE
  5
222
100
AcDbEntity
  8
0
  6
CONTINUOUS
 62
         7
100
AcDbLine
 10
112.3824857988
 20
207.1142929568
 30
0.0
 11
112.3824857988
 21
207.9142929568
 31
0.0
  0
LINE
  5
223
100
AcDbEntity
  8
0
  6
CONTINUOUS
 62
         7
100
AcDbLine
 10
107.3824857988
 20
207.9142929568
 30
0.0
 11
107.3824857988
 21
207.1142929568
 31
0.0
  0
ARC
  5
224
100
AcDbEntity
  8
0
  6
CONTINUOUS
 62
         7
100
AcDbCircle
 10
107.5824857988
 20
207.9142929568
 30
0.0
 40
0.2
100
AcDbArc
 50
90.0
 51
180.0
  0
LINE
  5
225
100
AcDbEntity
  8
0
  6
CONTINUOUS
 62
         7
100
AcDbLine
 10
105.8824857988
 20
205.8142929568
 30
0.0
 11
104.8824857988
 21
205.8142929568
 31
0.0
  0
LINE
  5
226
100
AcDbEntity
  8
0
  6
CONTINUOUS
 62
         7
100
AcDbLine
 10
96.7825801226
 20
205.8142929568
 30
0.0
 11
92.6666140792
 21
205.8142929568
 31
0.0
  0
LINE
  5
227
100
AcDbEntity
  8
0
  6
CONTINUOUS
 62
         7
100
AcDbLine
 10
84.8824857988
 20
202.4142929568
 30
0.0
 11
91.3824857988
 21
202.4142929568
 31
0.0
  0
LINE
  5
228
100
AcDbEntity
  8
0
  6
CONTINUOUS
 62
         7
100
AcDbLine
 10
92.6666140792
 20
205.8142929568
 30
0.0
 11
84.8824857988
 21
205.8142929568
 31
0.0
  0
LINE
  5
229
100
AcDbEntity
  8
0
  6
CONTINUOUS
 62
         7
100
AcDbLine
 10
97.9823914749
 20
205.8142929568
 30
0.0
 11
96.7825801226
 21
205.8142929568
 31
0.0
  0
LINE
  5
22A
100
AcDbEntity
  8
0
  6
CONTINUOUS
 62
         7
100
AcDbLine
 10
102.0983575184
 20
205.8142929568
 30
0.0
 11
97.9823914749
 21
205.8142929568
 31
0.0
  0
LINE
  5
22B
100
AcDbEntity
  8
0
  6
CONTINUOUS
 62
         7
100
AcDbLine
 10
104.8824857988
 20
205.8142929568
 30
0.0
 11
102.0983575184
 21
205.8142929568
 31
0.0
  0
LINE
  5
22C
100
AcDbEntity
  8
0
  6
CONTINUOUS
 62
         7
100
AcDbLine
 10
88.8824857988
 20
191.6073953797
 30
0.0
 11
86.1124749504
 21
188.8373845313
 31
0.0
  0
LINE
  5
22D
100
AcDbEntity
  8
0
  6
CONTINUOUS
 62
         7
100
AcDbLine
 10
88.5166380064
 20
186.4332214752
 30
0.0
 11
88.8824857988
 21
186.7990692676
 31
0.0
  0
LINE
  5
22E
100
AcDbEntity
  8
0
  6
CONTINUOUS
 62
         7
100
AcDbLine
 10
83.0124281137
 20
180.9290115825
 30
0.0
 11
88.5166380064
 21
186.4332214752
 31
0.0
  0
LINE
  5
22F
100
AcDbEntity
  8
0
  6
CONTINUOUS
 62
         7
100
AcDbLine
 10
86.1124749504
 20
188.8373845313
 30
0.0
 11
80.6082650577
 21
183.3331746386
 31
0.0
  0
LINE
  5
230
100
AcDbEntity
  8
0
  6
CONTINUOUS
 62
         7
100
AcDbLine
 10
127.3824857988
 20
175.4142929568
 30
0.0
 11
92.3824857988
 21
175.4142929568
 31
0.0
  0
LINE
  5
231
100
AcDbEntity
  8
0
  6
CONTINUOUS
 62
         7
100
AcDbLine
 10
90.8824857988
 20
176.9142929568
 30
0.0
 11
92.3824857988
 21
175.4142929568
 31
0.0
  0
LINE
  5
232
100
AcDbEntity
  8
0
  6
CONTINUOUS
 62
         7
100
AcDbLine
 10
90.8824857988
 20
176.9142929568
 30
0.0
 11
90.8824857988
 21
201.9142929568
 31
0.0
  0
LINE
  5
233
100
AcDbEntity
  8
0
  6
CONTINUOUS
 62
         7
100
AcDbLine
 10
92.3824857988
 20
203.4142929568
 30
0.0
 11
90.8824857988
 21
201.9142929568
 31
0.0
  0
LINE
  5
234
100
AcDbEntity
  8
0
  6
CONTINUOUS
 62
         7
100
AcDbLine
 10
92.3824857988
 20
203.4142929568
 30
0.0
 11
127.3824857988
 21
203.4142929568
 31
0.0
  0
LINE
  5
235
100
AcDbEntity
  8
0
  6
CONTINUOUS
 62
         7
100
AcDbLine
 10
128.8824857988
 20
201.9142929568
 30
0.0
 11
127.3824857988
 21
203.4142929568
 31
0.0
  0
LINE
  5
236
100
AcDbEntity
  8
0
  6
CONTINUOUS
 62
         7
100
AcDbLine
 10
128.8824857988
 20
201.9142929568
 30
0.0
 11
128.8824857988
 21
176.9142929568
 31
0.0
  0
LINE
  5
237
100
AcDbEntity
  8
0
  6
CONTINUOUS
 62
         7
100
AcDbLine
 10
127.3824857988
 20
175.4142929568
 30
0.0
 11
128.8824857988
 21
176.9142929568
 31
0.0
  0
LINE
  5
238
100
AcDbEntity
  8
0
  6
CONTINUOUS
 62
         7
100
AcDbLine
 10
88.8824857988
 20
189.4142929568
 30
0.0
 11
88.8824857988
 21
195.4142929568
 31
0.0
  0
LINE
  5
239
100
AcDbEntity
  8
0
  6
CONTINUOUS
 62
         7
100
AcDbLine
 10
88.8824857988
 20
183.4142929568
 30
0.0
 11
88.8824857988
 21
189.4142929568
 31
0.0
  0
CIRCLE
  5
23A
100
AcDbEntity
  8
0
  6
CONTINUOUS
 62
         7
100
AcDbCircle
 10
109.8824857988
 20
189.4142929568
 30
0.0
 40
3.5
  0
CIRCLE
  5
23B
100
AcDbEntity
  8
0
  6
CONTINUOUS
 62
         7
100
AcDbCircle
 10
109.8824857988
 20
189.4142929568
 30
0.0
 40
4.0
  0
LINE
  5
23C
100
AcDbEntity
  8
0
  6
CONTINUOUS
 62
         7
100
AcDbLine
 10
115.8824857988
 20
192.8783945719
 30
0.0
 11
115.8824857988
 21
191.721194942
 31
0.0
  0
ARC
  5
23D
100
AcDbEntity
  8
0
  6
CONTINUOUS
 62
         7
100
AcDbCircle
 10
109.8824857988
 20
189.4142929568
 30
0.0
 40
6.4282032303
100
AcDbArc
 50
21.0309362668
 51
38.9690637332
  0
LINE
  5
23E
100
AcDbEntity
  8
0
  6
CONTINUOUS
 62
         7
100
AcDbLine
 10
114.8803215221
 20
193.4569943868
 30
0.0
 11
115.8824857988
 21
192.8783945719
 31
0.0
  0
ARC
  5
23F
100
AcDbEntity
  8
0
  6
CONTINUOUS
 62
         7
100
AcDbCircle
 10
109.8824857988
 20
189.4142929568
 30
0.0
 40
6.4282032303
100
AcDbArc
 50
81.0309362668
 51
98.9690637332
  0
LINE
  5
240
100
AcDbEntity
  8
0
  6
CONTINUOUS
 62
         7
100
AcDbLine
 10
108.8803215221
 20
195.7638963721
 30
0.0
 11
109.8824857988
 21
196.342496187
 31
0.0
  0
LINE
  5
241
100
AcDbEntity
  8
0
  6
CONTINUOUS
 62
         7
100
AcDbLine
 10
109.8824857988
 20
196.342496187
 30
0.0
 11
110.8846500755
 21
195.7638963721
 31
0.0
  0
ARC
  5
242
100
AcDbEntity
  8
0
  6
CONTINUOUS
 62
         7
100
AcDbCircle
 10
109.8824857988
 20
189.4142929568
 30
0.0
 40
6.4282032303
100
AcDbArc
 50
141.0309362668
 51
158.9690637332
  0
LINE
  5
243
100
AcDbEntity
  8
0
  6
CONTINUOUS
 62
         7
100
AcDbLine
 10
103.8824857988
 20
191.721194942
 30
0.0
 11
103.8824857988
 21
192.8783945719
 31
0.0
  0
LINE
  5
244
100
AcDbEntity
  8
0
  6
CONTINUOUS
 62
         7
100
AcDbLine
 10
103.8824857988
 20
192.8783945719
 30
0.0
 11
104.8846500755
 21
193.4569943868
 31
0.0
  0
LINE
  5
245
100
AcDbEntity
  8
0
  6
CONTINUOUS
 62
         7
100
AcDbLine
 10
115.8824857988
 20
191.721194942
 30
0.0
 11
115.8824857988
 21
187.1073909715
 31
0.0
  0
ARC
  5
246
100
AcDbEntity
  8
0
  6
CONTINUOUS
 62
         7
100
AcDbCircle
 10
109.8824857988
 20
189.4142929568
 30
0.0
 40
6.4282032303
100
AcDbArc
 50
321.0309362668
 51
338.9690637332
  0
LINE
  5
247
100
AcDbEntity
  8
0
  6
CONTINUOUS
 62
         7
100
AcDbLine
 10
114.8803215221
 20
185.3715915267
 30
0.0
 11
110.8846500755
 21
183.0646895414
 31
0.0
  0
ARC
  5
248
100
AcDbEntity
  8
0
  6
CONTINUOUS
 62
         7
100
AcDbCircle
 10
109.8824857988
 20
189.4142929568
 30
0.0
 40
6.4282032303
100
AcDbArc
 50
261.0309362668
 51
278.9690637332
  0
LINE
  5
249
100
AcDbEntity
  8
0
  6
CONTINUOUS
 62
         7
100
AcDbLine
 10
108.8803215221
 20
183.0646895414
 30
0.0
 11
104.8846500755
 21
185.3715915267
 31
0.0
  0
ARC
  5
24A
100
AcDbEntity
  8
0
  6
CONTINUOUS
 62
         7
100
AcDbCircle
 10
109.8824857988
 20
189.4142929568
 30
0.0
 40
6.4282032303
100
AcDbArc
 50
201.0309362668
 51
218.9690637332
  0
LINE
  5
24B
100
AcDbEntity
  8
0
  6
CONTINUOUS
 62
         7
100
AcDbLine
 10
103.8824857988
 20
187.1073909715
 30
0.0
 11
103.8824857988
 21
191.721194942
 31
0.0
  0
CIRCLE
  5
24C
100
AcDbEntity
  8
0
  6
CONTINUOUS
 62
         7
100
AcDbCircle
 10
109.8824857988
 20
189.4142929568
 30
0.0
 40
4.5
  0
LINE
  5
24D
100
AcDbEntity
  8
0
  6
CONTINUOUS
 62
         7
100
AcDbLine
 10
104.8846500755
 20
193.4569943868
 30
0.0
 11
108.8803215221
 21
195.7638963721
 31
0.0
  0
LINE
  5
24E
100
AcDbEntity
  8
0
  6
CONTINUOUS
 62
         7
100
AcDbLine
 10
110.8846500755
 20
195.7638963721
 30
0.0
 11
114.8803215221
 21
193.4569943868
 31
0.0
  0
LINE
  5
24F
100
AcDbEntity
  8
0
  6
CONTINUOUS
 62
         7
100
AcDbLine
 10
103.8824857988
 20
185.9501913416
 30
0.0
 11
103.8824857988
 21
187.1073909715
 31
0.0
  0
LINE
  5
250
100
AcDbEntity
  8
0
  6
CONTINUOUS
 62
         7
100
AcDbLine
 10
104.8846500755
 20
185.3715915267
 30
0.0
 11
103.8824857988
 21
185.9501913416
 31
0.0
  0
LINE
  5
251
100
AcDbEntity
  8
0
  6
CONTINUOUS
 62
         7
100
AcDbLine
 10
115.8824857988
 20
185.9501913416
 30
0.0
 11
114.8803215221
 21
185.3715915267
 31
0.0
  0
LINE
  5
252
100
AcDbEntity
  8
0
  6
CONTINUOUS
 62
         7
100
AcDbLine
 10
115.8824857988
 20
187.1073909715
 30
0.0
 11
115.8824857988
 21
185.9501913416
 31
0.0
  0
LINE
  5
253
100
AcDbEntity
  8
0
  6
CONTINUOUS
 62
         7
100
AcDbLine
 10
110.8846500755
 20
183.0646895414
 30
0.0
 11
109.8824857988
 21
182.4860897265
 31
0.0
  0
LINE
  5
254
100
AcDbEntity
  8
0
  6
CONTINUOUS
 62
         7
100
AcDbLine
 10
109.8824857988
 20
182.4860897265
 30
0.0
 11
108.8803215221
 21
183.0646895414
 31
0.0
  0
ARC
  5
255
100
AcDbEntity
  8
0
  6
CONTINUOUS
 62
         7
100
AcDbCircle
 10
113.0824857988
 20
206.8142929568
 30
0.0
 40
0.3
100
AcDbArc
 50
0.0
 51
90.0
  0
LINE
  5
256
100
AcDbEntity
  8
0
  6
CONTINUOUS
 62
         7
100
AcDbLine
 10
106.6824857988
 20
207.1142929568
 30
0.0
 11
113.0824857988
 21
207.1142929568
 31
0.0
  0
ARC
  5
257
100
AcDbEntity
  8
0
  6
CONTINUOUS
 62
         7
100
AcDbCircle
 10
106.6824857988
 20
206.8142929568
 30
0.0
 40
0.3
100
AcDbArc
 50
90.0
 51
180.0
  0
LINE
  5
258
100
AcDbEntity
  8
0
  6
CONTINUOUS
 62
         7
100
AcDbLine
 10
106.3824857988
 20
203.4142929568
 30
0.0
 11
106.3824857988
 21
206.8142929568
 31
0.0
  0
LINE
  5
259
100
AcDbEntity
  8
0
  6
CONTINUOUS
 62
         7
100
AcDbLine
 10
113.3824857988
 20
206.8142929568
 30
0.0
 11
113.3824857988
 21
203.4142929568
 31
0.0
  0
LINE
  5
25A
100
AcDbEntity
  8
0
  6
CONTINUOUS
 62
         7
100
AcDbLine
 10
105.8824857988
 20
207.1142929568
 30
0.0
 11
105.8824857988
 21
203.4142929568
 31
0.0
  0
LINE
  5
25B
100
AcDbEntity
  8
0
  6
CONTINUOUS
 62
         7
100
AcDbLine
 10
113.8824857988
 20
207.1142929568
 30
0.0
 11
113.0824857988
 21
207.1142929568
 31
0.0
  0
LINE
  5
25C
100
AcDbEntity
  8
0
  6
CONTINUOUS
 62
         7
100
AcDbLine
 10
106.6824857988
 20
207.1142929568
 30
0.0
 11
105.8824857988
 21
207.1142929568
 31
0.0
  0
LINE
  5
25D
100
AcDbEntity
  8
0
  6
CONTINUOUS
 62
         7
100
AcDbLine
 10
113.8824857988
 20
203.4142929568
 30
0.0
 11
113.8824857988
 21
207.1142929568
 31
0.0
  0
ARC
  5
25E
100
AcDbEntity
  8
0
  6
CONTINUOUS
 62
         7
100
AcDbCircle
 10
108.6718809871
 20
207.9451795007
 30
0.0
 40
0.1707100041
100
AcDbArc
 50
97.8422051337
 51
190.4239285191
  0
LINE
  5
25F
100
AcDbEntity
  8
0
  6
CONTINUOUS
 62
         7
100
AcDbLine
 10
108.6485884027
 20
208.1142929568
 30
0.0
 11
112.1824857988
 21
208.1142929568
 31
0.0
  0
LINE
  5
260
100
AcDbEntity
  8
0
  6
CONTINUOUS
 62
         7
100
AcDbLine
 10
107.7968816006
 20
207.6142929568
 30
0.0
 11
107.7968816006
 21
207.9142929568
 31
0.0
  0
LINE
  5
261
100
AcDbEntity
  8
0
  6
CONTINUOUS
 62
         7
100
AcDbLine
 10
107.7968816006
 20
207.6142929568
 30
0.0
 11
108.5039883818
 21
207.6142929568
 31
0.0
  0
LINE
  5
262
100
AcDbEntity
  8
0
  6
CONTINUOUS
 62
         7
100
AcDbLine
 10
108.5039883818
 20
207.6142929568
 30
0.0
 11
108.5039883818
 21
207.9142929568
 31
0.0
  0
ARC
  5
263
100
AcDbEntity
  8
0
  6
CONTINUOUS
 62
         7
100
AcDbCircle
 10
107.9744688127
 20
207.9381702989
 30
0.0
 40
0.1791852265
100
AcDbArc
 50
100.6084017833
 51
187.6577318881
  0
LINE
  5
264
100
AcDbEntity
  8
0
  6
CONTINUOUS
 62
         7
100
AcDbLine
 10
108.6485884027
 20
208.1142929568
 30
0.0
 11
107.9414816215
 21
208.1142929568
 31
0.0
  0
LINE
  5
265
100
AcDbEntity
  8
0
  6
CONTINUOUS
 62
         7
100
AcDbLine
 10
107.5824857988
 20
208.1142929568
 30
0.0
 11
107.9414816215
 21
208.1142929568
 31
0.0
  0
LINE
  5
266
100
AcDbEntity
  8
0
  6
CONTINUOUS
 62
         7
100
AcDbLine
 10
84.8824857988
 20
204.1142929568
 30
0.0
 11
84.8824857988
 21
205.8142929568
 31
0.0
  0
LINE
  5
267
100
AcDbEntity
  8
0
  6
CONTINUOUS
 62
         7
100
AcDbLine
 10
84.8824857988
 20
202.4142929568
 30
0.0
 11
84.8824857988
 21
204.1142929568
 31
0.0
  0
LINE
  5
268
100
AcDbEntity
  8
0
  6
CONTINUOUS
 62
         7
100
AcDbLine
 10
81.8103465857
 20
182.1310931105
 30
0.0
 11
80.6082650577
 21
183.3331746386
 31
0.0
  0
LINE
  5
269
100
AcDbEntity
  8
0
  6
CONTINUOUS
 62
         7
100
AcDbLine
 10
83.0124281137
 20
180.9290115825
 30
0.0
 11
81.8103465857
 21
182.1310931105
 31
0.0
  0
LINE
  5
26A
100
AcDbEntity
  8
0
  6
CONTINUOUS
 62
         7
100
AcDbLine
 10
484.7600168523
 20
189.4142929568
 30
0.0
 11
484.6572164282
 21
189.4142929568
 31
0.0
  0
LINE
  5
26B
100
AcDbEntity
  8
0
  6
CONTINUOUS
 62
         7
100
AcDbLine
 10
484.7600168523
 20
189.4142929568
 30
0.0
 11
484.7600168523
 21
189.6198938051
 31
0.0
  0
LINE
  5
26C
100
AcDbEntity
  8
0
  6
CONTINUOUS
 62
         7
100
AcDbLine
 10
503.7600168523
 20
183.4142929568
 30
0.0
 11
505.7600168523
 21
183.4142929568
 31
0.0
  0
LINE
  5
26D
100
AcDbEntity
  8
0
  6
CONTINUOUS
 62
         7
100
AcDbLine
 10
505.7600168523
 20
195.4142929568
 30
0.0
 11
503.7600168523
 21
195.4142929568
 31
0.0
  0
LINE
  5
26E
100
AcDbEntity
  8
0
  6
CONTINUOUS
 62
         7
100
AcDbLine
 10
496.6601111762
 20
205.8142929568
 30
0.0
 11
492.5441451327
 21
205.8142929568
 31
0.0
  0
LINE
  5
26F
100
AcDbEntity
  8
0
  6
CONTINUOUS
 62
         7
100
AcDbLine
 10
492.5441451327
 20
205.8142929568
 30
0.0
 11
489.7600168523
 21
205.8142929568
 31
0.0
  0
LINE
  5
270
100
AcDbEntity
  8
0
  6
CONTINUOUS
 62
         7
100
AcDbLine
 10
489.7600168523
 20
202.4142929568
 30
0.0
 11
492.1031626028
 21
202.4142929568
 31
0.0
  0
LINE
  5
271
100
AcDbEntity
  8
0
  6
CONTINUOUS
 62
         7
100
AcDbLine
 10
484.7600168523
 20
202.4142929568
 30
0.0
 11
489.7600168523
 21
202.4142929568
 31
0.0
  0
LINE
  5
272
100
AcDbEntity
  8
0
  6
CONTINUOUS
 62
         7
100
AcDbLine
 10
489.7600168523
 20
205.8142929568
 30
0.0
 11
484.7600168523
 21
205.8142929568
 31
0.0
  0
LINE
  5
273
100
AcDbEntity
  8
0
  6
CONTINUOUS
 62
         7
100
AcDbLine
 10
497.8599225285
 20
205.8142929568
 30
0.0
 11
496.6601111762
 21
205.8142929568
 31
0.0
  0
LINE
  5
274
100
AcDbEntity
  8
0
  6
CONTINUOUS
 62
         7
100
AcDbLine
 10
501.9758885719
 20
205.8142929568
 30
0.0
 11
497.8599225285
 21
205.8142929568
 31
0.0
  0
LINE
  5
275
100
AcDbEntity
  8
0
  6
CONTINUOUS
 62
         7
100
AcDbLine
 10
498.2058104687
 20
202.4142929568
 30
0.0
 11
501.9758885719
 21
202.4142929568
 31
0.0
  0
LINE
  5
276
100
AcDbEntity
  8
0
  6
CONTINUOUS
 62
         7
100
AcDbLine
 10
509.7600168523
 20
205.8142929568
 30
0.0
 11
501.9758885719
 21
205.8142929568
 31
0.0
  0
LINE
  5
277
100
AcDbEntity
  8
0
  6
CONTINUOUS
 62
         7
100
AcDbLine
 10
501.9758885719
 20
202.4142929568
 30
0.0
 11
509.7600168523
 21
202.4142929568
 31
0.0
  0
ARC
  5
278
100
AcDbEntity
  8
0
  6
CONTINUOUS
 62
         7
100
AcDbCircle
 10
487.0600168523
 20
207.9142929568
 30
0.0
 40
0.2
100
AcDbArc
 50
0.0
 51
90.0
  0
LINE
  5
279
100
AcDbEntity
  8
0
  6
CONTINUOUS
 62
         7
100
AcDbLine
 10
487.2600168523
 20
207.1142929568
 30
0.0
 11
487.2600168523
 21
207.9142929568
 31
0.0
  0
LINE
  5
27A
100
AcDbEntity
  8
0
  6
CONTINUOUS
 62
         7
100
AcDbLine
 10
482.2600168523
 20
207.9142929568
 30
0.0
 11
482.2600168523
 21
207.1142929568
 31
0.0
  0
ARC
  5
27B
100
AcDbEntity
  8
0
  6
CONTINUOUS
 62
         7
100
AcDbCircle
 10
482.4600168523
 20
207.9142929568
 30
0.0
 40
0.2
100
AcDbArc
 50
90.0
 51
180.0
  0
LINE
  5
27C
100
AcDbEntity
  8
0
  6
CONTINUOUS
 62
         7
100
AcDbLine
 10
499.4566149005
 20
193.1024712195
 30
0.0
 11
502.3670424009
 21
190.192043719
 31
0.0
  0
LINE
  5
27D
100
AcDbEntity
  8
0
  6
CONTINUOUS
 62
         7
100
AcDbLine
 10
504.7712054569
 20
192.5962067751
 30
0.0
 11
501.8607779565
 21
195.5066342755
 31
0.0
  0
LINE
  5
27E
100
AcDbEntity
  8
0
  6
CONTINUOUS
 62
         7
100
AcDbLine
 10
501.8607779565
 20
195.5066342755
 30
0.0
 11
499.8921019697
 21
197.4753102623
 31
0.0
  0
LINE
  5
27F
100
AcDbEntity
  8
0
  6
CONTINUOUS
 62
         7
100
AcDbLine
 10
497.4879389137
 20
195.0711472062
 30
0.0
 11
499.4566149005
 21
193.1024712195
 31
0.0
  0
LINE
  5
280
100
AcDbEntity
  8
0
  6
CONTINUOUS
 62
         7
100
AcDbLine
 10
493.9524050078
 20
198.6066811122
 30
0.0
 11
497.4879389137
 21
195.0711472062
 31
0.0
  0
LINE
  5
281
100
AcDbEntity
  8
0
  6
CONTINUOUS
 62
         7
100
AcDbLine
 10
499.8921019697
 20
197.4753102623
 30
0.0
 11
496.3565680638
 21
201.0108441682
 31
0.0
  0
LINE
  5
282
100
AcDbEntity
  8
0
  6
CONTINUOUS
 62
         7
100
AcDbLine
 10
505.6196002003
 20
191.7478120317
 30
0.0
 11
504.7712054569
 21
192.5962067751
 31
0.0
  0
LINE
  5
283
100
AcDbEntity
  8
0
  6
CONTINUOUS
 62
         7
100
AcDbLine
 10
502.3670424009
 20
190.192043719
 30
0.0
 11
503.2154371443
 21
189.3436489757
 31
0.0
  0
LINE
  5
284
100
AcDbEntity
  8
0
  6
CONTINUOUS
 62
         7
100
AcDbLine
 10
508.5300277007
 20
188.8373845313
 30
0.0
 11
505.6196002003
 21
191.7478120317
 31
0.0
  0
LINE
  5
285
100
AcDbEntity
  8
0
  6
CONTINUOUS
 62
         7
100
AcDbLine
 10
503.2154371443
 20
189.3436489757
 30
0.0
 11
506.1258646447
 21
186.4332214752
 31
0.0
  0
LINE
  5
286
100
AcDbEntity
  8
0
  6
CONTINUOUS
 62
         7
100
AcDbLine
 10
514.0342375935
 20
183.3331746386
 30
0.0
 11
508.5300277007
 21
188.8373845313
 31
0.0
  0
LINE
  5
287
100
AcDbEntity
  8
0
  6
CONTINUOUS
 62
         7
100
AcDbLine
 10
506.1258646447
 20
186.4332214752
 30
0.0
 11
511.6300745374
 21
180.9290115825
 31
0.0
  0
LINE
  5
288
100
AcDbEntity
  8
0
  6
CONTINUOUS
 62
         7
100
AcDbLine
 10
499.0435738323
 20
200.1623160308
 30
0.0
 11
499.6092592572
 21
200.7280014557
 31
0.0
  0
LINE
  5
289
100
AcDbEntity
  8
0
  6
CONTINUOUS
 62
         7
100
AcDbLine
 10
496.0737253513
 20
204.2635353617
 30
0.0
 11
495.5080399264
 21
203.6978499367
 31
0.0
  0
ARC
  5
28A
100
AcDbEntity
  8
0
  6
CONTINUOUS
 62
         7
100
AcDbCircle
 10
499.467837901
 20
200.869422812
 30
0.0
 40
0.2
100
AcDbArc
 50
315.0
 51
45.0
  0
ARC
  5
28B
100
AcDbEntity
  8
0
  6
CONTINUOUS
 62
         7
100
AcDbCircle
 10
496.2151467076
 20
204.1221140054
 30
0.0
 40
0.2
100
AcDbArc
 50
45.0
 51
135.0
  0
CIRCLE
  5
28C
100
AcDbEntity
  8
0
  6
CONTINUOUS
 62
         7
100
AcDbCircle
 10
484.7600168523
 20
189.4142929568
 30
0.0
 40
4.865
  0
CIRCLE
  5
28D
100
AcDbEntity
  8
0
  6
CONTINUOUS
 62
         7
100
AcDbCircle
 10
484.7600168523
 20
189.4142929568
 30
0.0
 40
4.7951797403
  0
LINE
  5
28E
100
AcDbEntity
  8
0
  6
CONTINUOUS
 62
         7
100
AcDbLine
 10
476.2600168523
 20
182.915062233
 30
0.0
 11
476.2600168523
 21
195.9135236805
 31
0.0
  0
LINE
  5
28F
100
AcDbEntity
  8
0
  6
CONTINUOUS
 62
         7
100
AcDbLine
 10
493.2600168523
 20
195.9135236805
 30
0.0
 11
493.2600168523
 21
182.915062233
 31
0.0
  0
ARC
  5
290
100
AcDbEntity
  8
0
  6
CONTINUOUS
 62
         7
100
AcDbCircle
 10
484.7600168523
 20
189.4142929568
 30
0.0
 40
10.7
100
AcDbArc
 50
217.4020844499
 51
322.5979155501
  0
ARC
  5
291
100
AcDbEntity
  8
0
  6
CONTINUOUS
 62
         7
100
AcDbCircle
 10
484.7600168523
 20
189.4142929568
 30
0.0
 40
10.7
100
AcDbArc
 50
37.4020844499
 51
142.5979155501
  0
ARC
  5
292
100
AcDbEntity
  8
0
  6
CONTINUOUS
 62
         7
100
AcDbCircle
 10
484.7600168523
 20
189.4142929568
 30
0.0
 40
10.7
100
AcDbArc
 50
322.5979155501
 51
37.4020844499
  0
ARC
  5
293
100
AcDbEntity
  8
0
  6
CONTINUOUS
 62
         7
100
AcDbCircle
 10
484.7600168523
 20
189.4142929568
 30
0.0
 40
10.7
100
AcDbArc
 50
142.5979155501
 51
217.4020844499
  0
LINE
  5
294
100
AcDbEntity
  8
0
  6
CONTINUOUS
 62
         7
100
AcDbLine
 10
467.2600168523
 20
175.4142929568
 30
0.0
 11
502.2600168523
 21
175.4142929568
 31
0.0
  0
LINE
  5
295
100
AcDbEntity
  8
0
  6
CONTINUOUS
 62
         7
100
AcDbLine
 10
465.7600168523
 20
176.9142929568
 30
0.0
 11
467.2600168523
 21
175.4142929568
 31
0.0
  0
LINE
  5
296
100
AcDbEntity
  8
0
  6
CONTINUOUS
 62
         7
100
AcDbLine
 10
465.7600168523
 20
201.9142929568
 30
0.0
 11
465.7600168523
 21
176.9142929568
 31
0.0
  0
LINE
  5
297
100
AcDbEntity
  8
0
  6
CONTINUOUS
 62
         7
100
AcDbLine
 10
467.2600168523
 20
203.4142929568
 30
0.0
 11
465.7600168523
 21
201.9142929568
 31
0.0
  0
LINE
  5
298
100
AcDbEntity
  8
0
  6
CONTINUOUS
 62
         7
100
AcDbLine
 10
480.7600168523
 20
203.4142929568
 30
0.0
 11
467.2600168523
 21
203.4142929568
 31
0.0
  0
LINE
  5
299
100
AcDbEntity
  8
0
  6
CONTINUOUS
 62
         7
100
AcDbLine
 10
503.7600168523
 20
176.9142929568
 30
0.0
 11
503.7600168523
 21
188.7990692676
 31
0.0
  0
LINE
  5
29A
100
AcDbEntity
  8
0
  6
CONTINUOUS
 62
         7
100
AcDbLine
 10
503.7600168523
 20
193.6073953797
 30
0.0
 11
503.7600168523
 21
201.9142929568
 31
0.0
  0
LINE
  5
29B
100
AcDbEntity
  8
0
  6
CONTINUOUS
 62
         7
100
AcDbLine
 10
503.7600168523
 20
201.9142929568
 30
0.0
 11
503.2600168523
 21
202.4142929568
 31
0.0
  0
LINE
  5
29C
100
AcDbEntity
  8
0
  6
CONTINUOUS
 62
         7
100
AcDbLine
 10
502.2600168523
 20
175.4142929568
 30
0.0
 11
503.7600168523
 21
176.9142929568
 31
0.0
  0
LINE
  5
29D
100
AcDbEntity
  8
0
  6
CONTINUOUS
 62
         7
100
AcDbLine
 10
505.7600168523
 20
195.4142929568
 30
0.0
 11
505.7600168523
 21
191.6073953797
 31
0.0
  0
LINE
  5
29E
100
AcDbEntity
  8
0
  6
CONTINUOUS
 62
         7
100
AcDbLine
 10
505.7600168523
 20
186.7990692676
 30
0.0
 11
505.7600168523
 21
183.4142929568
 31
0.0
  0
ARC
  5
29F
100
AcDbEntity
  8
0
  6
CONTINUOUS
 62
         7
100
AcDbCircle
 10
484.7600168523
 20
204.1142929568
 30
0.0
 40
1.7
100
AcDbArc
 50
90.0
 51
270.0
  0
LINE
  5
2A0
100
AcDbEntity
  8
0
  6
CONTINUOUS
 62
         7
100
AcDbLine
 10
509.7600168523
 20
205.8142929568
 30
0.0
 11
509.7600168523
 21
202.4142929568
 31
0.0
  0
LINE
  5
2A1
100
AcDbEntity
  8
0
  6
CONTINUOUS
 62
         7
100
AcDbLine
 10
481.5600168523
 20
207.1142929568
 30
0.0
 11
487.9600168523
 21
207.1142929568
 31
0.0
  0
LINE
  5
2A2
100
AcDbEntity
  8
0
  6
CONTINUOUS
 62
         7
100
AcDbLine
 10
488.2600168523
 20
206.8142929568
 30
0.0
 11
488.2600168523
 21
205.8142929568
 31
0.0
  0
LINE
  5
2A3
100
AcDbEntity
  8
0
  6
CONTINUOUS
 62
         7
100
AcDbLine
 10
488.2600168523
 20
202.4142929568
 30
0.0
 11
488.2600168523
 21
200.4650847836
 31
0.0
  0
ARC
  5
2A4
100
AcDbEntity
  8
0
  6
CONTINUOUS
 62
         7
100
AcDbCircle
 10
487.5600168523
 20
200.4650847836
 30
0.0
 40
0.7
100
AcDbArc
 50
327.4868653931
 51
0.0
  0
ARC
  5
2A5
100
AcDbEntity
  8
0
  6
CONTINUOUS
 62
         7
100
AcDbCircle
 10
487.9600168523
 20
206.8142929568
 30
0.0
 40
0.3
100
AcDbArc
 50
0.0
 51
90.0
  0
ARC
  5
2A6
100
AcDbEntity
  8
0
  6
CONTINUOUS
 62
         7
100
AcDbCircle
 10
481.9600168523
 20
200.4650847836
 30
0.0
 40
0.7
100
AcDbArc
 50
180.0
 51
212.5131346069
  0
LINE
  5
2A7
100
AcDbEntity
  8
0
  6
CONTINUOUS
 62
         7
100
AcDbLine
 10
481.2600168523
 20
200.4650847836
 30
0.0
 11
481.2600168523
 21
206.8142929568
 31
0.0
  0
ARC
  5
2A8
100
AcDbEntity
  8
0
  6
CONTINUOUS
 62
         7
100
AcDbCircle
 10
481.5600168523
 20
206.8142929568
 30
0.0
 40
0.3
100
AcDbArc
 50
90.0
 51
180.0
  0
ARC
  5
2A9
100
AcDbEntity
  8
0
  6
CONTINUOUS
 62
         7
100
AcDbCircle
 10
490.2600168523
 20
200.8615633738
 30
0.0
 40
2.0
100
AcDbArc
 50
180.0
 51
206.0071259699
  0
ARC
  5
2AA
100
AcDbEntity
  8
0
  6
CONTINUOUS
 62
         7
100
AcDbCircle
 10
490.2600168523
 20
200.8615633738
 30
0.0
 40
2.0
100
AcDbArc
 50
226.9926003933
 51
244.3373965194
  0
ARC
  5
2AB
100
AcDbEntity
  8
0
  6
CONTINUOUS
 62
         7
100
AcDbCircle
 10
479.2600168523
 20
200.8615633738
 30
0.0
 40
2.0
100
AcDbArc
 50
333.9928740301
 51
0.0
  0
ARC
  5
2AC
100
AcDbEntity
  8
0
  6
CONTINUOUS
 62
         7
100
AcDbCircle
 10
484.7600168523
 20
189.4142929568
 30
0.0
 40
11.2
100
AcDbArc
 50
62.6201002204
 51
64.3373965194
  0
ARC
  5
2AD
100
AcDbEntity
  8
0
  6
CONTINUOUS
 62
         7
100
AcDbCircle
 10
484.7600168523
 20
189.4142929568
 30
0.0
 40
11.2
100
AcDbArc
 50
25.6958817868
 51
27.3798997796
  0
ARC
  5
2AE
100
AcDbEntity
  8
0
  6
CONTINUOUS
 62
         7
100
AcDbCircle
 10
479.2600168523
 20
200.8615633738
 30
0.0
 40
1.5
100
AcDbArc
 50
295.6626034806
 51
0.0
  0
LINE
  5
2AF
100
AcDbEntity
  8
0
  6
CONTINUOUS
 62
         7
100
AcDbLine
 10
480.7600168523
 20
200.8615633738
 30
0.0
 11
480.7600168523
 21
207.1142929568
 31
0.0
  0
LINE
  5
2B0
100
AcDbEntity
  8
0
  6
CONTINUOUS
 62
         7
100
AcDbLine
 10
480.7600168523
 20
207.1142929568
 30
0.0
 11
481.5600168523
 21
207.1142929568
 31
0.0
  0
LINE
  5
2B1
100
AcDbEntity
  8
0
  6
CONTINUOUS
 62
         7
100
AcDbLine
 10
487.9600168523
 20
207.1142929568
 30
0.0
 11
488.7600168523
 21
207.1142929568
 31
0.0
  0
LINE
  5
2B2
100
AcDbEntity
  8
0
  6
CONTINUOUS
 62
         7
100
AcDbLine
 10
488.7600168523
 20
207.1142929568
 30
0.0
 11
488.7600168523
 21
205.8142929568
 31
0.0
  0
LINE
  5
2B3
100
AcDbEntity
  8
0
  6
CONTINUOUS
 62
         7
100
AcDbLine
 10
488.7600168523
 20
202.4142929568
 30
0.0
 11
488.7600168523
 21
200.8615633738
 31
0.0
  0
ARC
  5
2B4
100
AcDbEntity
  8
0
  6
CONTINUOUS
 62
         7
100
AcDbCircle
 10
490.2600168523
 20
200.8615633738
 30
0.0
 40
1.5
100
AcDbArc
 50
180.0
 51
219.6534954814
  0
LINE
  5
2B5
100
AcDbEntity
  8
0
  6
CONTINUOUS
 62
         7
100
AcDbLine
 10
483.5261194563
 20
208.1142929568
 30
0.0
 11
487.0600168523
 21
208.1142929568
 31
0.0
  0
ARC
  5
2B6
100
AcDbEntity
  8
0
  6
CONTINUOUS
 62
         7
100
AcDbCircle
 10
483.5494120403
 20
207.9451795009
 30
0.0
 40
0.1707100038
100
AcDbArc
 50
97.8422050327
 51
190.4239286566
  0
LINE
  5
2B7
100
AcDbEntity
  8
0
  6
CONTINUOUS
 62
         7
100
AcDbLine
 10
482.6744126542
 20
207.6142929568
 30
0.0
 11
482.6744126542
 21
207.9142929568
 31
0.0
  0
LINE
  5
2B8
100
AcDbEntity
  8
0
  6
CONTINUOUS
 62
         7
100
AcDbLine
 10
482.6744126542
 20
207.6142929568
 30
0.0
 11
483.3815194354
 21
207.6142929568
 31
0.0
  0
LINE
  5
2B9
100
AcDbEntity
  8
0
  6
CONTINUOUS
 62
         7
100
AcDbLine
 10
483.3815194354
 20
207.6142929568
 30
0.0
 11
483.3815194354
 21
207.9142929568
 31
0.0
  0
LINE
  5
2BA
100
AcDbEntity
  8
0
  6
CONTINUOUS
 62
         7
100
AcDbLine
 10
483.5261194563
 20
208.1142929568
 30
0.0
 11
482.8190126751
 21
208.1142929568
 31
0.0
  0
ARC
  5
2BB
100
AcDbEntity
  8
0
  6
CONTINUOUS
 62
         7
100
AcDbCircle
 10
482.8519998663
 20
207.938170299
 30
0.0
 40
0.1791852264
100
AcDbArc
 50
100.608401779
 51
187.6577318822
  0
LINE
  5
2BC
100
AcDbEntity
  8
0
  6
CONTINUOUS
 62
         7
100
AcDbLine
 10
482.4600168523
 20
208.1142929568
 30
0.0
 11
482.8190126751
 21
208.1142929568
 31
0.0
  0
ARC
  5
2BD
100
AcDbEntity
  8
0
  6
CONTINUOUS
 62
         7
100
AcDbCircle
 10
495.1544865358
 20
199.8087626402
 30
0.0
 40
1.7
100
AcDbArc
 50
45.0
 51
225.0
  0
LINE
  5
2BE
100
AcDbEntity
  8
0
  6
CONTINUOUS
 62
         7
100
AcDbLine
 10
514.0342375935
 20
183.3331746386
 30
0.0
 11
511.6300745374
 21
180.9290115825
 31
0.0
  0
ARC
  5
2BF
100
AcDbEntity
  8
0
  6
CONTINUOUS
 62
         7
100
AcDbCircle
 10
499.3264165448
 20
199.4552092496
 30
0.0
 40
0.3
100
AcDbArc
 50
315.0
 51
45.0
  0
LINE
  5
2C0
100
AcDbEntity
  8
0
  6
CONTINUOUS
 62
         7
100
AcDbLine
 10
499.5385485791
 20
199.2430772153
 30
0.0
 11
498.8314417979
 21
198.5359704341
 31
0.0
  0
LINE
  5
2C1
100
AcDbEntity
  8
0
  6
CONTINUOUS
 62
         7
100
AcDbLine
 10
496.4272787419
 20
196.131807378
 30
0.0
 11
495.0489804247
 21
194.7535090608
 31
0.0
  0
LINE
  5
2C2
100
AcDbEntity
  8
0
  6
CONTINUOUS
 62
         7
100
AcDbLine
 10
495.0130651795
 20
204.1928246836
 30
0.0
 11
499.5385485791
 21
199.667341284
 31
0.0
  0
LINE
  5
2C3
100
AcDbEntity
  8
0
  6
CONTINUOUS
 62
         7
100
AcDbLine
 10
490.0992329564
 20
199.7032565291
 30
0.0
 11
494.5888011108
 21
204.1928246836
 31
0.0
  0
ARC
  5
2C4
100
AcDbEntity
  8
0
  6
CONTINUOUS
 62
         7
100
AcDbCircle
 10
494.8009331452
 20
203.9806926492
 30
0.0
 40
0.3
100
AcDbArc
 50
45.0
 51
135.0
  0
ARC
  5
2C5
100
AcDbEntity
  8
0
  6
CONTINUOUS
 62
         7
100
AcDbCircle
 10
494.5540056779
 20
195.2484838077
 30
0.0
 40
0.7
100
AcDbArc
 50
210.7818758129
 51
315.0
  0
ARC
  5
2C6
100
AcDbEntity
  8
0
  6
CONTINUOUS
 62
         7
100
AcDbCircle
 10
490.5942077032
 20
199.2082817823
 30
0.0
 40
0.7
100
AcDbArc
 50
135.0
 51
239.2181241871
  0
ARC
  5
2C7
100
AcDbEntity
  8
0
  6
CONTINUOUS
 62
         7
100
AcDbCircle
 10
496.7435466868
 20
193.6196481982
 30
0.0
 40
2.0
100
AcDbArc
 50
135.0
 51
199.3373965194
  0
ARC
  5
2C8
100
AcDbEntity
  8
0
  6
CONTINUOUS
 62
         7
100
AcDbCircle
 10
488.9653720937
 20
201.3978227912
 30
0.0
 40
2.0
100
AcDbArc
 50
250.6626034806
 51
315.0
  0
ARC
  5
2C9
100
AcDbEntity
  8
0
  6
CONTINUOUS
 62
         7
100
AcDbCircle
 10
484.7600168523
 20
189.4142929568
 30
0.0
 40
11.2
100
AcDbArc
 50
70.6626034806
 51
19.3373965194
  0
ARC
  5
2CA
100
AcDbEntity
  8
0
  6
CONTINUOUS
 62
         7
100
AcDbCircle
 10
488.9653720937
 20
201.3978227912
 30
0.0
 40
1.5
100
AcDbArc
 50
250.6626034806
 51
315.0
  0
LINE
  5
2CB
100
AcDbEntity
  8
0
  6
CONTINUOUS
 62
         7
100
AcDbLine
 10
490.0260322655
 20
200.3371626194
 30
0.0
 11
494.4473797546
 21
204.7585101085
 31
0.0
  0
LINE
  5
2CC
100
AcDbEntity
  8
0
  6
CONTINUOUS
 62
         7
100
AcDbLine
 10
494.4473797546
 20
204.7585101085
 30
0.0
 11
495.0130651795
 21
204.1928246836
 31
0.0
  0
LINE
  5
2CD
100
AcDbEntity
  8
0
  6
CONTINUOUS
 62
         7
100
AcDbLine
 10
499.5385485791
 20
199.667341284
 30
0.0
 11
500.1042340041
 21
199.101655859
 31
0.0
  0
LINE
  5
2CE
100
AcDbEntity
  8
0
  6
CONTINUOUS
 62
         7
100
AcDbLine
 10
500.1042340041
 20
199.101655859
 30
0.0
 11
499.1849951885
 21
198.1824170435
 31
0.0
  0
LINE
  5
2CF
100
AcDbEntity
  8
0
  6
CONTINUOUS
 62
         7
100
AcDbLine
 10
496.7808321325
 20
195.7782539874
 30
0.0
 11
495.682886515
 21
194.68030837
 31
0.0
  0
ARC
  5
2D0
100
AcDbEntity
  8
0
  6
CONTINUOUS
 62
         7
100
AcDbCircle
 10
496.7435466868
 20
193.6196481982
 30
0.0
 40
1.5
100
AcDbArc
 50
135.0
 51
199.3373965194
  0
LINE
  5
2D1
100
AcDbEntity
  8
0
  6
CONTINUOUS
 62
         7
100
AcDbLine
 10
496.1546153985
 20
203.7583812457
 30
0.0
 11
496.3667474329
 21
203.9705132801
 31
0.0
  0
LINE
  5
2D2
100
AcDbEntity
  8
0
  6
CONTINUOUS
 62
         7
100
AcDbLine
 10
496.1546153985
 20
203.7583812457
 30
0.0
 11
496.6546153985
 21
203.2583812457
 31
0.0
  0
LINE
  5
2D3
100
AcDbEntity
  8
0
  6
CONTINUOUS
 62
         7
100
AcDbLine
 10
496.6546153985
 20
203.2583812457
 30
0.0
 11
496.8667474329
 21
203.4705132801
 31
0.0
  0
LINE
  5
2D4
100
AcDbEntity
  8
0
  6
CONTINUOUS
 62
         7
100
AcDbLine
 10
497.1104164445
 20
203.509686981
 30
0.0
 11
499.6092592572
 21
201.0108441682
 31
0.0
  0
ARC
  5
2D5
100
AcDbEntity
  8
0
  6
CONTINUOUS
 62
         7
100
AcDbCircle
 10
497.0073055173
 20
203.3736353649
 30
0.0
 40
0.1707100042
100
AcDbArc
 50
52.8422051755
 51
145.42392848
  0
LINE
  5
2D6
100
AcDbEntity
  8
0
  6
CONTINUOUS
 62
         7
100
AcDbLine
 10
496.3565680638
 20
204.2635353617
 30
0.0
 11
496.6104164445
 21
204.009686981
 31
0.0
  0
LINE
  5
2D7
100
AcDbEntity
  8
0
  6
CONTINUOUS
 62
         7
100
AcDbLine
 10
497.1104164445
 20
203.509686981
 30
0.0
 11
496.6104164445
 21
204.009686981
 31
0.0
  0
ARC
  5
2D8
100
AcDbEntity
  8
0
  6
CONTINUOUS
 62
         7
100
AcDbCircle
 10
496.5092043854
 20
203.8618239887
 30
0.0
 40
0.1791852265
100
AcDbArc
 50
55.6084018016
 51
142.6577318552
  0
LINE
  5
2D9
100
AcDbEntity
  8
0
  6
CONTINUOUS
 62
         7
100
AcDbLine
 10
235.6112195122
 20
94.2002800724
 30
0.0
 11
235.6112195122
 21
94.3030804966
 31
0.0
  0
LINE
  5
2DA
100
AcDbEntity
  8
0
  6
CONTINUOUS
 62
         7
100
AcDbLine
 10
235.6112195122
 20
94.2002800724
 30
0.0
 11
235.6112195122
 21
94.2002800724
 31
0.0
  0
LINE
  5
2DB
100
AcDbEntity
  8
0
  6
CONTINUOUS
 62
         7
100
AcDbLine
 10
265.2112195122
 20
83.5002800724
 30
0.0
 11
273.6112195122
 21
83.5002800724
 31
0.0
  0
LINE
  5
2DC
100
AcDbEntity
  8
0
  6
CONTINUOUS
 62
         7
100
AcDbLine
 10
281.6112195122
 20
83.5002800724
 30
0.0
 11
321.6112195122
 21
83.5002800724
 31
0.0
  0
LINE
  5
2DD
100
AcDbEntity
  8
0
  6
CONTINUOUS
 62
         7
100
AcDbLine
 10
329.6112195122
 20
83.5002800724
 30
0.0
 11
355.4112195122
 21
83.5002800724
 31
0.0
  0
LINE
  5
2DE
100
AcDbEntity
  8
0
  6
CONTINUOUS
 62
         7
100
AcDbLine
 10
355.4112195122
 20
104.9002800724
 30
0.0
 11
329.6112195122
 21
104.9002800724
 31
0.0
  0
LINE
  5
2DF
100
AcDbEntity
  8
0
  6
CONTINUOUS
 62
         7
100
AcDbLine
 10
321.6112195122
 20
104.9002800724
 30
0.0
 11
281.6112195122
 21
104.9002800724
 31
0.0
  0
LINE
  5
2E0
100
AcDbEntity
  8
0
  6
CONTINUOUS
 62
         7
100
AcDbLine
 10
273.6112195122
 20
104.9002800724
 30
0.0
 11
265.2112195122
 21
104.9002800724
 31
0.0
  0
LINE
  5
2E1
100
AcDbEntity
  8
0
  6
CONTINUOUS
 62
         7
100
AcDbLine
 10
356.6112195122
 20
83.5002800724
 30
0.0
 11
361.6112195122
 21
83.5002800724
 31
0.0
  0
LINE
  5
2E2
100
AcDbEntity
  8
0
  6
CONTINUOUS
 62
         7
100
AcDbLine
 10
361.6112195122
 20
104.9002800724
 30
0.0
 11
356.6112195122
 21
104.9002800724
 31
0.0
  0
LINE
  5
2E3
100
AcDbEntity
  8
0
  6
CONTINUOUS
 62
         7
100
AcDbLine
 10
355.8112195122
 20
83.5002800724
 30
0.0
 11
356.2112195122
 21
83.5002800724
 31
0.0
  0
LINE
  5
2E4
100
AcDbEntity
  8
0
  6
CONTINUOUS
 62
         7
100
AcDbLine
 10
356.2112195122
 20
104.9002800724
 30
0.0
 11
355.8112195122
 21
104.9002800724
 31
0.0
  0
LINE
  5
2E5
100
AcDbEntity
  8
0
  6
CONTINUOUS
 62
         7
100
AcDbLine
 10
263.6112195122
 20
83.5002800724
 30
0.0
 11
264.0112195122
 21
83.5002800724
 31
0.0
  0
LINE
  5
2E6
100
AcDbEntity
  8
0
  6
CONTINUOUS
 62
         7
100
AcDbLine
 10
264.0112195122
 20
104.9002800724
 30
0.0
 11
263.6112195122
 21
104.9002800724
 31
0.0
  0
LINE
  5
2E7
100
AcDbEntity
  8
0
  6
CONTINUOUS
 62
         7
100
AcDbLine
 10
264.4112195122
 20
83.5002800724
 30
0.0
 11
264.8112195122
 21
83.5002800724
 31
0.0
  0
LINE
  5
2E8
100
AcDbEntity
  8
0
  6
CONTINUOUS
 62
         7
100
AcDbLine
 10
264.8112195122
 20
104.9002800724
 30
0.0
 11
264.4112195122
 21
104.9002800724
 31
0.0
  0
LINE
  5
2E9
100
AcDbEntity
  8
0
  6
CONTINUOUS
 62
         7
100
AcDbLine
 10
356.2112195122
 20
83.9002800724
 30
0.0
 11
356.6112195122
 21
83.9002800724
 31
0.0
  0
LINE
  5
2EA
100
AcDbEntity
  8
0
  6
CONTINUOUS
 62
         7
100
AcDbLine
 10
356.6112195122
 20
104.5002800724
 30
0.0
 11
356.2112195122
 21
104.5002800724
 31
0.0
  0
LINE
  5
2EB
100
AcDbEntity
  8
0
  6
CONTINUOUS
 62
         7
100
AcDbLine
 10
355.4112195122
 20
83.9002800724
 30
0.0
 11
355.8112195122
 21
83.9002800724
 31
0.0
  0
LINE
  5
2EC
100
AcDbEntity
  8
0
  6
CONTINUOUS
 62
         7
100
AcDbLine
 10
355.8112195122
 20
104.5002800724
 30
0.0
 11
355.4112195122
 21
104.5002800724
 31
0.0
  0
LINE
  5
2ED
100
AcDbEntity
  8
0
  6
CONTINUOUS
 62
         7
100
AcDbLine
 10
264.0112195122
 20
83.9002800724
 30
0.0
 11
264.4112195122
 21
83.9002800724
 31
0.0
  0
LINE
  5
2EE
100
AcDbEntity
  8
0
  6
CONTINUOUS
 62
         7
100
AcDbLine
 10
264.4112195122
 20
104.5002800724
 30
0.0
 11
264.0112195122
 21
104.5002800724
 31
0.0
  0
LINE
  5
2EF
100
AcDbEntity
  8
0
  6
CONTINUOUS
 62
         7
100
AcDbLine
 10
264.8112195122
 20
83.9002800724
 30
0.0
 11
265.2112195122
 21
83.9002800724
 31
0.0
  0
LINE
  5
2F0
100
AcDbEntity
  8
0
  6
CONTINUOUS
 62
         7
100
AcDbLine
 10
265.2112195122
 20
104.5002800724
 30
0.0
 11
264.8112195122
 21
104.5002800724
 31
0.0
  0
LINE
  5
2F1
100
AcDbEntity
  8
0
  6
CONTINUOUS
 62
         7
100
AcDbLine
 10
249.6112195122
 20
75.2002800724
 30
0.0
 11
249.6112195122
 21
73.2002800724
 31
0.0
  0
LINE
  5
2F2
100
AcDbEntity
  8
0
  6
CONTINUOUS
 62
         7
100
AcDbLine
 10
261.6112195122
 20
73.2002800724
 30
0.0
 11
261.6112195122
 21
75.2002800724
 31
0.0
  0
LINE
  5
2F3
100
AcDbEntity
  8
0
  6
CONTINUOUS
 62
         7
100
AcDbLine
 10
235.6112195122
 20
98.2002800724
 30
0.0
 11
227.7112195122
 21
98.2002800724
 31
0.0
  0
LINE
  5
2F4
100
AcDbEntity
  8
0
  6
CONTINUOUS
 62
         7
100
AcDbLine
 10
227.7112195122
 20
90.2002800724
 30
0.0
 11
235.6112195122
 21
90.2002800724
 31
0.0
  0
LINE
  5
2F5
100
AcDbEntity
  8
0
  6
CONTINUOUS
 62
         7
100
AcDbLine
 10
227.6112195122
 20
98.2002800724
 30
0.0
 11
222.6112195122
 21
98.2002800724
 31
0.0
  0
LINE
  5
2F6
100
AcDbEntity
  8
0
  6
CONTINUOUS
 62
         7
100
AcDbLine
 10
217.6112195122
 20
98.2002800724
 30
0.0
 11
213.1112195122
 21
98.2002800724
 31
0.0
  0
LINE
  5
2F7
100
AcDbEntity
  8
0
  6
CONTINUOUS
 62
         7
100
AcDbLine
 10
213.1112195122
 20
90.2002800724
 30
0.0
 11
217.6112195122
 21
90.2002800724
 31
0.0
  0
LINE
  5
2F8
100
AcDbEntity
  8
0
  6
CONTINUOUS
 62
         7
100
AcDbLine
 10
222.6112195122
 20
90.2002800724
 30
0.0
 11
227.6112195122
 21
90.2002800724
 31
0.0
  0
LINE
  5
2F9
100
AcDbEntity
  8
0
  6
CONTINUOUS
 62
         7
100
AcDbLine
 10
213.1112195122
 20
98.2002800724
 30
0.0
 11
212.6112195122
 21
97.7002800724
 31
0.0
  0
LINE
  5
2FA
100
AcDbEntity
  8
0
  6
CONTINUOUS
 62
         7
100
AcDbLine
 10
212.6112195122
 20
90.7002800724
 30
0.0
 11
213.1112195122
 21
90.2002800724
 31
0.0
  0
LINE
  5
2FB
100
AcDbEntity
  8
0
  6
CONTINUOUS
 62
         7
100
AcDbLine
 10
281.6112195122
 20
105.4002800724
 30
0.0
 11
273.6112195122
 21
105.4002800724
 31
0.0
  0
LINE
  5
2FC
100
AcDbEntity
  8
0
  6
CONTINUOUS
 62
         7
100
AcDbLine
 10
273.6112195122
 20
83.0002800724
 30
0.0
 11
281.6112195122
 21
83.0002800724
 31
0.0
  0
LINE
  5
2FD
100
AcDbEntity
  8
0
  6
CONTINUOUS
 62
         7
100
AcDbLine
 10
293.3112195122
 20
69.2002800724
 30
0.0
 11
293.3112195122
 21
76.9844083528
 31
0.0
  0
LINE
  5
2FE
100
AcDbEntity
  8
0
  6
CONTINUOUS
 62
         7
100
AcDbLine
 10
289.9112195122
 20
76.9844083528
 30
0.0
 11
289.9112195122
 21
69.2002800724
 31
0.0
  0
ARC
  5
2FF
100
AcDbEntity
  8
0
  6
CONTINUOUS
 62
         7
100
AcDbCircle
 10
299.6112195122
 20
76.9844083528
 30
0.0
 40
6.3
100
AcDbArc
 50
149.0362434679
 51
180.0
  0
ARC
  5
300
100
AcDbEntity
  8
0
  6
CONTINUOUS
 62
         7
100
AcDbCircle
 10
299.6112195122
 20
76.9844083528
 30
0.0
 40
9.7
100
AcDbArc
 50
149.0362434679
 51
180.0
  0
LINE
  5
301
100
AcDbEntity
  8
0
  6
CONTINUOUS
 62
         7
100
AcDbLine
 10
294.2090140802
 20
80.225731612
 30
0.0
 11
294.9289008916
 21
81.4255429643
 31
0.0
  0
LINE
  5
302
100
AcDbEntity
  8
0
  6
CONTINUOUS
 62
         7
100
AcDbLine
 10
292.0134249442
 20
83.1748285328
 30
0.0
 11
291.2935381328
 21
81.9750171804
 31
0.0
  0
ARC
  5
303
100
AcDbEntity
  8
0
  6
CONTINUOUS
 62
         7
100
AcDbCircle
 10
286.6112195122
 20
86.416151792
 30
0.0
 40
6.3
100
AcDbArc
 50
329.0362434679
 51
332.429688175
  0
ARC
  5
304
100
AcDbEntity
  8
0
  6
CONTINUOUS
 62
         7
100
AcDbCircle
 10
286.6112195122
 20
86.416151792
 30
0.0
 40
9.7
100
AcDbArc
 50
329.0362434679
 51
342.5060356201
  0
LINE
  5
305
100
AcDbEntity
  8
0
  6
CONTINUOUS
 62
         7
100
AcDbLine
 10
329.6112195122
 20
105.4002800724
 30
0.0
 11
321.6112195122
 21
105.4002800724
 31
0.0
  0
LINE
  5
306
100
AcDbEntity
  8
0
  6
CONTINUOUS
 62
         7
100
AcDbLine
 10
321.6112195122
 20
83.0002800724
 30
0.0
 11
329.6112195122
 21
83.0002800724
 31
0.0
  0
LINE
  5
307
100
AcDbEntity
  8
0
  6
CONTINUOUS
 62
         7
100
AcDbLine
 10
341.3112195122
 20
66.1281408593
 30
0.0
 11
341.3112195122
 21
71.632350752
 31
0.0
  0
LINE
  5
308
100
AcDbEntity
  8
0
  6
CONTINUOUS
 62
         7
100
AcDbLine
 10
337.9112195122
 20
71.632350752
 30
0.0
 11
337.9112195122
 21
66.1281408593
 31
0.0
  0
ARC
  5
309
100
AcDbEntity
  8
0
  6
CONTINUOUS
 62
         7
100
AcDbCircle
 10
344.0517233272
 20
71.5708104726
 30
0.0
 40
6.1408121863
100
AcDbArc
 50
138.464650124
 51
179.4257995201
  0
ARC
  5
30A
100
AcDbEntity
  8
0
  6
CONTINUOUS
 62
         7
100
AcDbCircle
 10
344.0741510916
 20
71.5637239225
 30
0.0
 40
2.7637837387
100
AcDbArc
 50
137.1623761959
 51
178.5771564518
  0
LINE
  5
30B
100
AcDbEntity
  8
0
  6
CONTINUOUS
 62
         7
100
AcDbLine
 10
342.0475139543
 20
73.4428839657
 30
0.0
 11
342.7674007657
 21
74.2912787091
 31
0.0
  0
LINE
  5
30C
100
AcDbEntity
  8
0
  6
CONTINUOUS
 62
         7
100
AcDbLine
 10
340.1749250701
 20
76.4910672825
 30
0.0
 11
339.4550382587
 21
75.6426725391
 31
0.0
  0
ARC
  5
30D
100
AcDbEntity
  8
0
  6
CONTINUOUS
 62
         7
100
AcDbCircle
 10
338.1482879328
 20
78.3702273257
 30
0.0
 40
2.7637837387
100
AcDbArc
 50
317.1623761957
 51
358.577156452
  0
ARC
  5
30E
100
AcDbEntity
  8
0
  6
CONTINUOUS
 62
         7
100
AcDbCircle
 10
338.1707156972
 20
78.3631407756
 30
0.0
 40
6.1408121864
100
AcDbArc
 50
318.4646501241
 51
359.4257995202
  0
LINE
  5
30F
100
AcDbEntity
  8
0
  6
CONTINUOUS
 62
         7
100
AcDbLine
 10
344.3112195122
 20
78.3016004962
 30
0.0
 11
344.3112195122
 21
80.270276483
 31
0.0
  0
LINE
  5
310
100
AcDbEntity
  8
0
  6
CONTINUOUS
 62
         7
100
AcDbLine
 10
340.9112195122
 20
80.270276483
 30
0.0
 11
340.9112195122
 21
78.3016004962
 31
0.0
  0
POLYLINE
  5
311
100
AcDbEntity
  8
0
  6
CONTINUOUS
 62
         7
100
AcDb2dPolyline
 66
         1
 10
0.0
 20
0.0
 30
0.0
 70
       128
  0
VERTEX
  5
312
100
AcDbEntity
  8
0
100
AcDbVertex
100
AcDb2dVertex
 10
337.6112195122
 20
82.1058103889
 30
0.0
  0
VERTEX
  5
313
100
AcDbEntity
  8
0
100
AcDbVertex
100
AcDb2dVertex
 10
337.9576383414
 20
82.0946118128
 30
0.0
  0
VERTEX
  5
314
100
AcDbEntity
  8
0
100
AcDbVertex
100
AcDb2dVertex
 10
338.6418486295
 20
82.0047175495
 30
0.0
  0
VERTEX
  5
315
100
AcDbEntity
  8
0
100
AcDbVertex
100
AcDb2dVertex
 10
339.2744792579
 20
81.8319449611
 30
0.0
  0
VERTEX
  5
316
100
AcDbEntity
  8
0
100
AcDbVertex
100
AcDb2dVertex
 10
339.8232962712
 20
81.5922786485
 30
0.0
  0
VERTEX
  5
317
100
AcDbEntity
  8
0
100
AcDbVertex
100
AcDb2dVertex
 10
340.2645395255
 20
81.3087180944
 30
0.0
  0
VERTEX
  5
318
100
AcDbEntity
  8
0
100
AcDbVertex
100
AcDb2dVertex
 10
340.5855098734
 20
81.0090806976
 30
0.0
  0
VERTEX
  5
319
100
AcDbEntity
  8
0
100
AcDbVertex
100
AcDb2dVertex
 10
340.7875438575
 20
80.7216649831
 30
0.0
  0
VERTEX
  5
31A
100
AcDbEntity
  8
0
100
AcDbVertex
100
AcDb2dVertex
 10
340.8887965378
 20
80.4603765375
 30
0.0
  0
VERTEX
  5
31B
100
AcDbEntity
  8
0
100
AcDbVertex
100
AcDb2dVertex
 10
340.9112195122
 20
80.270276483
 30
0.0
  0
SEQEND
  5
31C
100
AcDbEntity
  8
0
  0
ARC
  5
31D
100
AcDbEntity
  8
0
  6
CONTINUOUS
 62
         7
100
AcDbCircle
 10
339.7774733452
 20
80.2053835921
 30
0.0
 40
4.534210559
100
AcDbArc
 50
0.8200359606
 51
46.6083490338
  0
LINE
  5
31E
100
AcDbEntity
  8
0
  6
CONTINUOUS
 62
         7
100
AcDbLine
 10
336.6112195122
 20
82.1058103889
 30
0.0
 11
337.6112195122
 21
82.1058103889
 31
0.0
  0
LINE
  5
31F
100
AcDbEntity
  8
0
  6
CONTINUOUS
 62
         7
100
AcDbLine
 10
330.6112195122
 20
79.3338803799
 30
0.0
 11
336.3112195122
 21
79.3338803799
 31
0.0
  0
ARC
  5
320
100
AcDbEntity
  8
0
  6
CONTINUOUS
 62
         7
100
AcDbCircle
 10
336.3112195122
 20
79.6338803799
 30
0.0
 40
0.3
100
AcDbArc
 50
270.0
 51
0.0
  0
LINE
  5
321
100
AcDbEntity
  8
0
  6
CONTINUOUS
 62
         7
100
AcDbLine
 10
314.9112195122
 20
79.3338803799
 30
0.0
 11
320.6112195122
 21
79.3338803799
 31
0.0
  0
ARC
  5
322
100
AcDbEntity
  8
0
  6
CONTINUOUS
 62
         7
100
AcDbCircle
 10
314.9112195122
 20
79.6338803799
 30
0.0
 40
0.3
100
AcDbArc
 50
180.0
 51
270.0
  0
LINE
  5
323
100
AcDbEntity
  8
0
  6
CONTINUOUS
 62
         7
100
AcDbLine
 10
235.6112195122
 20
76.7002800724
 30
0.0
 11
263.6112195122
 21
76.7002800724
 31
0.0
  0
LINE
  5
324
100
AcDbEntity
  8
0
  6
CONTINUOUS
 62
         7
100
AcDbLine
 10
263.6112195122
 20
75.2002800724
 30
0.0
 11
235.6112195122
 21
75.2002800724
 31
0.0
  0
LINE
  5
325
100
AcDbEntity
  8
0
  6
CONTINUOUS
 62
         7
100
AcDbLine
 10
263.6112195122
 20
76.7002800724
 30
0.0
 11
263.6112195122
 21
75.2002800724
 31
0.0
  0
LINE
  5
326
100
AcDbEntity
  8
0
  6
CONTINUOUS
 62
         7
100
AcDbLine
 10
235.6112195122
 20
75.2002800724
 30
0.0
 11
235.6112195122
 21
76.7002800724
 31
0.0
  0
LINE
  5
327
100
AcDbEntity
  8
0
  6
CONTINUOUS
 62
         7
100
AcDbLine
 10
263.6112195122
 20
111.7002800724
 30
0.0
 11
235.6112195122
 21
111.7002800724
 31
0.0
  0
CIRCLE
  5
328
100
AcDbEntity
  8
0
  6
CONTINUOUS
 62
         7
100
AcDbCircle
 10
246.6112195122
 20
83.2002800724
 30
0.0
 40
5.5
  0
CIRCLE
  5
329
100
AcDbEntity
  8
0
  6
CONTINUOUS
 62
         7
100
AcDbCircle
 10
246.6112195122
 20
105.2002800724
 30
0.0
 40
5.5
  0
LINE
  5
32A
100
AcDbEntity
  8
0
  6
CONTINUOUS
 62
         7
100
AcDbLine
 10
263.6112195122
 20
111.7002800724
 30
0.0
 11
263.6112195122
 21
76.7002800724
 31
0.0
  0
LINE
  5
32B
100
AcDbEntity
  8
0
  6
CONTINUOUS
 62
         7
100
AcDbLine
 10
235.6112195122
 20
111.7002800724
 30
0.0
 11
235.6112195122
 21
76.7002800724
 31
0.0
  0
LINE
  5
32C
100
AcDbEntity
  8
0
  6
CONTINUOUS
 62
         7
100
AcDbLine
 10
235.6112195122
 20
113.2002800724
 30
0.0
 11
263.6112195122
 21
113.2002800724
 31
0.0
  0
LINE
  5
32D
100
AcDbEntity
  8
0
  6
CONTINUOUS
 62
         7
100
AcDbLine
 10
263.6112195122
 20
113.2002800724
 30
0.0
 11
263.6112195122
 21
111.7002800724
 31
0.0
  0
LINE
  5
32E
100
AcDbEntity
  8
0
  6
CONTINUOUS
 62
         7
100
AcDbLine
 10
235.6112195122
 20
111.7002800724
 30
0.0
 11
235.6112195122
 21
113.2002800724
 31
0.0
  0
LINE
  5
32F
100
AcDbEntity
  8
0
  6
CONTINUOUS
 62
         7
100
AcDbLine
 10
265.2112195122
 20
94.2002800724
 30
0.0
 11
265.2112195122
 21
104.9002800724
 31
0.0
  0
LINE
  5
330
100
AcDbEntity
  8
0
  6
CONTINUOUS
 62
         7
100
AcDbLine
 10
265.2112195122
 20
83.5002800724
 30
0.0
 11
265.2112195122
 21
94.2002800724
 31
0.0
  0
LINE
  5
331
100
AcDbEntity
  8
0
  6
CONTINUOUS
 62
         7
100
AcDbLine
 10
355.4112195122
 20
94.2002800724
 30
0.0
 11
355.4112195122
 21
104.9002800724
 31
0.0
  0
LINE
  5
332
100
AcDbEntity
  8
0
  6
CONTINUOUS
 62
         7
100
AcDbLine
 10
355.4112195122
 20
83.5002800724
 30
0.0
 11
355.4112195122
 21
94.2002800724
 31
0.0
  0
LINE
  5
333
100
AcDbEntity
  8
0
  6
CONTINUOUS
 62
         7
100
AcDbLine
 10
361.6112195122
 20
104.9002800724
 30
0.0
 11
361.6112195122
 21
102.7002800724
 31
0.0
  0
LINE
  5
334
100
AcDbEntity
  8
0
  6
CONTINUOUS
 62
         7
100
AcDbLine
 10
361.6112195122
 20
102.7002800724
 30
0.0
 11
366.6112195122
 21
102.7002800724
 31
0.0
  0
LINE
  5
335
100
AcDbEntity
  8
0
  6
CONTINUOUS
 62
         7
100
AcDbLine
 10
366.6112195122
 20
85.7002800724
 30
0.0
 11
366.6112195122
 21
102.7002800724
 31
0.0
  0
LINE
  5
336
100
AcDbEntity
  8
0
  6
CONTINUOUS
 62
         7
100
AcDbLine
 10
361.6112195122
 20
85.7002800724
 30
0.0
 11
366.6112195122
 21
85.7002800724
 31
0.0
  0
LINE
  5
337
100
AcDbEntity
  8
0
  6
CONTINUOUS
 62
         7
100
AcDbLine
 10
361.6112195122
 20
85.7002800724
 30
0.0
 11
361.6112195122
 21
83.5002800724
 31
0.0
  0
LINE
  5
338
100
AcDbEntity
  8
0
  6
CONTINUOUS
 62
         7
100
AcDbLine
 10
356.6112195122
 20
94.2002800724
 30
0.0
 11
356.6112195122
 21
104.9002800724
 31
0.0
  0
LINE
  5
339
100
AcDbEntity
  8
0
  6
CONTINUOUS
 62
         7
100
AcDbLine
 10
356.6112195122
 20
83.5002800724
 30
0.0
 11
356.6112195122
 21
94.2002800724
 31
0.0
  0
LINE
  5
33A
100
AcDbEntity
  8
0
  6
CONTINUOUS
 62
         7
100
AcDbLine
 10
356.2112195122
 20
94.2002800724
 30
0.0
 11
356.2112195122
 21
104.9002800724
 31
0.0
  0
LINE
  5
33B
100
AcDbEntity
  8
0
  6
CONTINUOUS
 62
         7
100
AcDbLine
 10
356.2112195122
 20
83.5002800724
 30
0.0
 11
356.2112195122
 21
94.2002800724
 31
0.0
  0
LINE
  5
33C
100
AcDbEntity
  8
0
  6
CONTINUOUS
 62
         7
100
AcDbLine
 10
355.8112195122
 20
94.2002800724
 30
0.0
 11
355.8112195122
 21
104.9002800724
 31
0.0
  0
LINE
  5
33D
100
AcDbEntity
  8
0
  6
CONTINUOUS
 62
         7
100
AcDbLine
 10
355.8112195122
 20
83.5002800724
 30
0.0
 11
355.8112195122
 21
94.2002800724
 31
0.0
  0
LINE
  5
33E
100
AcDbEntity
  8
0
  6
CONTINUOUS
 62
         7
100
AcDbLine
 10
264.0112195122
 20
94.2002800724
 30
0.0
 11
264.0112195122
 21
104.9002800724
 31
0.0
  0
LINE
  5
33F
100
AcDbEntity
  8
0
  6
CONTINUOUS
 62
         7
100
AcDbLine
 10
264.0112195122
 20
83.5002800724
 30
0.0
 11
264.0112195122
 21
94.2002800724
 31
0.0
  0
LINE
  5
340
100
AcDbEntity
  8
0
  6
CONTINUOUS
 62
         7
100
AcDbLine
 10
264.4112195122
 20
94.2002800724
 30
0.0
 11
264.4112195122
 21
104.9002800724
 31
0.0
  0
LINE
  5
341
100
AcDbEntity
  8
0
  6
CONTINUOUS
 62
         7
100
AcDbLine
 10
264.4112195122
 20
83.5002800724
 30
0.0
 11
264.4112195122
 21
94.2002800724
 31
0.0
  0
LINE
  5
342
100
AcDbEntity
  8
0
  6
CONTINUOUS
 62
         7
100
AcDbLine
 10
264.8112195122
 20
94.2002800724
 30
0.0
 11
264.8112195122
 21
104.9002800724
 31
0.0
  0
LINE
  5
343
100
AcDbEntity
  8
0
  6
CONTINUOUS
 62
         7
100
AcDbLine
 10
264.8112195122
 20
83.5002800724
 30
0.0
 11
264.8112195122
 21
94.2002800724
 31
0.0
  0
CIRCLE
  5
344
100
AcDbEntity
  8
0
  6
CONTINUOUS
 62
         7
100
AcDbCircle
 10
246.6112195122
 20
83.2002800724
 30
0.0
 40
3.3
  0
CIRCLE
  5
345
100
AcDbEntity
  8
0
  6
CONTINUOUS
 62
         7
100
AcDbCircle
 10
246.6112195122
 20
105.2002800724
 30
0.0
 40
3.3
  0
LINE
  5
346
100
AcDbEntity
  8
0
  6
CONTINUOUS
 62
         7
100
AcDbLine
 10
261.6112195122
 20
73.2002800724
 30
0.0
 11
249.6112195122
 21
73.2002800724
 31
0.0
  0
LINE
  5
347
100
AcDbEntity
  8
0
  6
CONTINUOUS
 62
         7
100
AcDbLine
 10
227.7112195122
 20
94.9517042747
 30
0.0
 11
227.7112195122
 21
90.2002800724
 31
0.0
  0
LINE
  5
348
100
AcDbEntity
  8
0
  6
CONTINUOUS
 62
         7
100
AcDbLine
 10
227.7112195122
 20
98.2002800724
 30
0.0
 11
227.7112195122
 21
94.9517042747
 31
0.0
  0
LINE
  5
349
100
AcDbEntity
  8
0
  6
CONTINUOUS
 62
         7
100
AcDbLine
 10
227.6112195122
 20
94.9517042747
 30
0.0
 11
227.6112195122
 21
90.2002800724
 31
0.0
  0
LINE
  5
34A
100
AcDbEntity
  8
0
  6
CONTINUOUS
 62
         7
100
AcDbLine
 10
227.6112195122
 20
98.2002800724
 30
0.0
 11
227.6112195122
 21
94.9517042747
 31
0.0
  0
LINE
  5
34B
100
AcDbEntity
  8
0
  6
CONTINUOUS
 62
         7
100
AcDbLine
 10
213.1112195122
 20
98.2002800724
 30
0.0
 11
213.1112195122
 21
90.2002800724
 31
0.0
  0
LINE
  5
34C
100
AcDbEntity
  8
0
  6
CONTINUOUS
 62
         7
100
AcDbLine
 10
212.6112195122
 20
90.7002800724
 30
0.0
 11
212.6112195122
 21
97.7002800724
 31
0.0
  0
LINE
  5
34D
100
AcDbEntity
  8
0
  6
CONTINUOUS
 62
         7
100
AcDbLine
 10
218.1112195122
 20
94.2002800724
 30
0.0
 11
217.6112195122
 21
93.1981157957
 31
0.0
  0
LINE
  5
34E
100
AcDbEntity
  8
0
  6
CONTINUOUS
 62
         7
100
AcDbLine
 10
218.1112195122
 20
94.2002800724
 30
0.0
 11
222.1112195122
 21
94.2002800724
 31
0.0
  0
LINE
  5
34F
100
AcDbEntity
  8
0
  6
CONTINUOUS
 62
         7
100
AcDbLine
 10
222.6112195122
 20
93.1981157957
 30
0.0
 11
222.1112195122
 21
94.2002800724
 31
0.0
  0
LINE
  5
350
100
AcDbEntity
  8
0
  6
CONTINUOUS
 62
         7
100
AcDbLine
 10
222.6112195122
 20
93.1981157957
 30
0.0
 11
222.6112195122
 21
89.2024443491
 31
0.0
  0
LINE
  5
351
100
AcDbEntity
  8
0
  6
CONTINUOUS
 62
         7
100
AcDbLine
 10
222.1112195122
 20
88.2002800724
 30
0.0
 11
222.6112195122
 21
89.2024443491
 31
0.0
  0
LINE
  5
352
100
AcDbEntity
  8
0
  6
CONTINUOUS
 62
         7
100
AcDbLine
 10
218.1112195122
 20
88.2002800724
 30
0.0
 11
222.1112195122
 21
88.2002800724
 31
0.0
  0
LINE
  5
353
100
AcDbEntity
  8
0
  6
CONTINUOUS
 62
         7
100
AcDbLine
 10
217.6112195122
 20
89.2024443491
 30
0.0
 11
218.1112195122
 21
88.2002800724
 31
0.0
  0
LINE
  5
354
100
AcDbEntity
  8
0
  6
CONTINUOUS
 62
         7
100
AcDbLine
 10
217.6112195122
 20
93.1981157957
 30
0.0
 11
217.6112195122
 21
89.2024443491
 31
0.0
  0
LINE
  5
355
100
AcDbEntity
  8
0
  6
CONTINUOUS
 62
         7
100
AcDbLine
 10
217.6112195122
 20
95.2024443491
 30
0.0
 11
217.6112195122
 21
93.1981157957
 31
0.0
  0
LINE
  5
356
100
AcDbEntity
  8
0
  6
CONTINUOUS
 62
         7
100
AcDbLine
 10
217.6112195122
 20
95.2024443491
 30
0.0
 11
218.1112195122
 21
94.2002800724
 31
0.0
  0
LINE
  5
357
100
AcDbEntity
  8
0
  6
CONTINUOUS
 62
         7
100
AcDbLine
 10
218.1112195122
 20
100.2002800724
 30
0.0
 11
217.6112195122
 21
99.1981157957
 31
0.0
  0
LINE
  5
358
100
AcDbEntity
  8
0
  6
CONTINUOUS
 62
         7
100
AcDbLine
 10
218.1112195122
 20
100.2002800724
 30
0.0
 11
222.1112195122
 21
100.2002800724
 31
0.0
  0
LINE
  5
359
100
AcDbEntity
  8
0
  6
CONTINUOUS
 62
         7
100
AcDbLine
 10
222.6112195122
 20
99.1981157957
 30
0.0
 11
222.1112195122
 21
100.2002800724
 31
0.0
  0
LINE
  5
35A
100
AcDbEntity
  8
0
  6
CONTINUOUS
 62
         7
100
AcDbLine
 10
222.6112195122
 20
99.1981157957
 30
0.0
 11
222.6112195122
 21
95.2024443491
 31
0.0
  0
LINE
  5
35B
100
AcDbEntity
  8
0
  6
CONTINUOUS
 62
         7
100
AcDbLine
 10
222.1112195122
 20
94.2002800724
 30
0.0
 11
222.6112195122
 21
95.2024443491
 31
0.0
  0
LINE
  5
35C
100
AcDbEntity
  8
0
  6
CONTINUOUS
 62
         7
100
AcDbLine
 10
217.6112195122
 20
99.1981157957
 30
0.0
 11
217.6112195122
 21
95.2024443491
 31
0.0
  0
LINE
  5
35D
100
AcDbEntity
  8
0
  6
CONTINUOUS
 62
         7
100
AcDbLine
 10
222.6112195122
 20
95.2024443491
 30
0.0
 11
222.6112195122
 21
93.1981157957
 31
0.0
  0
LINE
  5
35E
100
AcDbEntity
  8
0
  6
CONTINUOUS
 62
         7
100
AcDbLine
 10
218.1112195122
 20
88.2002800724
 30
0.0
 11
217.6112195122
 21
88.2002800724
 31
0.0
  0
LINE
  5
35F
100
AcDbEntity
  8
0
  6
CONTINUOUS
 62
         7
100
AcDbLine
 10
217.6112195122
 20
89.2024443491
 30
0.0
 11
217.6112195122
 21
88.2002800724
 31
0.0
  0
LINE
  5
360
100
AcDbEntity
  8
0
  6
CONTINUOUS
 62
         7
100
AcDbLine
 10
222.6112195122
 20
88.2002800724
 30
0.0
 11
222.1112195122
 21
88.2002800724
 31
0.0
  0
LINE
  5
361
100
AcDbEntity
  8
0
  6
CONTINUOUS
 62
         7
100
AcDbLine
 10
222.6112195122
 20
89.2024443491
 30
0.0
 11
222.6112195122
 21
88.2002800724
 31
0.0
  0
LINE
  5
362
100
AcDbEntity
  8
0
  6
CONTINUOUS
 62
         7
100
AcDbLine
 10
217.6112195122
 20
100.2002800724
 30
0.0
 11
218.1112195122
 21
100.2002800724
 31
0.0
  0
LINE
  5
363
100
AcDbEntity
  8
0
  6
CONTINUOUS
 62
         7
100
AcDbLine
 10
217.6112195122
 20
100.2002800724
 30
0.0
 11
217.6112195122
 21
99.1981157957
 31
0.0
  0
LINE
  5
364
100
AcDbEntity
  8
0
  6
CONTINUOUS
 62
         7
100
AcDbLine
 10
222.1112195122
 20
100.2002800724
 30
0.0
 11
222.6112195122
 21
100.2002800724
 31
0.0
  0
LINE
  5
365
100
AcDbEntity
  8
0
  6
CONTINUOUS
 62
         7
100
AcDbLine
 10
222.6112195122
 20
100.2002800724
 30
0.0
 11
222.6112195122
 21
99.1981157957
 31
0.0
  0
LINE
  5
366
100
AcDbEntity
  8
0
  6
CONTINUOUS
 62
         7
100
AcDbLine
 10
281.6112195122
 20
83.0002800724
 30
0.0
 11
281.6112195122
 21
105.4002800724
 31
0.0
  0
LINE
  5
367
100
AcDbEntity
  8
0
  6
CONTINUOUS
 62
         7
100
AcDbLine
 10
273.6112195122
 20
83.0002800724
 30
0.0
 11
273.6112195122
 21
105.4002800724
 31
0.0
  0
LINE
  5
368
100
AcDbEntity
  8
0
  6
CONTINUOUS
 62
         7
100
AcDbLine
 10
293.3112195122
 20
69.2002800724
 30
0.0
 11
289.9112195122
 21
69.2002800724
 31
0.0
  0
LINE
  5
369
100
AcDbEntity
  8
0
  6
CONTINUOUS
 62
         7
100
AcDbLine
 10
321.6112195122
 20
83.0002800724
 30
0.0
 11
321.6112195122
 21
105.4002800724
 31
0.0
  0
LINE
  5
36A
100
AcDbEntity
  8
0
  6
CONTINUOUS
 62
         7
100
AcDbLine
 10
329.6112195122
 20
83.0002800724
 30
0.0
 11
329.6112195122
 21
105.4002800724
 31
0.0
  0
POLYLINE
  5
36B
100
AcDbEntity
  8
0
  6
CONTINUOUS
 62
         7
100
AcDb2dPolyline
 66
         1
 10
0.0
 20
0.0
 30
0.0
 70
       128
  0
VERTEX
  5
36C
100
AcDbEntity
  8
0
100
AcDbVertex
100
AcDb2dVertex
 10
337.9112195122
 20
66.1281408593
 30
0.0
  0
VERTEX
  5
36D
100
AcDbEntity
  8
0
100
AcDbVertex
100
AcDb2dVertex
 10
338.0033302013
 20
65.7378256252
 30
0.0
  0
VERTEX
  5
36E
100
AcDbEntity
  8
0
100
AcDbVertex
100
AcDb2dVertex
 10
338.2696806462
 20
65.3898071031
 30
0.0
  0
VERTEX
  5
36F
100
AcDbEntity
  8
0
100
AcDbVertex
100
AcDb2dVertex
 10
338.6814076434
 20
65.1217984999
 30
0.0
  0
VERTEX
  5
370
100
AcDbEntity
  8
0
100
AcDbVertex
100
AcDb2dVertex
 10
339.1938941841
 20
64.9628427063
 30
0.0
  0
VERTEX
  5
371
100
AcDbEntity
  8
0
100
AcDbVertex
100
AcDb2dVertex
 10
339.7516043995
 20
64.9301650491
 30
0.0
  0
VERTEX
  5
372
100
AcDbEntity
  8
0
100
AcDbVertex
100
AcDb2dVertex
 10
340.2941017341
 20
65.0273066594
 30
0.0
  0
VERTEX
  5
373
100
AcDbEntity
  8
0
100
AcDbVertex
100
AcDb2dVertex
 10
340.762598184
 20
65.2437407365
 30
0.0
  0
VERTEX
  5
374
100
AcDbEntity
  8
0
100
AcDbVertex
100
AcDb2dVertex
 10
341.1063248892
 20
65.5560132898
 30
0.0
  0
VERTEX
  5
375
100
AcDbEntity
  8
0
100
AcDbVertex
100
AcDb2dVertex
 10
341.288033728
 20
65.9302847427
 30
0.0
  0
VERTEX
  5
376
100
AcDbEntity
  8
0
100
AcDbVertex
100
AcDb2dVertex
 10
341.288033728
 20
66.3259969759
 30
0.0
  0
VERTEX
  5
377
100
AcDbEntity
  8
0
100
AcDbVertex
100
AcDb2dVertex
 10
341.1063248892
 20
66.7002684287
 30
0.0
  0
VERTEX
  5
378
100
AcDbEntity
  8
0
100
AcDbVertex
100
AcDb2dVertex
 10
340.762598184
 20
67.012540982
 30
0.0
  0
VERTEX
  5
379
100
AcDbEntity
  8
0
100
AcDbVertex
100
AcDb2dVertex
 10
340.2941017341
 20
67.2289750591
 30
0.0
  0
VERTEX
  5
37A
100
AcDbEntity
  8
0
100
AcDbVertex
100
AcDb2dVertex
 10
339.7516043995
 20
67.3261166694
 30
0.0
  0
VERTEX
  5
37B
100
AcDbEntity
  8
0
100
AcDbVertex
100
AcDb2dVertex
 10
339.1938941841
 20
67.2934390122
 30
0.0
  0
VERTEX
  5
37C
100
AcDbEntity
  8
0
100
AcDbVertex
100
AcDb2dVertex
 10
338.6814076434
 20
67.1344832187
 30
0.0
  0
VERTEX
  5
37D
100
AcDbEntity
  8
0
100
AcDbVertex
100
AcDb2dVertex
 10
338.2696806462
 20
66.8664746155
 30
0.0
  0
VERTEX
  5
37E
100
AcDbEntity
  8
0
100
AcDbVertex
100
AcDb2dVertex
 10
338.0033302013
 20
66.5184560934
 30
0.0
  0
VERTEX
  5
37F
100
AcDbEntity
  8
0
100
AcDbVertex
100
AcDb2dVertex
 10
337.9112195122
 20
66.1281408593
 30
0.0
  0
SEQEND
  5
380
100
AcDbEntity
  8
0
  0
LINE
  5
381
100
AcDbEntity
  8
0
  6
CONTINUOUS
 62
         7
100
AcDbLine
 10
321.6112195122
 20
78.8560629206
 30
0.0
 11
329.6112195122
 21
78.8560629206
 31
0.0
  0
LINE
  5
382
100
AcDbEntity
  8
0
  6
CONTINUOUS
 62
         7
100
AcDbLine
 10
321.6112195122
 20
78.8560629206
 30
0.0
 11
321.6112195122
 21
83.0002800724
 31
0.0
  0
LINE
  5
383
100
AcDbEntity
  8
0
  6
CONTINUOUS
 62
         7
100
AcDbLine
 10
329.6112195122
 20
78.8560629206
 30
0.0
 11
329.6112195122
 21
83.0002800724
 31
0.0
  0
LINE
  5
384
100
AcDbEntity
  8
0
  6
CONTINUOUS
 62
         7
100
AcDbLine
 10
314.6112195122
 20
79.6338803799
 30
0.0
 11
314.6112195122
 21
83.5002800724
 31
0.0
  0
LINE
  5
385
100
AcDbEntity
  8
0
  6
CONTINUOUS
 62
         7
100
AcDbLine
 10
336.6112195122
 20
83.5002800724
 30
0.0
 11
336.6112195122
 21
79.6338803799
 31
0.0
  0
LINE
  5
386
100
AcDbEntity
  8
0
  6
CONTINUOUS
 62
         7
100
AcDbLine
 10
320.6112195122
 20
79.5631697018
 30
0.0
 11
320.6112195122
 21
79.4217483456
 31
0.0
  0
LINE
  5
387
100
AcDbEntity
  8
0
  6
CONTINUOUS
 62
         7
100
AcDbLine
 10
330.6112195122
 20
79.5631697018
 30
0.0
 11
330.6112195122
 21
79.4217483456
 31
0.0
  0
LINE
  5
388
100
AcDbEntity
  8
0
  6
CONTINUOUS
 62
         7
100
AcDbLine
 10
330.6112195122
 20
79.5631697018
 30
0.0
 11
329.6112195122
 21
79.5631697018
 31
0.0
  0
LINE
  5
389
100
AcDbEntity
  8
0
  6
CONTINUOUS
 62
         7
100
AcDbLine
 10
321.6112195122
 20
79.5631697018
 30
0.0
 11
320.6112195122
 21
79.5631697018
 31
0.0
  0
LINE
  5
38A
100
AcDbEntity
  8
0
  6
CONTINUOUS
 62
         7
100
AcDbLine
 10
330.6112195122
 20
79.3338803799
 30
0.0
 11
330.6112195122
 21
79.4217483456
 31
0.0
  0
LINE
  5
38B
100
AcDbEntity
  8
0
  6
CONTINUOUS
 62
         7
100
AcDbLine
 10
320.6112195122
 20
79.4217483456
 30
0.0
 11
320.6112195122
 21
79.3338803799
 31
0.0
  0
ENDSEC
  0
SECTION
  2
OBJECTS
  0
DICTIONARY
  5
19
100
AcDbDictionary
  3
ACAD_GROUP
350
1A
  3
ACAD_MLINESTYLE
350
1B
  0
DICTIONARY
  5
1A
102
{ACAD_REACTORS
330
19
102
}
100
AcDbDictionary
  0
DICTIONARY
  5
1B
102
{ACAD_REACTORS
330
19
102
}
100
AcDbDictionary
  3
STANDARD
350
1C
  0
MLINESTYLE
  5
1C
102
{ACAD_REACTORS
330
1B
102
}
100
AcDbMlineStyle
  2
STANDARD
 70
         0
  3

 62
         0
 51
90.0
 52
90.0
 71
         2
 49
0.5
 62
       256
  6
BYLAYER
 49
-0.5
 62
       256
  6
BYLAYER
  0
ENDSEC
  0
EOF
