  0
SECTION
  2
HEADER
  0
ENDSEC
  0
SECTION
  2
TABLES
  0
TABLE
  2
LTYPE
 70
     4
  0
LTYPE
  2
CONTINUOUS
 70
    64
  3
Solid line
 72
    65
 73
     0
 40
0.000000
  0
LTYPE
  2
DASHED
 70
    64
  3
__ __ __ __ __ __ __ __ __ __ __ __ __ __ __
 72
    65
 73
     2
 40
3.500000
 49
2.000000
 49
-1.500000
  0
LTYPE
  2
CENTER
 70
    64
  3
____ _ ____ _ ____ _ ____ _ ____ _ ____ _ ____
 72
    65
 73
     4
 40
17.500000
 49
13.000000
 49
-1.500000
 49
1.500000
 49
-1.500000
  0
LTYPE
  2
PHANTOM
 70
    64
  3
_____ _ _ _____ _ _ _____ _ _ _____ _ _ ____  
 72
    65
 73
     6
 40
15.500000
 49
8.000000
 49
-1.500000
 49
1.500000
 49
-1.500000
 49
1.500000
 49
-1.500000
  0
LTYPE
  2
DASHED1
 70
    64
  3
__ __ __ __ __ __ __ __ __ __ __ __ __ __ __
 72
    65
 73
     2
 40
1.500000
 49
1.000000
 49
-0.500000
  0
LTYPE
  2
DASHED2
 70
    64
  3
__ __ __ __ __ __ __ __ __ __ __ __ __ __ __
 72
    65
 73
     2
 40
3.500000
 49
2.500000
 49
-1.000000
  0
LTYPE
  2
DASHED3
 70
    64
  3
__ __ __ __ __ __ __ __ __ __ __ __ __ __ __
 72
    65
 73
     2
 40
6.000000
 49
4.000000
 49
-2.000000
  0
LTYPE
  2
DASHED4
 70
    64
  3
__ __ __ __ __ __ __ __ __ __ __ __ __ __ __
 72
    65
 73
     2
 40
12.000000
 49
10.000000
 49
-2.000000
  0
LTYPE
  2
DASHED5
 70
    64
  3
__ __ __ __ __ __ __ __ __ __ __ __ __ __ __
 72
    65
 73
     2
 40
17.000000
 49
15.000000
 49
-2.000000
  0
LTYPE
  2
DASHED6
 70
    64
  3
__ __ __ __ __ __ __ __ __ __ __ __ __ __ __
 72
    65
 73
     2
 40
29.000000
 49
27.000000
 49
-2.000000
  0
LTYPE
  2
PHANTOM1
 70
    64
  3
_____ _ _ _____ _ _ _____ _ _ _____ _ _ ____  
 72
    65
 73
     6
 40
31.000000
 49
25.000000
 49
-1.500000
 49
1.000000
 49
-1.000000
 49
1.000000
 49
-1.500000
  0
LTYPE
  2
PHANTOM2
 70
    64
  3
_____ _ _ _____ _ _ _____ _ _ _____ _ _ ____  
 72
    65
 73
     6
 40
36.000000
 49
27.000000
 49
-1.500000
 49
2.500000
 49
-1.000000
 49
2.500000
 49
-1.500000
  0
LTYPE
  2
PHANTOM3
 70
    64
  3
_____ _ _ _____ _ _ _____ _ _ _____ _ _ ____  
 72
    65
 73
     6
 40
78.000000
 49
64.000000
 49
-2.000000
 49
4.000000
 49
-2.000000
 49
4.000000
 49
-2.000000
  0
LTYPE
  2
CENTER1
 70
    64
  3
____ _ ____ _ ____ _ ____ _ ____ _ ____ _ ____
 72
    65
 73
     4
 40
19.000000
 49
14.000000
 49
-1.000000
 49
3.000000
 49
-1.000000
  0
LTYPE
  2
CENTER2
 70
    64
  3
____ _ ____ _ ____ _ ____ _ ____ _ ____ _ ____
 72
    65
 73
     4
 40
28.500000
 49
25.000000
 49
-1.000000
 49
1.500000
 49
-1.000000
  0
LTYPE
  2
CENTER3
 70
    64
  3
____ _ ____ _ ____ _ ____ _ ____ _ ____ _ ____
 72
    65
 73
     4
 40
31.500000
 49
27.000000
 49
-1.000000
 49
2.500000
 49
-1.000000
  0
LTYPE
  2
CENTER4
 70
    64
  3
____ _ ____ _ ____ _ ____ _ ____ _ ____ _ ____
 72
    65
 73
     4
 40
50.000000
 49
45.000000
 49
-1.000000
 49
3.000000
 49
-1.000000
  0
LTYPE
  2
CENTER5
 70
    64
  3
____ _ ____ _ ____ _ ____ _ ____ _ ____ _ ____
 72
    65
 73
     4
 40
100.000000
 49
92.000000
 49
-2.000000
 49
4.000000
 49
-2.000000
  0
LTYPE
  2
SBK1
 70
    64
  3
______ _ _ _ ______ _ _ _ ______ _ _ _ _____  
 72
    65
 73
     8
 40
60.500000
 49
45.000000
 49
-2.000000
 49
2.500000
 49
-2.000000
 49
2.500000
 49
-2.000000
 49
2.500000
 49
-2.000000
  0
LTYPE
  2
SBK2
 70
    64
  3
______ _ _ _ ______ _ _ _ ______ _ _ _ _____  
 72
    65
 73
     8
 40
84.000000
 49
64.000000
 49
-2.000000
 49
4.000000
 49
-2.000000
 49
4.000000
 49
-2.000000
 49
4.000000
 49
-2.000000
  0
LTYPE
  2
STCH
 70
    64
  3
__ __ __ __ __ __ __ __ __ __ __ __ __ __ __
 72
    65
 73
     2
 40
3.000000
 49
1.000000
 49
-2.000000
  0
LTYPE
  2
MTCH
 70
    64
  3
_____ _ _ _____ _ _ _____ _ _ _____ _ _ ____  
 72
    65
 73
     6
 40
80.000000
 49
66.000000
 49
-2.000000
 49
4.000000
 49
-2.000000
 49
4.000000
 49
-2.000000
  0
ENDTAB
  0
TABLE
  2
LAYER
 70
     1
  0
LAYER
  2
0
 70
     0
 62
     7
  6
CONTINUOUS
  0
ENDTAB
  0
TABLE
  2
STYLE
 70
     1
  0
STYLE
  2
STANDARD
 70
     0
 40
0.000000
 41
1.000000
 50
0.000000
 71
     0
 42
0.200000
  3
txt
  4
BIGFONT
  0
ENDTAB
  0
TABLE
  2
VIEW
 70
     0
  0
ENDTAB
  0
ENDSEC
  0
SECTION
  2
BLOCKS
  0
ENDSEC
  0
SECTION
  2
ENTITIES
  0
LINE
  8
0
 10
131.123611
 20
90.000008
 11
131.123611
 21
-90.000008
  0
LINE
  8
0
 10
-131.123611
 20
-90.000008
 11
131.123611
 21
-90.000008
  0
LINE
  8
0
 10
77.191010
 20
-79.887642
 11
131.123611
 21
-79.887642
  0
LINE
  8
0
 10
77.191010
 20
-79.887642
 11
77.191010
 21
-90.000008
  0
LINE
  8
0
 10
-131.123611
 20
90.000008
 11
131.123611
 21
90.000008
  0
LINE
  8
0
 10
77.191010
 20
90.000008
 11
77.191010
 21
79.887642
  0
LINE
  8
0
 10
77.191010
 20
79.887642
 11
131.123611
 21
79.887642
  0
LINE
  8
0
 10
-77.191025
 20
79.887642
 11
-77.191025
 21
90.000008
  0
LINE
  8
0
 10
-131.123611
 20
79.887642
 11
-77.191025
 21
79.887642
  0
LINE
  8
0
 10
-131.123611
 20
-90.000008
 11
-131.123611
 21
90.000008
  0
TEXT
  8
0
 10
81.157310
 20
-87.093826
 40
3.500000
  1
KOGANEI CORP.
 50
0.000000
 41
1.052632
 51
0.000000
  7
STANDARD
  0
TEXT
  8
0
 10
80.231529
 20
83.243828
 40
3.000000
  1
DATE : AUG,1992
 50
0.000000
 41
1.052632
 51
0.000000
  7
STANDARD
  0
TEXT
  8
0
 10
-127.157318
 20
82.793823
 40
3.500000
  1
SLIM CYLINDER
 50
0.000000
 41
1.052632
 51
0.000000
  7
STANDARD
  0
TEXT
  8
0
 10
-107.499840
 20
62.849998
 40
3.500000
  1
MODEL:DAK20X25-HL
 50
0.000000
 41
1.052632
 51
0.000000
  7
STANDARD
  0
POINT
  8
0
 10
-26.500008
 20
25.999998
  0
POINT
  8
0
 10
95.500076
 20
25.999998
  0
LINE
  8
0
 10
-30.230831
 20
41.588470
 11
-35.794216
 21
41.588470
  0
LINE
  8
0
 10
-37.000000
 20
36.000015
 11
-37.500000
 21
36.000015
  0
LINE
  8
0
 10
-30.000004
 20
10.411534
 11
-35.794239
 21
10.411535
  0
LINE
  8
0
 10
-37.000000
 20
17.000017
 11
-38.500000
 21
17.000019
  0
LINE
  8
0
 10
-29.500004
 20
12.499745
 11
-30.000004
 21
12.499745
  0
LINE
  8
0
 10
-37.000000
 20
16.000017
 11
-37.500000
 21
16.000017
  0
LINE
  8
0
 10
-37.000031
 20
39.500057
 11
-35.794266
 21
41.588509
  0
LINE
  8
0
 10
-35.794231
 20
10.411550
 11
-37.000015
 21
12.500029
  0
LINE
  8
0
 10
-30.000002
 20
18.205788
 11
-35.794235
 21
18.205790
  0
LINE
  8
0
 10
-29.999998
 20
33.794247
 11
-35.794220
 21
33.794250
  0
LINE
  8
0
 10
-38.499969
 20
17.000000
 11
-37.499950
 21
15.999996
  0
LINE
  8
0
 10
-38.499973
 20
34.999977
 11
-37.499973
 21
35.999977
  0
LINE
  8
0
 10
-38.500000
 20
35.000015
 11
-37.000000
 21
35.000015
  0
LINE
  8
0
 10
-37.500000
 20
36.000015
 11
-37.000000
 21
36.000015
  0
LINE
  8
0
 10
-37.500000
 20
16.000017
 11
-37.000000
 21
16.000017
  0
LINE
  8
0
 10
-37.500000
 20
36.000015
 11
-37.000000
 21
36.000015
  0
LINE
  8
0
 10
-30.000004
 20
12.499745
 11
-29.500004
 21
12.499745
  0
LINE
  8
0
 10
-29.999996
 20
39.500011
 11
-29.499996
 21
39.500011
  0
LINE
  8
0
 10
-35.794239
 20
10.411535
 11
-30.000004
 21
10.411534
  0
LINE
  8
0
 10
-29.643341
 20
26.000015
 11
-29.643341
 21
26.000015
  0
LINE
  8
0
 10
-35.794216
 20
41.588470
 11
-29.999996
 21
41.588470
  0
LINE
  8
0
 10
-44.500000
 20
23.354271
 11
-44.500000
 21
28.645767
  0
LINE
  8
0
 10
-39.500000
 20
23.354265
 11
-39.500000
 21
28.645765
  0
LINE
  8
0
 10
-44.500000
 20
28.645767
 11
-39.500000
 21
28.645765
  0
LINE
  8
0
 10
-44.500000
 20
23.354233
 11
-39.500000
 21
23.354231
  0
LINE
  8
0
 10
-44.500023
 20
23.354301
 11
-39.500019
 21
28.645802
  0
LINE
  8
0
 10
-44.499992
 20
28.645775
 11
-39.500000
 21
23.354273
  0
LINE
  8
0
 10
-29.500004
 20
12.500012
 11
-29.499996
 21
39.500011
  0
LINE
  8
0
 10
-30.000004
 20
10.411557
 11
-29.999996
 21
41.588470
  0
LINE
  8
0
 10
-38.500000
 20
17.000019
 11
-38.500000
 21
35.000015
  0
LINE
  8
0
 10
-36.999996
 20
39.500015
 11
-37.000004
 21
12.500017
  0
LINE
  8
0
 10
-26.500002
 20
12.499985
 11
-26.499998
 21
39.500015
  0
LINE
  8
0
 10
-10.499998
 20
39.500011
 11
-10.500002
 21
12.499982
  0
LINE
  8
0
 10
-29.500002
 20
16.000011
 11
-26.500002
 21
16.000011
  0
LINE
  8
0
 10
-29.500002
 20
17.000011
 11
-28.500002
 21
17.000011
  0
LINE
  8
0
 10
-26.499998
 20
36.000011
 11
-29.499998
 21
36.000011
  0
LINE
  8
0
 10
-29.499998
 20
35.000011
 11
-28.499998
 21
35.000011
  0
LINE
  8
0
 10
-46.500000
 20
22.000019
 11
-46.500000
 21
30.000015
  0
LINE
  8
0
 10
-37.500061
 20
36.000015
 11
-37.500061
 21
16.000017
  0
LINE
  8
0
 10
-28.499998
 20
36.000011
 11
-28.500002
 21
16.000011
  0
LINE
  8
0
 10
-61.500000
 20
29.000027
 11
-61.500000
 21
23.000027
  0
LINE
  8
0
 10
-61.500000
 20
29.000027
 11
-46.500000
 21
29.000023
  0
LINE
  8
0
 10
-61.500000
 20
23.000027
 11
-46.500000
 21
23.000023
  0
LINE
  8
0
 10
-38.500000
 20
22.000021
 11
-60.500000
 21
22.000027
  0
LINE
  8
0
 10
-60.500000
 20
30.000019
 11
-38.500000
 21
30.000013
  0
LINE
  8
0
 10
-61.499939
 20
28.999977
 11
-60.499939
 21
29.999969
  0
LINE
  8
0
 10
-61.499958
 20
23.000006
 11
-60.499962
 21
22.000004
  0
LINE
  8
0
 10
-60.500000
 20
30.000019
 11
-60.500000
 21
22.000027
  0
LINE
  8
0
 10
58.500000
 20
40.499985
 11
58.500000
 21
11.499987
  0
LINE
  8
0
 10
95.500000
 20
16.999987
 11
95.500000
 21
34.999985
  0
LINE
  8
0
 10
76.500000
 20
15.999983
 11
76.500000
 21
16.999941
  0
LINE
  8
0
 10
74.500000
 20
11.499983
 11
74.500000
 21
40.499977
  0
LINE
  8
0
 10
74.499992
 20
35.999947
 11
94.660919
 21
35.999939
  0
LINE
  8
0
 10
95.500000
 20
34.999985
 11
76.500000
 21
34.999992
  0
LINE
  8
0
 10
76.500000
 20
16.999941
 11
95.500000
 21
16.999937
  0
LINE
  8
0
 10
94.660919
 20
15.999941
 11
74.500000
 21
15.999945
  0
LINE
  8
0
 10
76.500000
 20
34.999992
 11
76.500000
 21
35.999985
  0
LINE
  8
0
 10
95.500229
 20
35.000126
 11
94.661118
 21
36.000114
  0
LINE
  8
0
 10
95.499992
 20
16.999989
 11
94.660912
 21
16.000008
  0
LINE
  8
0
 10
94.660919
 20
15.999987
 11
94.660919
 21
16.999937
  0
LINE
  8
0
 10
76.500053
 20
35.000034
 11
74.768005
 21
36.000015
  0
LINE
  8
0
 10
76.500084
 20
16.999981
 11
74.768013
 21
15.999970
  0
LINE
  8
0
 10
94.660919
 20
34.999985
 11
94.660919
 21
35.999985
  0
LINE
  8
0
 10
-10.500002
 20
15.299996
 11
58.500000
 21
15.299982
  0
LINE
  8
0
 10
-10.499998
 20
36.699997
 11
58.500000
 21
36.699982
  0
LINE
  8
0
 10
-63.550003
 20
26.000008
 11
100.555550
 21
25.999973
  0
LINE
  8
0
 10
74.500000
 20
40.499977
 11
58.500000
 21
40.499985
  0
LINE
  8
0
 10
74.500000
 20
11.499983
 11
58.500000
 21
11.499987
  0
LINE
  8
0
 10
-26.499998
 20
39.500015
 11
-10.499998
 21
39.500011
  0
LINE
  8
0
 10
-26.500002
 20
12.499985
 11
-10.500002
 21
12.499982
  0
LINE
  8
0
 10
58.500000
 20
33.999985
 11
74.500000
 21
33.999981
  0
LINE
  8
0
 10
58.500000
 20
17.999983
 11
74.500000
 21
17.999979
  0
LINE
  8
0
 10
-18.500004
 20
9.500002
 11
-18.499996
 21
42.500000
  0
LINE
  8
0
 10
66.500000
 20
42.499981
 11
66.500000
 21
9.499985
  0
LINE
  8
0
 10
86.500000
 20
40.499977
 11
86.500000
 21
11.499981
  0
LINE
  8
0
 10
70.584923
 20
30.084913
 11
72.415009
 21
31.914999
  0
LINE
  8
0
 10
70.584953
 20
31.915058
 11
72.415070
 21
30.084944
  0
LINE
  8
0
 10
60.584953
 20
31.915060
 11
62.415070
 21
30.084946
  0
LINE
  8
0
 10
60.584915
 20
30.084911
 11
62.415009
 21
31.914997
  0
LINE
  8
0
 10
60.584953
 20
21.915052
 11
62.415070
 21
20.084938
  0
LINE
  8
0
 10
60.584923
 20
20.084913
 11
62.415009
 21
21.914997
  0
LINE
  8
0
 10
70.584961
 20
21.915054
 11
72.415070
 21
20.084944
  0
LINE
  8
0
 10
70.584923
 20
20.084913
 11
72.415009
 21
21.915001
  0
ARC
  8
0
 10
71.500000
 20
30.999981
 40
4.000000
 50
131.409622
 51
318.590363
  0
ARC
  8
0
 10
71.500000
 20
20.999981
 40
3.999998
 50
41.409588
 51
228.590347
  0
CIRCLE
  8
0
 10
66.500000
 20
25.999981
 40
1.750000
  0
CIRCLE
  8
0
 10
71.500000
 20
30.999981
 40
2.750000
  0
ARC
  8
0
 10
61.500000
 20
20.999981
 40
4.000000
 50
311.409637
 51
138.590332
  0
CIRCLE
  8
0
 10
86.500000
 20
25.999969
 40
4.000000
  0
CIRCLE
  8
0
 10
61.500000
 20
30.999981
 40
2.750000
  0
CIRCLE
  8
0
 10
61.500000
 20
20.999981
 40
2.750000
  0
CIRCLE
  8
0
 10
71.500000
 20
20.999981
 40
2.750000
  0
ARC
  8
0
 10
61.500000
 20
30.999981
 40
3.999998
 50
221.409592
 51
48.590370
  0
POLYLINE
  8
0
 66
     1
  0
VERTEX
  8
0
 10
-35.794216
 20
41.588470
  0
VERTEX
  8
0
 10
-36.194382
 20
40.870705
  0
VERTEX
  8
0
 10
-36.527760
 20
40.111835
  0
VERTEX
  8
0
 10
-36.781635
 20
39.322140
  0
VERTEX
  8
0
 10
-36.943291
 20
38.511887
  0
VERTEX
  8
0
 10
-37.000000
 20
37.691360
  0
VERTEX
  8
0
 10
-36.943291
 20
36.870834
  0
VERTEX
  8
0
 10
-36.781639
 20
36.060585
  0
VERTEX
  8
0
 10
-36.527763
 20
35.270885
  0
VERTEX
  8
0
 10
-36.194386
 20
34.512016
  0
VERTEX
  8
0
 10
-35.794220
 20
33.794250
  0
SEQEND
  0
POLYLINE
  8
0
 66
     1
  0
VERTEX
  8
0
 10
-35.794235
 20
18.205790
  0
VERTEX
  8
0
 10
-36.194397
 20
17.488024
  0
VERTEX
  8
0
 10
-36.527771
 20
16.729153
  0
VERTEX
  8
0
 10
-36.781643
 20
15.939454
  0
VERTEX
  8
0
 10
-36.943291
 20
15.129203
  0
VERTEX
  8
0
 10
-37.000000
 20
14.308676
  0
VERTEX
  8
0
 10
-36.943291
 20
13.488149
  0
VERTEX
  8
0
 10
-36.781643
 20
12.677897
  0
VERTEX
  8
0
 10
-36.527775
 20
11.888199
  0
VERTEX
  8
0
 10
-36.194401
 20
11.129328
  0
VERTEX
  8
0
 10
-35.794239
 20
10.411562
  0
SEQEND
  0
POLYLINE
  8
0
 66
     1
  0
VERTEX
  8
0
 10
-35.794235
 20
18.205790
  0
VERTEX
  8
0
 10
-36.069149
 20
19.153440
  0
VERTEX
  8
0
 10
-36.310459
 20
20.111744
  0
VERTEX
  8
0
 10
-36.517231
 20
21.079174
  0
VERTEX
  8
0
 10
-36.688519
 20
22.054214
  0
VERTEX
  8
0
 10
-36.823380
 20
23.035339
  0
VERTEX
  8
0
 10
-36.920876
 20
24.021029
  0
VERTEX
  8
0
 10
-36.980061
 20
25.009762
  0
VERTEX
  8
0
 10
-37.000000
 20
26.000017
  0
VERTEX
  8
0
 10
-36.980061
 20
26.990273
  0
VERTEX
  8
0
 10
-36.920872
 20
27.979006
  0
VERTEX
  8
0
 10
-36.823372
 20
28.964697
  0
VERTEX
  8
0
 10
-36.688511
 20
29.945824
  0
VERTEX
  8
0
 10
-36.517220
 20
30.920864
  0
VERTEX
  8
0
 10
-36.310448
 20
31.888296
  0
VERTEX
  8
0
 10
-36.069134
 20
32.846600
  0
VERTEX
  8
0
 10
-35.794220
 20
33.794250
  0
SEQEND
  0
POINT
  8
0
 10
-88.499962
 20
26.000002
  0
POINT
  8
0
 10
-102.000000
 20
26.000002
  0
LINE
  8
0
 10
-115.500000
 20
33.794235
 11
-115.500000
 21
18.205778
  0
LINE
  8
0
 10
-88.500000
 20
33.794228
 11
-88.500000
 21
18.205736
  0
LINE
  8
0
 10
-101.999924
 20
41.588417
 11
-88.499939
 21
33.794193
  0
LINE
  8
0
 10
-115.499901
 20
18.205786
 11
-101.999939
 21
10.411558
  0
LINE
  8
0
 10
-108.000000
 20
29.464102
 11
-108.000000
 21
22.535902
  0
LINE
  8
0
 10
-96.000000
 20
29.464098
 11
-96.000000
 21
22.535898
  0
LINE
  8
0
 10
-108.000137
 20
29.464188
 11
-102.000145
 21
32.928288
  0
LINE
  8
0
 10
-102.000000
 20
19.071775
 11
-95.999992
 21
22.535877
  0
LINE
  8
0
 10
-101.999992
 20
32.928192
 11
-95.999977
 21
29.464077
  0
LINE
  8
0
 10
-108.000053
 20
22.535969
 11
-101.999992
 21
19.071846
  0
LINE
  8
0
 10
-101.999924
 20
10.411524
 11
-88.499939
 21
18.205730
  0
LINE
  8
0
 10
-118.800003
 20
26.000008
 11
-81.746284
 21
25.999990
  0
LINE
  8
0
 10
-115.500031
 20
33.794258
 11
-101.999962
 21
41.588459
  0
LINE
  8
0
 10
-84.500000
 20
28.354240
 11
-84.500000
 21
23.645744
  0
LINE
  8
0
 10
-87.000000
 20
33.749992
 11
-87.000000
 21
28.354242
  0
LINE
  8
0
 10
-88.856400
 20
33.999992
 11
-86.000000
 21
33.999992
  0
LINE
  8
0
 10
-88.856369
 20
17.999994
 11
-86.000015
 21
17.999992
  0
LINE
  8
0
 10
-87.000000
 20
28.354242
 11
-84.500000
 21
28.354240
  0
LINE
  8
0
 10
-87.000000
 20
23.645746
 11
-84.500000
 21
23.645744
  0
LINE
  8
0
 10
-87.000000
 20
23.645746
 11
-87.000000
 21
18.249994
  0
LINE
  8
0
 10
-86.000038
 20
33.999950
 11
-85.750046
 21
33.749958
  0
LINE
  8
0
 10
-85.749985
 20
18.249954
 11
-85.999992
 21
17.999956
  0
LINE
  8
0
 10
-87.000000
 20
33.749992
 11
-84.000000
 21
33.749992
  0
LINE
  8
0
 10
-84.000000
 20
33.749992
 11
-84.000000
 21
28.249992
  0
LINE
  8
0
 10
-84.500000
 20
28.249992
 11
-84.000000
 21
28.249992
  0
LINE
  8
0
 10
-84.500000
 20
23.749992
 11
-84.000000
 21
23.749992
  0
LINE
  8
0
 10
-87.000000
 20
18.249994
 11
-84.000000
 21
18.249992
  0
LINE
  8
0
 10
-84.000000
 20
18.249992
 11
-84.000000
 21
23.749992
  0
LINE
  8
0
 10
-101.999992
 20
44.811737
 11
-102.000008
 21
7.028355
  0
ARC
  8
0
 10
-102.000000
 20
26.000000
 40
14.500001
 50
38.596672
 51
81.403275
  0
ARC
  8
0
 10
-102.000000
 20
26.000000
 40
14.500000
 50
278.596832
 51
321.402802
  0
CIRCLE
  8
0
 10
-102.000000
 20
26.000000
 40
4.000000
  0
CIRCLE
  8
0
 10
-102.000000
 20
26.000000
 40
9.000000
  0
CIRCLE
  8
0
 10
-102.000000
 20
26.000000
 40
10.000000
  0
CIRCLE
  8
0
 10
-102.000000
 20
26.000000
 40
13.500000
  0
CIRCLE
  8
0
 10
-102.000000
 20
26.000000
 40
6.000000
  0
CIRCLE
  8
0
 10
-102.000000
 20
26.000000
 40
3.000000
  0
ARC
  8
0
 10
-102.000000
 20
26.000000
 40
14.499999
 50
98.596451
 51
141.403183
  0
ARC
  8
0
 10
-102.000000
 20
26.000000
 40
14.500000
 50
158.596649
 51
201.403290
  0
ARC
  8
0
 10
-102.000000
 20
26.000000
 40
14.499998
 50
218.596359
 51
261.403534
  0
POINT
  8
0
 10
95.500092
 20
-44.645405
  0
POINT
  8
0
 10
-26.500010
 20
-44.645405
  0
LINE
  8
0
 10
-64.050003
 20
-44.645393
 11
98.556381
 21
-44.645420
  0
LINE
  8
0
 10
58.750008
 20
-29.645430
 11
64.145752
 21
-29.645432
  0
LINE
  8
0
 10
64.145752
 20
-29.645432
 11
64.145752
 21
-27.145430
  0
LINE
  8
0
 10
68.854248
 20
-29.645432
 11
68.854248
 21
-27.145432
  0
LINE
  8
0
 10
68.854248
 20
-29.645432
 11
74.250000
 21
-29.645432
  0
LINE
  8
0
 10
74.250008
 20
-28.395414
 11
74.500008
 21
-28.645416
  0
LINE
  8
0
 10
58.750008
 20
-29.645430
 11
58.750008
 21
-26.645428
  0
LINE
  8
0
 10
58.750008
 20
-26.645428
 11
64.250000
 21
-26.645428
  0
LINE
  8
0
 10
64.250000
 20
-27.145430
 11
64.250000
 21
-26.645428
  0
LINE
  8
0
 10
68.750000
 20
-27.145432
 11
68.750000
 21
-26.645430
  0
LINE
  8
0
 10
74.250000
 20
-29.645432
 11
74.250000
 21
-26.645430
  0
LINE
  8
0
 10
74.250000
 20
-26.645430
 11
68.750000
 21
-26.645430
  0
LINE
  8
0
 10
-38.499954
 20
-53.645443
 11
-37.499939
 21
-54.645451
  0
LINE
  8
0
 10
-38.499981
 20
-35.645428
 11
-37.499992
 21
-34.645443
  0
LINE
  8
0
 10
-38.500000
 20
-53.645386
 11
-38.500000
 21
-35.645386
  0
LINE
  8
0
 10
-26.500002
 20
-58.145386
 11
-26.499998
 21
-31.145386
  0
LINE
  8
0
 10
-26.499998
 20
-31.145386
 11
-10.499998
 21
-31.145390
  0
LINE
  8
0
 10
-26.500002
 20
-58.145386
 11
-10.500002
 21
-58.145390
  0
LINE
  8
0
 10
-37.500000
 20
-54.645386
 11
-37.000000
 21
-54.645386
  0
LINE
  8
0
 10
-38.500000
 20
-53.645386
 11
-37.000000
 21
-53.645386
  0
LINE
  8
0
 10
-26.499998
 20
-34.645386
 11
-29.499998
 21
-34.645386
  0
LINE
  8
0
 10
-38.500000
 20
-35.645386
 11
-37.000000
 21
-35.645386
  0
LINE
  8
0
 10
-46.500000
 20
-48.645382
 11
-46.500000
 21
-40.645382
  0
LINE
  8
0
 10
-37.500031
 20
-34.645393
 11
-37.500031
 21
-54.645393
  0
LINE
  8
0
 10
-28.499998
 20
-34.645386
 11
-28.500002
 21
-54.645386
  0
LINE
  8
0
 10
-61.500000
 20
-41.645382
 11
-61.500000
 21
-47.645382
  0
LINE
  8
0
 10
-61.499886
 20
-41.645447
 11
-60.499901
 21
-40.645451
  0
LINE
  8
0
 10
-61.500008
 20
-47.645485
 11
-60.500038
 21
-48.645477
  0
LINE
  8
0
 10
-60.500000
 20
-40.645382
 11
-60.500000
 21
-48.645382
  0
LINE
  8
0
 10
-61.500000
 20
-47.645382
 11
-46.499985
 21
-47.645382
  0
LINE
  8
0
 10
-61.500000
 20
-41.645382
 11
-46.500000
 21
-41.645382
  0
LINE
  8
0
 10
-60.500000
 20
-48.645382
 11
-45.499985
 21
-48.645382
  0
LINE
  8
0
 10
-18.500000
 20
-36.732071
 11
-18.500000
 21
-52.645401
  0
LINE
  8
0
 10
-44.500000
 20
-41.645397
 11
-39.500000
 21
-41.645397
  0
LINE
  8
0
 10
-44.500000
 20
-47.645397
 11
-39.500000
 21
-47.645397
  0
LINE
  8
0
 10
-39.499973
 20
-41.645458
 11
-38.499947
 21
-40.645451
  0
LINE
  8
0
 10
-45.499924
 20
-48.645466
 11
-44.499943
 21
-47.645489
  0
LINE
  8
0
 10
-39.500061
 20
-47.645443
 11
-38.500069
 21
-48.645428
  0
LINE
  8
0
 10
-45.499947
 20
-40.645325
 11
-44.499901
 21
-41.645355
  0
LINE
  8
0
 10
-45.500015
 20
-40.645367
 11
-60.500000
 21
-40.645367
  0
LINE
  8
0
 10
74.500000
 20
-58.145416
 11
74.500000
 21
-28.645393
  0
LINE
  8
0
 10
74.500000
 20
-31.145416
 11
58.500000
 21
-31.145414
  0
LINE
  8
0
 10
74.500000
 20
-58.145416
 11
58.500000
 21
-58.145416
  0
LINE
  8
0
 10
95.500000
 20
-50.645420
 11
95.500000
 21
-38.645420
  0
LINE
  8
0
 10
75.500000
 20
-54.645416
 11
75.500000
 21
-50.645416
  0
LINE
  8
0
 10
74.500000
 20
-54.645416
 11
74.500000
 21
-34.645416
  0
LINE
  8
0
 10
74.500000
 20
-34.645416
 11
75.500000
 21
-34.645416
  0
LINE
  8
0
 10
75.500000
 20
-54.645416
 11
74.500000
 21
-54.645416
  0
LINE
  8
0
 10
86.500000
 20
-35.645420
 11
86.500000
 21
-53.645420
  0
LINE
  8
0
 10
-10.500002
 20
-55.345402
 11
58.500000
 21
-55.345413
  0
LINE
  8
0
 10
-10.499998
 20
-33.945408
 11
58.500000
 21
-33.945419
  0
LINE
  8
0
 10
66.500000
 20
-36.645416
 11
66.500000
 21
-52.645416
  0
LINE
  8
0
  6
DASHED
 10
82.500000
 20
-38.645416
 11
82.500000
 21
-50.645416
  0
LINE
  8
0
  6
DASHED
 10
90.500000
 20
-38.645420
 11
90.500000
 21
-50.645420
  0
LINE
  8
0
 10
75.500000
 20
-38.645416
 11
95.500000
 21
-38.645420
  0
LINE
  8
0
 10
75.500000
 20
-50.645416
 11
95.500000
 21
-50.645420
  0
LINE
  8
0
 10
75.500000
 20
-38.645416
 11
75.500000
 21
-34.645416
  0
LINE
  8
0
 10
-10.499998
 20
-31.145390
 11
-10.500002
 21
-58.145390
  0
LINE
  8
0
 10
58.500000
 20
-28.645391
 11
58.500000
 21
-58.145416
  0
LINE
  8
0
 10
-35.794216
 20
-29.056929
 11
-29.499998
 21
-29.056931
  0
LINE
  8
0
 10
-30.000002
 20
-60.233841
 11
-29.999998
 21
-29.056931
  0
LINE
  8
0
 10
-29.500002
 20
-60.233856
 11
-29.499998
 21
-29.056931
  0
LINE
  8
0
 10
-37.000031
 20
-31.145367
 11
-35.794270
 21
-29.056919
  0
LINE
  8
0
 10
-37.000000
 20
-31.145384
 11
-37.000000
 21
-58.145386
  0
LINE
  8
0
 10
-35.794243
 20
-60.233841
 11
-37.000023
 21
-58.145370
  0
LINE
  8
0
 10
-35.794239
 20
-60.233856
 11
-29.500002
 21
-60.233856
  0
LINE
  8
0
 10
-37.000000
 20
-34.645386
 11
-37.500015
 21
-34.645386
  0
LINE
  8
0
 10
-29.499998
 20
-35.645386
 11
-28.499998
 21
-35.645386
  0
LINE
  8
0
 10
-29.500002
 20
-53.645386
 11
-28.500002
 21
-53.645386
  0
LINE
  8
0
 10
-29.500002
 20
-54.645386
 11
-26.500002
 21
-54.645386
  0
LINE
  8
0
 10
64.145752
 20
-27.145430
 11
68.854248
 21
-27.145432
  0
LINE
  8
0
 10
58.750000
 20
-28.395405
 11
58.499992
 21
-28.645412
  0
ARC
  8
0
 10
-11.206056
 20
-52.439579
 40
25.793945
 50
162.411880
 51
197.588043
  0
ARC
  8
0
 10
-11.206054
 20
-36.851139
 40
25.793947
 50
162.411911
 51
197.588089
  0
CIRCLE
  8
0
 10
-18.500000
 20
-44.645401
 40
5.000000
  0
CIRCLE
  8
0
 10
66.500000
 20
-44.645416
 40
5.000000
  0
CIRCLE
  8
0
 10
66.500000
 20
-44.645416
 40
4.000000
  0
CIRCLE
  8
0
 10
-18.500000
 20
-44.645401
 40
4.000000
  0
POINT
  8
0
 10
95.500092
 20
25.999998
  0
POINT
  8
0
 10
-26.500008
 20
25.999998
  0
LINE
  8
0
 10
-64.050003
 20
26.000008
 11
98.556381
 21
25.999983
  0
LINE
  8
0
 10
58.750008
 20
40.999973
 11
64.145752
 21
40.999973
  0
LINE
  8
0
 10
64.145752
 20
40.999973
 11
64.145752
 21
43.499973
  0
LINE
  8
0
 10
68.854248
 20
40.999969
 11
68.854248
 21
43.499969
  0
LINE
  8
0
 10
68.854248
 20
40.999969
 11
74.250000
 21
40.999969
  0
LINE
  8
0
 10
74.250008
 20
42.249989
 11
74.500008
 21
41.999985
  0
LINE
  8
0
 10
58.750008
 20
40.999973
 11
58.750008
 21
43.999977
  0
LINE
  8
0
 10
58.750008
 20
43.999977
 11
64.250000
 21
43.999977
  0
LINE
  8
0
 10
64.250000
 20
43.499973
 11
64.250000
 21
43.999977
  0
LINE
  8
0
 10
68.750000
 20
43.499969
 11
68.750000
 21
43.999973
  0
LINE
  8
0
 10
74.250000
 20
40.999969
 11
74.250000
 21
43.999973
  0
LINE
  8
0
 10
74.250000
 20
43.999973
 11
68.750000
 21
43.999973
  0
LINE
  8
0
 10
-38.499950
 20
16.999960
 11
-37.499935
 21
15.999951
  0
LINE
  8
0
 10
-38.499977
 20
34.999973
 11
-37.499992
 21
35.999958
  0
LINE
  8
0
 10
-38.500000
 20
17.000019
 11
-38.499996
 21
35.000019
  0
LINE
  8
0
 10
-26.500000
 20
12.500017
 11
-26.499996
 21
39.500015
  0
LINE
  8
0
 10
-26.499996
 20
39.500015
 11
-10.499996
 21
39.500015
  0
LINE
  8
0
 10
-26.500000
 20
12.500017
 11
-10.500000
 21
12.500014
  0
LINE
  8
0
 10
-37.500000
 20
16.000019
 11
-37.000000
 21
16.000019
  0
LINE
  8
0
 10
-38.500000
 20
17.000019
 11
-37.000000
 21
17.000019
  0
LINE
  8
0
 10
-26.499996
 20
36.000015
 11
-29.499996
 21
36.000015
  0
LINE
  8
0
 10
-38.499996
 20
35.000019
 11
-36.999996
 21
35.000019
  0
LINE
  8
0
 10
-46.500000
 20
22.000021
 11
-46.500000
 21
30.000021
  0
LINE
  8
0
 10
-37.500027
 20
36.000011
 11
-37.500031
 21
16.000011
  0
LINE
  8
0
 10
-28.499996
 20
36.000015
 11
-28.500000
 21
16.000017
  0
LINE
  8
0
 10
-61.500000
 20
29.000023
 11
-61.500000
 21
23.000023
  0
LINE
  8
0
 10
-61.499886
 20
28.999958
 11
-60.499901
 21
29.999952
  0
LINE
  8
0
 10
-61.500004
 20
22.999916
 11
-60.500034
 21
21.999928
  0
LINE
  8
0
 10
-60.500000
 20
30.000023
 11
-60.500000
 21
22.000023
  0
LINE
  8
0
 10
-61.500000
 20
23.000023
 11
-46.499985
 21
23.000021
  0
LINE
  8
0
 10
-61.500000
 20
29.000023
 11
-46.500000
 21
29.000021
  0
LINE
  8
0
 10
-60.500000
 20
22.000023
 11
-45.499985
 21
22.000019
  0
LINE
  8
0
 10
-18.499996
 20
33.913330
 11
-18.500000
 21
18.000000
  0
LINE
  8
0
 10
-44.500000
 20
29.000004
 11
-39.500000
 21
29.000004
  0
LINE
  8
0
 10
-44.500000
 20
23.000004
 11
-39.500000
 21
23.000004
  0
LINE
  8
0
 10
-39.499973
 20
28.999945
 11
-38.499947
 21
29.999952
  0
LINE
  8
0
 10
-45.499924
 20
21.999935
 11
-44.499939
 21
22.999914
  0
LINE
  8
0
 10
-39.500057
 20
22.999960
 11
-38.500065
 21
21.999973
  0
LINE
  8
0
 10
-45.499947
 20
30.000078
 11
-44.499901
 21
29.000048
  0
LINE
  8
0
 10
-45.500015
 20
30.000034
 11
-60.500000
 21
30.000038
  0
LINE
  8
0
 10
74.500000
 20
12.499986
 11
74.500000
 21
42.000008
  0
LINE
  8
0
 10
74.500000
 20
39.499985
 11
58.500000
 21
39.499989
  0
LINE
  8
0
 10
74.500000
 20
12.499986
 11
58.500000
 21
12.499989
  0
LINE
  8
0
 10
95.500000
 20
19.999983
 11
95.500000
 21
31.999983
  0
LINE
  8
0
 10
75.500000
 20
15.999986
 11
75.500000
 21
19.999987
  0
LINE
  8
0
 10
74.500000
 20
15.999986
 11
74.500000
 21
35.999985
  0
LINE
  8
0
 10
74.500000
 20
35.999985
 11
75.500000
 21
35.999985
  0
LINE
  8
0
 10
75.500000
 20
15.999986
 11
74.500000
 21
15.999986
  0
LINE
  8
0
 10
86.500000
 20
34.999985
 11
86.500000
 21
16.999985
  0
LINE
  8
0
 10
-10.500000
 20
15.300002
 11
58.500000
 21
15.299992
  0
LINE
  8
0
 10
-10.499996
 20
36.699997
 11
58.500000
 21
36.699986
  0
LINE
  8
0
 10
66.500000
 20
33.999989
 11
66.500000
 21
17.999989
  0
LINE
  8
0
  6
DASHED
 10
82.500000
 20
31.999985
 11
82.500000
 21
19.999985
  0
LINE
  8
0
  6
DASHED
 10
90.500000
 20
31.999985
 11
90.500000
 21
19.999985
  0
LINE
  8
0
 10
75.500000
 20
31.999987
 11
95.500000
 21
31.999983
  0
LINE
  8
0
 10
75.500000
 20
19.999987
 11
95.500000
 21
19.999983
  0
LINE
  8
0
 10
75.500000
 20
31.999987
 11
75.500000
 21
35.999985
  0
LINE
  8
0
 10
-10.499996
 20
39.500015
 11
-10.500000
 21
12.500014
  0
LINE
  8
0
 10
58.500000
 20
42.000011
 11
58.500000
 21
12.499989
  0
LINE
  8
0
 10
-35.794216
 20
41.588474
 11
-29.499996
 21
41.588470
  0
LINE
  8
0
 10
-30.000000
 20
10.411563
 11
-29.999996
 21
41.588474
  0
LINE
  8
0
 10
-29.500000
 20
10.411547
 11
-29.499996
 21
41.588470
  0
LINE
  8
0
 10
-37.000031
 20
39.500038
 11
-35.794266
 21
41.588482
  0
LINE
  8
0
 10
-36.999996
 20
39.500019
 11
-37.000000
 21
12.500019
  0
LINE
  8
0
 10
-35.794243
 20
10.411560
 11
-37.000019
 21
12.500032
  0
LINE
  8
0
 10
-35.794235
 20
10.411549
 11
-29.500000
 21
10.411547
  0
LINE
  8
0
 10
-36.999996
 20
36.000019
 11
-37.500011
 21
36.000019
  0
LINE
  8
0
 10
-29.499996
 20
35.000015
 11
-28.499996
 21
35.000015
  0
LINE
  8
0
 10
-29.500000
 20
17.000017
 11
-28.500000
 21
17.000017
  0
LINE
  8
0
 10
-29.500000
 20
16.000017
 11
-26.500000
 21
16.000017
  0
LINE
  8
0
 10
64.145752
 20
43.499973
 11
68.854248
 21
43.499969
  0
LINE
  8
0
 10
58.750000
 20
42.250000
 11
58.499992
 21
41.999992
  0
ARC
  8
0
 10
-11.206054
 20
18.205826
 40
25.793947
 50
162.411880
 51
197.588043
  0
ARC
  8
0
 10
-11.206052
 20
33.794266
 40
25.793943
 50
162.411926
 51
197.588089
  0
CIRCLE
  8
0
 10
-18.499998
 20
26.000000
 40
5.000000
  0
CIRCLE
  8
0
 10
66.500000
 20
25.999987
 40
5.000000
  0
CIRCLE
  8
0
 10
66.500000
 20
25.999987
 40
4.000000
  0
CIRCLE
  8
0
 10
-18.499998
 20
26.000000
 40
4.000000
  0
POINT
  8
0
 10
95.500092
 20
25.999998
  0
POINT
  8
0
 10
-26.500008
 20
25.999998
  0
LINE
  8
0
 10
-64.050003
 20
26.000008
 11
98.556381
 21
25.999983
  0
LINE
  8
0
 10
58.750008
 20
40.999973
 11
64.145752
 21
40.999973
  0
LINE
  8
0
 10
64.145752
 20
40.999973
 11
64.145752
 21
43.499973
  0
LINE
  8
0
 10
68.854248
 20
40.999969
 11
68.854248
 21
43.499969
  0
LINE
  8
0
 10
68.854248
 20
40.999969
 11
74.250000
 21
40.999969
  0
LINE
  8
0
 10
74.250008
 20
42.249989
 11
74.500008
 21
41.999985
  0
LINE
  8
0
 10
58.750008
 20
40.999973
 11
58.750008
 21
43.999977
  0
LINE
  8
0
 10
58.750008
 20
43.999977
 11
64.250000
 21
43.999977
  0
LINE
  8
0
 10
64.250000
 20
43.499973
 11
64.250000
 21
43.999977
  0
LINE
  8
0
 10
68.750000
 20
43.499969
 11
68.750000
 21
43.999973
  0
LINE
  8
0
 10
74.250000
 20
40.999969
 11
74.250000
 21
43.999973
  0
LINE
  8
0
 10
74.250000
 20
43.999973
 11
68.750000
 21
43.999973
  0
LINE
  8
0
 10
-38.499950
 20
16.999960
 11
-37.499935
 21
15.999951
  0
LINE
  8
0
 10
-38.499977
 20
34.999973
 11
-37.499992
 21
35.999958
  0
LINE
  8
0
 10
-38.500000
 20
17.000019
 11
-38.499996
 21
35.000019
  0
LINE
  8
0
 10
-26.500000
 20
12.500017
 11
-26.499996
 21
39.500015
  0
LINE
  8
0
 10
-26.499996
 20
39.500015
 11
-10.499996
 21
39.500015
  0
LINE
  8
0
 10
-26.500000
 20
12.500017
 11
-10.500000
 21
12.500014
  0
LINE
  8
0
 10
-37.500000
 20
16.000019
 11
-37.000000
 21
16.000019
  0
LINE
  8
0
 10
-38.500000
 20
17.000019
 11
-37.000000
 21
17.000019
  0
LINE
  8
0
 10
-26.499996
 20
36.000015
 11
-29.499996
 21
36.000015
  0
LINE
  8
0
 10
-38.499996
 20
35.000019
 11
-36.999996
 21
35.000019
  0
LINE
  8
0
 10
-46.500000
 20
22.000021
 11
-46.500000
 21
30.000021
  0
LINE
  8
0
 10
-37.500027
 20
36.000011
 11
-37.500031
 21
16.000011
  0
LINE
  8
0
 10
-28.499996
 20
36.000015
 11
-28.500000
 21
16.000017
  0
LINE
  8
0
 10
-61.500000
 20
29.000023
 11
-61.500000
 21
23.000023
  0
LINE
  8
0
 10
-61.499886
 20
28.999958
 11
-60.499901
 21
29.999952
  0
LINE
  8
0
 10
-61.500004
 20
22.999916
 11
-60.500034
 21
21.999928
  0
LINE
  8
0
 10
-60.500000
 20
30.000023
 11
-60.500000
 21
22.000023
  0
LINE
  8
0
 10
-61.500000
 20
23.000023
 11
-46.499985
 21
23.000021
  0
LINE
  8
0
 10
-61.500000
 20
29.000023
 11
-46.500000
 21
29.000021
  0
LINE
  8
0
 10
-60.500000
 20
22.000023
 11
-45.499985
 21
22.000019
  0
LINE
  8
0
 10
-18.499996
 20
33.913330
 11
-18.500000
 21
18.000000
  0
LINE
  8
0
 10
-44.500000
 20
29.000004
 11
-39.500000
 21
29.000004
  0
LINE
  8
0
 10
-44.500000
 20
23.000004
 11
-39.500000
 21
23.000004
  0
LINE
  8
0
 10
-39.499973
 20
28.999945
 11
-38.499947
 21
29.999952
  0
LINE
  8
0
 10
-45.499924
 20
21.999935
 11
-44.499939
 21
22.999914
  0
LINE
  8
0
 10
-39.500057
 20
22.999960
 11
-38.500065
 21
21.999973
  0
LINE
  8
0
 10
-45.499947
 20
30.000078
 11
-44.499901
 21
29.000048
  0
LINE
  8
0
 10
-45.500015
 20
30.000034
 11
-60.500000
 21
30.000038
  0
LINE
  8
0
 10
74.500000
 20
12.499986
 11
74.500000
 21
42.000008
  0
LINE
  8
0
 10
74.500000
 20
39.499985
 11
58.500000
 21
39.499989
  0
LINE
  8
0
 10
74.500000
 20
12.499986
 11
58.500000
 21
12.499989
  0
LINE
  8
0
 10
95.500000
 20
19.999983
 11
95.500000
 21
31.999983
  0
LINE
  8
0
 10
75.500000
 20
15.999986
 11
75.500000
 21
19.999987
  0
LINE
  8
0
 10
74.500000
 20
15.999986
 11
74.500000
 21
35.999985
  0
LINE
  8
0
 10
74.500000
 20
35.999985
 11
75.500000
 21
35.999985
  0
LINE
  8
0
 10
75.500000
 20
15.999986
 11
74.500000
 21
15.999986
  0
LINE
  8
0
 10
86.500000
 20
34.999985
 11
86.500000
 21
16.999985
  0
LINE
  8
0
 10
-10.500000
 20
15.300002
 11
58.500000
 21
15.299992
  0
LINE
  8
0
 10
-10.499996
 20
36.699997
 11
58.500000
 21
36.699986
  0
LINE
  8
0
 10
66.500000
 20
33.999989
 11
66.500000
 21
17.999989
  0
LINE
  8
0
  6
DASHED
 10
82.500000
 20
31.999985
 11
82.500000
 21
19.999985
  0
LINE
  8
0
  6
DASHED
 10
90.500000
 20
31.999985
 11
90.500000
 21
19.999985
  0
LINE
  8
0
 10
75.500000
 20
31.999987
 11
95.500000
 21
31.999983
  0
LINE
  8
0
 10
75.500000
 20
19.999987
 11
95.500000
 21
19.999983
  0
LINE
  8
0
 10
75.500000
 20
31.999987
 11
75.500000
 21
35.999985
  0
LINE
  8
0
 10
-10.499996
 20
39.500015
 11
-10.500000
 21
12.500014
  0
LINE
  8
0
 10
58.500000
 20
42.000011
 11
58.500000
 21
12.499989
  0
LINE
  8
0
 10
-35.794216
 20
41.588474
 11
-29.499996
 21
41.588470
  0
LINE
  8
0
 10
-30.000000
 20
10.411563
 11
-29.999996
 21
41.588474
  0
LINE
  8
0
 10
-29.500000
 20
10.411547
 11
-29.499996
 21
41.588470
  0
LINE
  8
0
 10
-37.000031
 20
39.500038
 11
-35.794266
 21
41.588482
  0
LINE
  8
0
 10
-36.999996
 20
39.500019
 11
-37.000000
 21
12.500019
  0
LINE
  8
0
 10
-35.794243
 20
10.411560
 11
-37.000019
 21
12.500032
  0
LINE
  8
0
 10
-35.794235
 20
10.411549
 11
-29.500000
 21
10.411547
  0
LINE
  8
0
 10
-36.999996
 20
36.000019
 11
-37.500011
 21
36.000019
  0
LINE
  8
0
 10
-29.499996
 20
35.000015
 11
-28.499996
 21
35.000015
  0
LINE
  8
0
 10
-29.500000
 20
17.000017
 11
-28.500000
 21
17.000017
  0
LINE
  8
0
 10
-29.500000
 20
16.000017
 11
-26.500000
 21
16.000017
  0
LINE
  8
0
 10
64.145752
 20
43.499973
 11
68.854248
 21
43.499969
  0
LINE
  8
0
 10
58.750000
 20
42.250000
 11
58.499992
 21
41.999992
  0
ARC
  8
0
 10
-11.206054
 20
18.205826
 40
25.793947
 50
162.411880
 51
197.588043
  0
ARC
  8
0
 10
-11.206052
 20
33.794266
 40
25.793943
 50
162.411926
 51
197.588089
  0
CIRCLE
  8
0
 10
-18.499998
 20
26.000000
 40
5.000000
  0
CIRCLE
  8
0
 10
66.500000
 20
25.999987
 40
5.000000
  0
CIRCLE
  8
0
 10
66.500000
 20
25.999987
 40
4.000000
  0
CIRCLE
  8
0
 10
-18.499998
 20
26.000000
 40
4.000000
  0
ENDSEC
  0
EOF
