  0
SECTION
  2
HEADER
  0
ENDSEC
  0
SECTION
  2
TABLES
  0
TABLE
  2
LTYPE
 70
     4
  0
LTYPE
  2
CONTINUOUS
 70
    64
  3
Solid line
 72
    65
 73
     0
 40
0.000000
  0
LTYPE
  2
DASHED
 70
    64
  3
__ __ __ __ __ __ __ __ __ __ __ __ __ __ __
 72
    65
 73
     2
 40
3.500000
 49
2.000000
 49
-1.500000
  0
LTYPE
  2
CENTER
 70
    64
  3
____ _ ____ _ ____ _ ____ _ ____ _ ____ _ ____
 72
    65
 73
     4
 40
17.500000
 49
13.000000
 49
-1.500000
 49
1.500000
 49
-1.500000
  0
LTYPE
  2
PHANTOM
 70
    64
  3
_____ _ _ _____ _ _ _____ _ _ _____ _ _ ____  
 72
    65
 73
     6
 40
15.500000
 49
8.000000
 49
-1.500000
 49
1.500000
 49
-1.500000
 49
1.500000
 49
-1.500000
  0
LTYPE
  2
DASHED1
 70
    64
  3
__ __ __ __ __ __ __ __ __ __ __ __ __ __ __
 72
    65
 73
     2
 40
1.500000
 49
1.000000
 49
-0.500000
  0
LTYPE
  2
DASHED2
 70
    64
  3
__ __ __ __ __ __ __ __ __ __ __ __ __ __ __
 72
    65
 73
     2
 40
3.500000
 49
2.500000
 49
-1.000000
  0
LTYPE
  2
DASHED3
 70
    64
  3
__ __ __ __ __ __ __ __ __ __ __ __ __ __ __
 72
    65
 73
     2
 40
6.000000
 49
4.000000
 49
-2.000000
  0
LTYPE
  2
DASHED4
 70
    64
  3
__ __ __ __ __ __ __ __ __ __ __ __ __ __ __
 72
    65
 73
     2
 40
12.000000
 49
10.000000
 49
-2.000000
  0
LTYPE
  2
DASHED5
 70
    64
  3
__ __ __ __ __ __ __ __ __ __ __ __ __ __ __
 72
    65
 73
     2
 40
17.000000
 49
15.000000
 49
-2.000000
  0
LTYPE
  2
DASHED6
 70
    64
  3
__ __ __ __ __ __ __ __ __ __ __ __ __ __ __
 72
    65
 73
     2
 40
29.000000
 49
27.000000
 49
-2.000000
  0
LTYPE
  2
PHANTOM1
 70
    64
  3
_____ _ _ _____ _ _ _____ _ _ _____ _ _ ____  
 72
    65
 73
     6
 40
31.000000
 49
25.000000
 49
-1.500000
 49
1.000000
 49
-1.000000
 49
1.000000
 49
-1.500000
  0
LTYPE
  2
PHANTOM2
 70
    64
  3
_____ _ _ _____ _ _ _____ _ _ _____ _ _ ____  
 72
    65
 73
     6
 40
36.000000
 49
27.000000
 49
-1.500000
 49
2.500000
 49
-1.000000
 49
2.500000
 49
-1.500000
  0
LTYPE
  2
PHANTOM3
 70
    64
  3
_____ _ _ _____ _ _ _____ _ _ _____ _ _ ____  
 72
    65
 73
     6
 40
78.000000
 49
64.000000
 49
-2.000000
 49
4.000000
 49
-2.000000
 49
4.000000
 49
-2.000000
  0
LTYPE
  2
CENTER1
 70
    64
  3
____ _ ____ _ ____ _ ____ _ ____ _ ____ _ ____
 72
    65
 73
     4
 40
19.000000
 49
14.000000
 49
-1.000000
 49
3.000000
 49
-1.000000
  0
LTYPE
  2
CENTER2
 70
    64
  3
____ _ ____ _ ____ _ ____ _ ____ _ ____ _ ____
 72
    65
 73
     4
 40
28.500000
 49
25.000000
 49
-1.000000
 49
1.500000
 49
-1.000000
  0
LTYPE
  2
CENTER3
 70
    64
  3
____ _ ____ _ ____ _ ____ _ ____ _ ____ _ ____
 72
    65
 73
     4
 40
31.500000
 49
27.000000
 49
-1.000000
 49
2.500000
 49
-1.000000
  0
LTYPE
  2
CENTER4
 70
    64
  3
____ _ ____ _ ____ _ ____ _ ____ _ ____ _ ____
 72
    65
 73
     4
 40
50.000000
 49
45.000000
 49
-1.000000
 49
3.000000
 49
-1.000000
  0
LTYPE
  2
CENTER5
 70
    64
  3
____ _ ____ _ ____ _ ____ _ ____ _ ____ _ ____
 72
    65
 73
     4
 40
100.000000
 49
92.000000
 49
-2.000000
 49
4.000000
 49
-2.000000
  0
LTYPE
  2
SBK1
 70
    64
  3
______ _ _ _ ______ _ _ _ ______ _ _ _ _____  
 72
    65
 73
     8
 40
60.500000
 49
45.000000
 49
-2.000000
 49
2.500000
 49
-2.000000
 49
2.500000
 49
-2.000000
 49
2.500000
 49
-2.000000
  0
LTYPE
  2
SBK2
 70
    64
  3
______ _ _ _ ______ _ _ _ ______ _ _ _ _____  
 72
    65
 73
     8
 40
84.000000
 49
64.000000
 49
-2.000000
 49
4.000000
 49
-2.000000
 49
4.000000
 49
-2.000000
 49
4.000000
 49
-2.000000
  0
LTYPE
  2
STCH
 70
    64
  3
__ __ __ __ __ __ __ __ __ __ __ __ __ __ __
 72
    65
 73
     2
 40
3.000000
 49
1.000000
 49
-2.000000
  0
LTYPE
  2
MTCH
 70
    64
  3
_____ _ _ _____ _ _ _____ _ _ _____ _ _ ____  
 72
    65
 73
     6
 40
80.000000
 49
66.000000
 49
-2.000000
 49
4.000000
 49
-2.000000
 49
4.000000
 49
-2.000000
  0
ENDTAB
  0
TABLE
  2
LAYER
 70
     1
  0
LAYER
  2
0
 70
     0
 62
     7
  6
CONTINUOUS
  0
ENDTAB
  0
TABLE
  2
STYLE
 70
     1
  0
STYLE
  2
STANDARD
 70
     0
 40
0.000000
 41
1.000000
 50
0.000000
 71
     0
 42
0.200000
  3
txt
  4
BIGFONT
  0
ENDTAB
  0
TABLE
  2
VIEW
 70
     0
  0
ENDTAB
  0
ENDSEC
  0
SECTION
  2
BLOCKS
  0
ENDSEC
  0
SECTION
  2
ENTITIES
  0
LINE
  8
0
 10
131.123611
 20
90.000008
 11
131.123611
 21
-90.000008
  0
LINE
  8
0
 10
-131.123611
 20
-90.000008
 11
131.123611
 21
-90.000008
  0
LINE
  8
0
 10
77.191010
 20
-79.887642
 11
131.123611
 21
-79.887642
  0
LINE
  8
0
 10
77.191010
 20
-79.887642
 11
77.191010
 21
-90.000008
  0
LINE
  8
0
 10
77.191010
 20
90.000008
 11
77.191010
 21
79.887642
  0
LINE
  8
0
 10
77.191010
 20
79.887642
 11
131.123611
 21
79.887642
  0
LINE
  8
0
 10
-131.123611
 20
90.000008
 11
131.123611
 21
90.000008
  0
LINE
  8
0
 10
-77.191025
 20
79.887642
 11
-77.191025
 21
90.000008
  0
LINE
  8
0
 10
-131.123611
 20
79.887642
 11
-77.191025
 21
79.887642
  0
LINE
  8
0
 10
-131.123611
 20
-90.000008
 11
-131.123611
 21
90.000008
  0
TEXT
  8
0
 10
81.157310
 20
-87.093826
 40
3.500000
  1
KOGANEI CORP.
 50
0.000000
 41
1.052632
 51
0.000000
  7
STANDARD
  0
TEXT
  8
0
 10
80.231529
 20
83.243828
 40
3.000000
  1
DATE : AUG,1992
 50
0.000000
 41
1.052632
 51
0.000000
  7
STANDARD
  0
TEXT
  8
0
 10
-127.157318
 20
82.793823
 40
3.500000
  1
SLIM CYLINDER
 50
0.000000
 41
1.052632
 51
0.000000
  7
STANDARD
  0
TEXT
  8
0
 10
-113.636787
 20
61.832249
 40
3.500000
  1
MODEL : DAK25X25-HL
 50
0.000000
 41
1.052632
 51
0.000000
  7
STANDARD
  0
POINT
  8
0
 10
-27.000013
 20
29.000000
  0
POINT
  8
0
 10
95.000000
 20
29.000000
  0
POINT
  8
0
 10
-27.000013
 20
29.000000
  0
LINE
  8
0
 10
-66.000000
 20
24.000000
 11
-41.000000
 21
24.000000
  0
LINE
  8
0
 10
-49.000000
 20
34.000000
 11
-49.000000
 21
24.000000
  0
LINE
  8
0
 10
-47.000000
 20
32.000000
 11
-42.000000
 21
32.000000
  0
LINE
  8
0
 10
-47.000000
 20
26.000000
 11
-42.000000
 21
26.000000
  0
LINE
  8
0
 10
-47.000000
 20
32.000000
 11
-47.000000
 21
26.000000
  0
LINE
  8
0
 10
-42.000000
 20
32.000000
 11
-42.000000
 21
26.000000
  0
LINE
  8
0
 10
-47.000000
 20
26.000008
 11
-42.000000
 21
32.000004
  0
LINE
  8
0
 10
-42.000015
 20
25.999994
 11
-47.000031
 21
32.000004
  0
LINE
  8
0
 10
-47.000000
 20
32.000000
 11
-47.000000
 21
26.000000
  0
LINE
  8
0
 10
-66.000000
 20
34.000000
 11
-41.000000
 21
34.000000
  0
LINE
  8
0
 10
-37.660248
 20
46.320511
 11
-30.000002
 21
46.320511
  0
LINE
  8
0
 10
-37.660248
 20
11.679493
 11
-30.000002
 21
11.679493
  0
LINE
  8
0
 10
-37.660248
 20
37.660255
 11
-30.000002
 21
37.660255
  0
LINE
  8
0
 10
-37.660248
 20
20.339745
 11
-30.000002
 21
20.339745
  0
LINE
  8
0
 10
-39.000027
 20
13.999999
 11
-37.660275
 21
11.679489
  0
LINE
  8
0
 10
-30.000002
 20
14.000000
 11
-29.500002
 21
14.000000
  0
LINE
  8
0
 10
-30.000002
 20
44.000000
 11
-29.500002
 21
44.000000
  0
LINE
  8
0
 10
-38.999981
 20
43.999989
 11
-37.660248
 21
46.320488
  0
LINE
  8
0
 10
-38.999981
 20
43.999989
 11
-37.660248
 21
46.320488
  0
LINE
  8
0
 10
-41.000000
 20
39.000000
 11
-41.000000
 21
19.000000
  0
LINE
  8
0
 10
-39.808243
 20
40.000000
 11
-39.000000
 21
40.000000
  0
LINE
  8
0
 10
73.999985
 20
11.499977
 11
73.999985
 21
46.499977
  0
LINE
  8
0
 10
57.999985
 20
11.499985
 11
57.999985
 21
46.499985
  0
LINE
  8
0
 10
-29.500002
 20
14.000000
 11
-29.500002
 21
44.000000
  0
LINE
  8
0
 10
-30.000002
 20
11.679493
 11
-30.000002
 21
46.320511
  0
LINE
  8
0
 10
-39.000000
 20
14.000000
 11
-39.000000
 21
44.000000
  0
LINE
  8
0
 10
-39.000000
 20
19.000000
 11
-41.000000
 21
19.000000
  0
LINE
  8
0
 10
-41.000000
 20
39.000000
 11
-39.000000
 21
39.000000
  0
LINE
  8
0
 10
-29.500002
 20
39.000000
 11
-29.000002
 21
39.000000
  0
LINE
  8
0
 10
-29.500002
 20
19.000000
 11
-29.000002
 21
19.000000
  0
LINE
  8
0
 10
-11.000013
 20
15.799999
 11
57.999985
 21
15.799999
  0
LINE
  8
0
 10
-11.000013
 20
42.199997
 11
57.999985
 21
42.199997
  0
LINE
  8
0
 10
-11.000013
 20
14.500015
 11
-11.000013
 21
43.500015
  0
LINE
  8
0
 10
-27.000006
 20
14.500023
 11
-11.000006
 21
14.500023
  0
LINE
  8
0
 10
-26.999998
 20
43.500015
 11
-10.999998
 21
43.500015
  0
LINE
  8
0
 10
-27.000013
 20
14.500023
 11
-27.000013
 21
43.500023
  0
LINE
  8
0
 10
93.808220
 20
18.000050
 11
94.999947
 21
19.000044
  0
LINE
  8
0
 10
74.000000
 20
18.000000
 11
93.808258
 21
18.000000
  0
LINE
  8
0
 10
74.000000
 20
40.000000
 11
94.000000
 21
40.000000
  0
LINE
  8
0
 10
93.999947
 20
39.999954
 11
94.999947
 21
38.999954
  0
LINE
  8
0
 10
94.000000
 20
39.188004
 11
94.000000
 21
40.000000
  0
LINE
  8
0
 10
93.808258
 20
18.812000
 11
93.808258
 21
18.000000
  0
LINE
  8
0
 10
76.000000
 20
39.188004
 11
94.812012
 21
39.188004
  0
LINE
  8
0
 10
74.593590
 20
40.000038
 11
76.000031
 21
39.188034
  0
LINE
  8
0
 10
74.593582
 20
17.999992
 11
76.000000
 21
18.811989
  0
LINE
  8
0
 10
95.000000
 20
19.000000
 11
95.000000
 21
39.000000
  0
LINE
  8
0
 10
76.000000
 20
40.000000
 11
76.000000
 21
39.188004
  0
LINE
  8
0
 10
76.000000
 20
18.812000
 11
76.000000
 21
18.000000
  0
LINE
  8
0
 10
76.000000
 20
18.812000
 11
94.775955
 21
18.812000
  0
LINE
  8
0
 10
-68.500000
 20
29.000000
 11
99.544525
 21
29.000000
  0
LINE
  8
0
 10
-40.999992
 20
18.999996
 11
-40.160896
 21
17.999998
  0
LINE
  8
0
 10
-40.160904
 20
18.000000
 11
-39.000000
 21
18.000000
  0
LINE
  8
0
 10
-29.500002
 20
18.000000
 11
-27.000002
 21
18.000000
  0
LINE
  8
0
 10
-40.999992
 20
39.000004
 11
-40.160896
 21
40.000004
  0
LINE
  8
0
 10
-40.160904
 20
40.000000
 11
-39.000000
 21
40.000000
  0
LINE
  8
0
 10
-29.500002
 20
40.000000
 11
-27.000002
 21
40.000000
  0
LINE
  8
0
 10
-29.000040
 20
18.000000
 11
-29.000040
 21
40.000000
  0
LINE
  8
0
 10
-40.160904
 20
18.000000
 11
-40.160904
 21
40.000000
  0
LINE
  8
0
 10
-19.000002
 20
9.500015
 11
-19.000002
 21
48.500031
  0
LINE
  8
0
 10
66.000000
 20
9.500015
 11
66.000000
 21
48.500031
  0
LINE
  8
0
 10
-67.000000
 20
33.000000
 11
-49.000000
 21
33.000000
  0
LINE
  8
0
 10
-67.000000
 20
25.000000
 11
-49.000000
 21
25.000000
  0
LINE
  8
0
 10
-66.000000
 20
34.000000
 11
-66.000000
 21
24.000000
  0
LINE
  8
0
 10
-67.000000
 20
24.999996
 11
-66.000000
 21
24.000000
  0
LINE
  8
0
 10
-65.999985
 20
33.999985
 11
-66.999985
 21
32.999985
  0
LINE
  8
0
 10
-67.000000
 20
33.000000
 11
-67.000000
 21
25.000000
  0
LINE
  8
0
 10
73.999985
 20
11.500015
 11
57.999985
 21
11.500015
  0
LINE
  8
0
 10
74.000000
 20
46.500031
 11
58.000000
 21
46.500031
  0
LINE
  8
0
 10
58.000000
 20
40.135529
 11
74.000000
 21
40.135529
  0
LINE
  8
0
 10
58.000000
 20
17.864471
 11
74.000000
 21
17.864471
  0
LINE
  8
0
 10
74.000000
 20
37.000015
 11
58.000000
 21
37.000015
  0
LINE
  8
0
 10
74.000000
 20
21.000015
 11
58.000000
 21
21.000015
  0
LINE
  8
0
 10
86.000000
 20
46.500031
 11
86.000000
 21
11.500015
  0
LINE
  8
0
 10
70.084908
 20
23.084892
 11
71.915001
 21
24.914986
  0
LINE
  8
0
 10
70.084946
 20
24.915070
 11
71.915054
 21
23.084961
  0
LINE
  8
0
 10
60.084900
 20
33.084900
 11
61.914993
 21
34.914986
  0
LINE
  8
0
 10
60.084946
 20
34.915073
 11
61.915054
 21
33.084961
  0
LINE
  8
0
 10
60.084908
 20
23.084890
 11
61.915001
 21
24.914984
  0
LINE
  8
0
 10
60.084946
 20
24.915079
 11
61.915062
 21
23.084965
  0
LINE
  8
0
 10
70.084908
 20
33.084892
 11
71.915001
 21
34.914986
  0
LINE
  8
0
 10
70.084946
 20
34.915081
 11
71.915070
 21
33.084961
  0
CIRCLE
  8
0
 10
61.000000
 20
24.000000
 40
2.750000
  0
CIRCLE
  8
0
 10
86.000000
 20
29.000000
 40
4.000000
  0
CIRCLE
  8
0
 10
71.000000
 20
24.000000
 40
2.750000
  0
ARC
  8
0
 10
71.000000
 20
24.000000
 40
3.999998
 50
41.409588
 51
228.590347
  0
ARC
  8
0
 10
71.000000
 20
34.000000
 40
4.000000
 50
131.409622
 51
318.590363
  0
ARC
  8
0
 10
61.000000
 20
34.000000
 40
4.000000
 50
221.409622
 51
48.590370
  0
CIRCLE
  8
0
 10
66.000000
 20
29.000015
 40
1.700000
  0
CIRCLE
  8
0
 10
61.000000
 20
34.000000
 40
2.750000
  0
ARC
  8
0
 10
61.000000
 20
24.000000
 40
4.000002
 50
311.409607
 51
138.590347
  0
CIRCLE
  8
0
 10
71.000000
 20
34.000000
 40
2.750000
  0
POLYLINE
  8
0
 66
     1
  0
VERTEX
  8
0
 10
-37.660248
 20
37.660255
  0
VERTEX
  8
0
 10
-37.933594
 20
36.724918
  0
VERTEX
  8
0
 10
-38.177532
 20
35.780083
  0
VERTEX
  8
0
 10
-38.391327
 20
34.826935
  0
VERTEX
  8
0
 10
-38.574249
 20
33.866665
  0
VERTEX
  8
0
 10
-38.725559
 20
32.900455
  0
VERTEX
  8
0
 10
-38.844524
 20
31.929499
  0
VERTEX
  8
0
 10
-38.930408
 20
30.954977
  0
VERTEX
  8
0
 10
-38.982479
 20
29.978083
  0
VERTEX
  8
0
 10
-39.000000
 20
29.000000
  0
VERTEX
  8
0
 10
-38.982479
 20
28.021917
  0
VERTEX
  8
0
 10
-38.930408
 20
27.045023
  0
VERTEX
  8
0
 10
-38.844524
 20
26.070501
  0
VERTEX
  8
0
 10
-38.725559
 20
25.099545
  0
VERTEX
  8
0
 10
-38.574249
 20
24.133335
  0
VERTEX
  8
0
 10
-38.391327
 20
23.173063
  0
VERTEX
  8
0
 10
-38.177532
 20
22.219917
  0
VERTEX
  8
0
 10
-37.933594
 20
21.275082
  0
VERTEX
  8
0
 10
-37.660248
 20
20.339745
  0
SEQEND
  0
POLYLINE
  8
0
 66
     1
  0
VERTEX
  8
0
 10
-37.660248
 20
37.660255
  0
VERTEX
  8
0
 10
-38.104874
 20
38.457771
  0
VERTEX
  8
0
 10
-38.475296
 20
39.300961
  0
VERTEX
  8
0
 10
-38.757378
 20
40.178406
  0
VERTEX
  8
0
 10
-38.936989
 20
41.078682
  0
VERTEX
  8
0
 10
-39.000000
 20
41.990379
  0
VERTEX
  8
0
 10
-38.936989
 20
42.902077
  0
VERTEX
  8
0
 10
-38.757378
 20
43.802357
  0
VERTEX
  8
0
 10
-38.475296
 20
44.679802
  0
VERTEX
  8
0
 10
-38.104874
 20
45.522995
  0
VERTEX
  8
0
 10
-37.660248
 20
46.320511
  0
SEQEND
  0
POLYLINE
  8
0
 66
     1
  0
VERTEX
  8
0
 10
-37.660248
 20
20.339745
  0
VERTEX
  8
0
 10
-38.104874
 20
19.542227
  0
VERTEX
  8
0
 10
-38.475296
 20
18.699039
  0
VERTEX
  8
0
 10
-38.757378
 20
17.821596
  0
VERTEX
  8
0
 10
-38.936989
 20
16.921318
  0
VERTEX
  8
0
 10
-39.000000
 20
16.009621
  0
VERTEX
  8
0
 10
-38.936989
 20
15.097923
  0
VERTEX
  8
0
 10
-38.757378
 20
14.197643
  0
VERTEX
  8
0
 10
-38.475296
 20
13.320200
  0
VERTEX
  8
0
 10
-38.104874
 20
12.477010
  0
VERTEX
  8
0
 10
-37.660248
 20
11.679493
  0
SEQEND
  0
POINT
  8
0
 10
-106.000008
 20
29.000004
  0
POINT
  8
0
 10
-91.000008
 20
29.000004
  0
LINE
  8
0
 10
-125.615303
 20
29.000004
 11
-84.532944
 21
29.000004
  0
LINE
  8
0
 10
-121.000008
 20
37.660259
 11
-121.000008
 21
20.339748
  0
LINE
  8
0
 10
-91.000008
 20
37.660259
 11
-91.000008
 21
20.339748
  0
LINE
  8
0
 10
-105.999962
 20
46.320488
 11
-90.999985
 21
37.660244
  0
LINE
  8
0
 10
-121.000015
 20
20.339748
 11
-106.000000
 21
11.679489
  0
LINE
  8
0
 10
-121.000015
 20
37.660278
 11
-106.000015
 21
46.320526
  0
LINE
  8
0
 10
-106.000069
 20
11.679640
 11
-91.000092
 21
20.339882
  0
LINE
  8
0
 10
-113.000008
 20
33.041454
 11
-113.000008
 21
24.958553
  0
LINE
  8
0
 10
-112.999977
 20
33.041382
 11
-105.999962
 21
37.082832
  0
LINE
  8
0
 10
-106.000061
 20
20.917152
 11
-99.000053
 21
24.958612
  0
LINE
  8
0
 10
-106.000015
 20
37.082901
 11
-99.000031
 21
33.041451
  0
LINE
  8
0
 10
-113.000053
 20
24.958525
 11
-106.000053
 21
20.917076
  0
LINE
  8
0
 10
-99.000008
 20
33.041454
 11
-99.000008
 21
24.958553
  0
LINE
  8
0
 10
-92.500008
 20
40.135532
 11
-92.500008
 21
38.526279
  0
LINE
  8
0
 10
-92.500008
 20
19.473736
 11
-92.500008
 21
17.864475
  0
LINE
  8
0
 10
-87.500008
 20
31.354252
 11
-87.500008
 21
26.645756
  0
LINE
  8
0
 10
-90.000008
 20
36.750004
 11
-90.000008
 21
31.354252
  0
LINE
  8
0
 10
-91.000008
 20
37.000004
 11
-89.000008
 21
37.000004
  0
LINE
  8
0
 10
-91.000008
 20
21.000004
 11
-89.000015
 21
21.000004
  0
LINE
  8
0
 10
-90.000008
 20
31.354252
 11
-87.500008
 21
31.354252
  0
LINE
  8
0
 10
-90.000008
 20
26.645756
 11
-87.500008
 21
26.645756
  0
LINE
  8
0
 10
-90.000008
 20
26.645756
 11
-90.000008
 21
21.250004
  0
LINE
  8
0
 10
-87.000008
 20
21.250004
 11
-87.000008
 21
26.750004
  0
LINE
  8
0
 10
-89.000069
 20
36.999954
 11
-88.750076
 21
36.749958
  0
LINE
  8
0
 10
-88.749977
 20
21.249958
 11
-88.999977
 21
20.999958
  0
LINE
  8
0
 10
-90.000008
 20
36.750004
 11
-87.000008
 21
36.750004
  0
LINE
  8
0
 10
-87.000008
 20
36.750004
 11
-87.000008
 21
31.250004
  0
LINE
  8
0
 10
-87.500008
 20
31.250004
 11
-87.000008
 21
31.250004
  0
LINE
  8
0
 10
-87.500008
 20
26.750004
 11
-87.000008
 21
26.750004
  0
LINE
  8
0
 10
-90.000008
 20
21.250004
 11
-87.000008
 21
21.250004
  0
LINE
  8
0
 10
-106.000008
 20
51.545055
 11
-106.000008
 21
5.482643
  0
ARC
  8
0
 10
-106.000008
 20
29.000004
 40
17.500000
 50
39.517651
 51
320.482330
  0
CIRCLE
  8
0
 10
-106.000008
 20
29.000004
 40
4.000000
  0
CIRCLE
  8
0
 10
-106.000008
 20
29.000004
 40
15.000000
  0
CIRCLE
  8
0
 10
-106.000008
 20
29.000004
 40
11.000000
  0
CIRCLE
  8
0
 10
-106.000008
 20
29.000004
 40
10.000000
  0
CIRCLE
  8
0
 10
-106.000008
 20
29.000004
 40
7.000000
  0
CIRCLE
  8
0
 10
-106.000008
 20
29.000004
 40
5.000000
  0
POINT
  8
0
 10
94.999985
 20
-45.275955
  0
POINT
  8
0
 10
-27.000017
 20
-45.275955
  0
LINE
  8
0
 10
85.999985
 20
-36.775955
 11
85.999985
 21
-53.775955
  0
LINE
  8
0
  6
DASHED
 10
81.999985
 20
-39.275955
 11
81.999985
 21
-51.275955
  0
LINE
  8
0
  6
DASHED
 10
89.999985
 20
-39.275955
 11
89.999985
 21
-51.275955
  0
LINE
  8
0
 10
-41.000027
 20
-55.276039
 11
-40.000015
 21
-56.276047
  0
LINE
  8
0
 10
-41.000031
 20
-35.275970
 11
-40.000038
 21
-34.275978
  0
LINE
  8
0
 10
-41.000015
 20
-55.275940
 11
-41.000015
 21
-35.275940
  0
LINE
  8
0
 10
-27.000017
 20
-59.775940
 11
-27.000017
 21
-30.775940
  0
LINE
  8
0
 10
-11.000017
 20
-30.775940
 11
-11.000017
 21
-59.775940
  0
LINE
  8
0
 10
-27.000017
 20
-30.775940
 11
-11.000017
 21
-30.775940
  0
LINE
  8
0
 10
-27.000017
 20
-59.775940
 11
-11.000017
 21
-59.775940
  0
LINE
  8
0
 10
-40.000015
 20
-56.275940
 11
-39.000015
 21
-56.275940
  0
LINE
  8
0
 10
-41.000015
 20
-55.275940
 11
-39.000015
 21
-55.275940
  0
LINE
  8
0
 10
-27.000017
 20
-34.275940
 11
-29.500017
 21
-34.275940
  0
LINE
  8
0
 10
-41.000015
 20
-35.275940
 11
-39.000015
 21
-35.275940
  0
LINE
  8
0
 10
-49.000015
 20
-50.275940
 11
-49.000015
 21
-40.275940
  0
LINE
  8
0
 10
-40.000069
 20
-34.275993
 11
-40.000069
 21
-56.275990
  0
LINE
  8
0
 10
-29.000017
 20
-34.275940
 11
-29.000017
 21
-56.275940
  0
LINE
  8
0
 10
-67.000023
 20
-41.275940
 11
-67.000023
 21
-49.275940
  0
LINE
  8
0
 10
-66.999954
 20
-41.276016
 11
-65.999962
 21
-40.276012
  0
LINE
  8
0
 10
-67.000023
 20
-49.276035
 11
-66.000053
 21
-50.276024
  0
LINE
  8
0
 10
-66.000023
 20
-40.275940
 11
-66.000023
 21
-50.275940
  0
LINE
  8
0
 10
-67.000023
 20
-49.275940
 11
-49.000000
 21
-49.275940
  0
LINE
  8
0
 10
-67.000023
 20
-41.275940
 11
-49.000015
 21
-41.275940
  0
LINE
  8
0
 10
-66.000023
 20
-50.275940
 11
-48.000000
 21
-50.275940
  0
LINE
  8
0
 10
-19.000017
 20
-36.775955
 11
-19.000017
 21
-53.775955
  0
LINE
  8
0
 10
-47.000015
 20
-41.275955
 11
-42.000015
 21
-41.275955
  0
LINE
  8
0
 10
-47.000015
 20
-49.275955
 11
-42.000015
 21
-49.275955
  0
LINE
  8
0
 10
-42.000023
 20
-41.276009
 11
-40.999992
 21
-40.275993
  0
LINE
  8
0
 10
-47.999989
 20
-50.275970
 11
-47.000008
 21
-49.275993
  0
LINE
  8
0
 10
-42.000023
 20
-49.275974
 11
-41.000038
 21
-50.275959
  0
LINE
  8
0
 10
-48.000069
 20
-40.275993
 11
-47.000031
 21
-41.276005
  0
LINE
  8
0
 10
-48.000031
 20
-40.275925
 11
-66.000023
 21
-40.275925
  0
LINE
  8
0
 10
73.999985
 20
-59.775955
 11
73.999985
 21
-28.275951
  0
LINE
  8
0
 10
57.999985
 20
-28.276001
 11
57.999985
 21
-59.775955
  0
LINE
  8
0
 10
73.999985
 20
-30.775955
 11
57.999985
 21
-30.775955
  0
LINE
  8
0
 10
73.999985
 20
-59.775955
 11
57.999985
 21
-59.775955
  0
LINE
  8
0
 10
94.999985
 20
-51.275955
 11
94.999985
 21
-39.275955
  0
LINE
  8
0
 10
74.999985
 20
-56.275955
 11
74.999985
 21
-51.275955
  0
LINE
  8
0
 10
73.999985
 20
-56.275955
 11
73.999985
 21
-34.275955
  0
LINE
  8
0
 10
73.999985
 20
-34.275955
 11
74.999985
 21
-34.275955
  0
LINE
  8
0
 10
74.999985
 20
-56.275955
 11
73.999985
 21
-56.275955
  0
LINE
  8
0
 10
-11.000017
 20
-58.475952
 11
57.999985
 21
-58.475952
  0
LINE
  8
0
 10
-11.000017
 20
-32.075958
 11
57.999985
 21
-32.075958
  0
LINE
  8
0
 10
65.999985
 20
-36.775955
 11
65.999985
 21
-53.775955
  0
LINE
  8
0
 10
74.999985
 20
-39.275955
 11
94.999985
 21
-39.275955
  0
LINE
  8
0
 10
74.999985
 20
-51.275955
 11
94.999985
 21
-51.275955
  0
LINE
  8
0
 10
74.999985
 20
-39.275955
 11
74.999985
 21
-34.275955
  0
LINE
  8
0
 10
-69.499947
 20
-45.275955
 11
99.115036
 21
-45.275955
  0
LINE
  8
0
 10
63.749977
 20
-26.775959
 11
63.749977
 21
-26.275957
  0
LINE
  8
0
 10
68.354233
 20
-29.275959
 11
68.354233
 21
-26.775959
  0
LINE
  8
0
 10
70.999985
 20
-30.417141
 11
70.999985
 21
-25.982517
  0
LINE
  8
0
 10
68.354233
 20
-29.275957
 11
73.749985
 21
-29.275957
  0
LINE
  8
0
 10
73.749985
 20
-26.275957
 11
68.249985
 21
-26.275957
  0
LINE
  8
0
 10
73.749985
 20
-28.025955
 11
73.999985
 21
-28.275955
  0
LINE
  8
0
 10
68.249985
 20
-26.775959
 11
68.249985
 21
-26.275957
  0
LINE
  8
0
 10
73.749985
 20
-29.275959
 11
73.749985
 21
-26.275957
  0
LINE
  8
0
 10
63.645737
 20
-26.775957
 11
68.354233
 21
-26.775957
  0
LINE
  8
0
 10
58.249977
 20
-29.275957
 11
63.645737
 21
-29.275957
  0
LINE
  8
0
 10
60.999977
 20
-30.532429
 11
60.999977
 21
-25.982517
  0
LINE
  8
0
 10
63.645729
 20
-29.275959
 11
63.645729
 21
-26.775959
  0
LINE
  8
0
 10
58.000038
 20
-28.275984
 11
58.250031
 21
-28.025988
  0
LINE
  8
0
 10
58.249977
 20
-29.275959
 11
58.249977
 21
-26.275957
  0
LINE
  8
0
 10
58.249977
 20
-26.275957
 11
63.749977
 21
-26.275957
  0
LINE
  8
0
 10
-37.660263
 20
-27.955444
 11
-29.500017
 21
-27.955444
  0
LINE
  8
0
 10
-29.500017
 20
-62.596466
 11
-29.500017
 21
-27.955444
  0
LINE
  8
0
 10
-39.000038
 20
-30.275986
 11
-37.660305
 21
-27.955490
  0
LINE
  8
0
 10
-39.000015
 20
-60.275955
 11
-39.000015
 21
-30.275955
  0
LINE
  8
0
 10
-39.000084
 20
-60.275951
 11
-37.660328
 21
-62.596466
  0
LINE
  8
0
 10
-37.660263
 20
-62.596466
 11
-29.500017
 21
-62.596466
  0
LINE
  8
0
 10
-39.000015
 20
-34.275940
 11
-40.000031
 21
-34.275940
  0
LINE
  8
0
 10
-29.500017
 20
-35.275940
 11
-29.000017
 21
-35.275940
  0
LINE
  8
0
 10
-29.500017
 20
-55.275940
 11
-29.000017
 21
-55.275940
  0
LINE
  8
0
 10
-29.500017
 20
-56.275940
 11
-27.000017
 21
-56.275940
  0
ARC
  8
0
 10
-10.339876
 20
-53.936203
 40
28.660137
 50
162.411957
 51
197.587967
  0
ARC
  8
0
 10
-10.339876
 20
-36.615707
 40
28.660139
 50
162.411972
 51
197.587967
  0
CIRCLE
  8
0
 10
-19.000017
 20
-45.275955
 40
4.000000
  0
CIRCLE
  8
0
 10
65.999985
 20
-45.275955
 40
4.000000
  0
CIRCLE
  8
0
 10
65.999985
 20
-45.275955
 40
5.000000
  0
CIRCLE
  8
0
 10
-19.000017
 20
-45.275955
 40
5.000000
  0
ENDSEC
  0
EOF
