  0
SECTION
  2
HEADER
  0
ENDSEC
  0
SECTION
  2
TABLES
  0
TABLE
  2
LTYPE
 70
     4
  0
LTYPE
  2
CONTINUOUS
 70
    64
  3
Solid line
 72
    65
 73
     0
 40
0.000000
  0
LTYPE
  2
DASHED
 70
    64
  3
__ __ __ __ __ __ __ __ __ __ __ __ __ __ __
 72
    65
 73
     2
 40
3.500000
 49
2.000000
 49
-1.500000
  0
LTYPE
  2
CENTER
 70
    64
  3
____ _ ____ _ ____ _ ____ _ ____ _ ____ _ ____
 72
    65
 73
     4
 40
17.500000
 49
13.000000
 49
-1.500000
 49
1.500000
 49
-1.500000
  0
LTYPE
  2
PHANTOM
 70
    64
  3
_____ _ _ _____ _ _ _____ _ _ _____ _ _ ____  
 72
    65
 73
     6
 40
15.500000
 49
8.000000
 49
-1.500000
 49
1.500000
 49
-1.500000
 49
1.500000
 49
-1.500000
  0
LTYPE
  2
DASHED1
 70
    64
  3
__ __ __ __ __ __ __ __ __ __ __ __ __ __ __
 72
    65
 73
     2
 40
1.500000
 49
1.000000
 49
-0.500000
  0
LTYPE
  2
DASHED2
 70
    64
  3
__ __ __ __ __ __ __ __ __ __ __ __ __ __ __
 72
    65
 73
     2
 40
3.500000
 49
2.500000
 49
-1.000000
  0
LTYPE
  2
DASHED3
 70
    64
  3
__ __ __ __ __ __ __ __ __ __ __ __ __ __ __
 72
    65
 73
     2
 40
6.000000
 49
4.000000
 49
-2.000000
  0
LTYPE
  2
DASHED4
 70
    64
  3
__ __ __ __ __ __ __ __ __ __ __ __ __ __ __
 72
    65
 73
     2
 40
12.000000
 49
10.000000
 49
-2.000000
  0
LTYPE
  2
DASHED5
 70
    64
  3
__ __ __ __ __ __ __ __ __ __ __ __ __ __ __
 72
    65
 73
     2
 40
17.000000
 49
15.000000
 49
-2.000000
  0
LTYPE
  2
DASHED6
 70
    64
  3
__ __ __ __ __ __ __ __ __ __ __ __ __ __ __
 72
    65
 73
     2
 40
29.000000
 49
27.000000
 49
-2.000000
  0
LTYPE
  2
PHANTOM1
 70
    64
  3
_____ _ _ _____ _ _ _____ _ _ _____ _ _ ____  
 72
    65
 73
     6
 40
31.000000
 49
25.000000
 49
-1.500000
 49
1.000000
 49
-1.000000
 49
1.000000
 49
-1.500000
  0
LTYPE
  2
PHANTOM2
 70
    64
  3
_____ _ _ _____ _ _ _____ _ _ _____ _ _ ____  
 72
    65
 73
     6
 40
36.000000
 49
27.000000
 49
-1.500000
 49
2.500000
 49
-1.000000
 49
2.500000
 49
-1.500000
  0
LTYPE
  2
PHANTOM3
 70
    64
  3
_____ _ _ _____ _ _ _____ _ _ _____ _ _ ____  
 72
    65
 73
     6
 40
78.000000
 49
64.000000
 49
-2.000000
 49
4.000000
 49
-2.000000
 49
4.000000
 49
-2.000000
  0
LTYPE
  2
CENTER1
 70
    64
  3
____ _ ____ _ ____ _ ____ _ ____ _ ____ _ ____
 72
    65
 73
     4
 40
19.000000
 49
14.000000
 49
-1.000000
 49
3.000000
 49
-1.000000
  0
LTYPE
  2
CENTER2
 70
    64
  3
____ _ ____ _ ____ _ ____ _ ____ _ ____ _ ____
 72
    65
 73
     4
 40
28.500000
 49
25.000000
 49
-1.000000
 49
1.500000
 49
-1.000000
  0
LTYPE
  2
CENTER3
 70
    64
  3
____ _ ____ _ ____ _ ____ _ ____ _ ____ _ ____
 72
    65
 73
     4
 40
31.500000
 49
27.000000
 49
-1.000000
 49
2.500000
 49
-1.000000
  0
LTYPE
  2
CENTER4
 70
    64
  3
____ _ ____ _ ____ _ ____ _ ____ _ ____ _ ____
 72
    65
 73
     4
 40
50.000000
 49
45.000000
 49
-1.000000
 49
3.000000
 49
-1.000000
  0
LTYPE
  2
CENTER5
 70
    64
  3
____ _ ____ _ ____ _ ____ _ ____ _ ____ _ ____
 72
    65
 73
     4
 40
100.000000
 49
92.000000
 49
-2.000000
 49
4.000000
 49
-2.000000
  0
LTYPE
  2
SBK1
 70
    64
  3
______ _ _ _ ______ _ _ _ ______ _ _ _ _____  
 72
    65
 73
     8
 40
60.500000
 49
45.000000
 49
-2.000000
 49
2.500000
 49
-2.000000
 49
2.500000
 49
-2.000000
 49
2.500000
 49
-2.000000
  0
LTYPE
  2
SBK2
 70
    64
  3
______ _ _ _ ______ _ _ _ ______ _ _ _ _____  
 72
    65
 73
     8
 40
84.000000
 49
64.000000
 49
-2.000000
 49
4.000000
 49
-2.000000
 49
4.000000
 49
-2.000000
 49
4.000000
 49
-2.000000
  0
LTYPE
  2
STCH
 70
    64
  3
__ __ __ __ __ __ __ __ __ __ __ __ __ __ __
 72
    65
 73
     2
 40
3.000000
 49
1.000000
 49
-2.000000
  0
LTYPE
  2
MTCH
 70
    64
  3
_____ _ _ _____ _ _ _____ _ _ _____ _ _ ____  
 72
    65
 73
     6
 40
80.000000
 49
66.000000
 49
-2.000000
 49
4.000000
 49
-2.000000
 49
4.000000
 49
-2.000000
  0
ENDTAB
  0
TABLE
  2
LAYER
 70
     1
  0
LAYER
  2
0
 70
     0
 62
     7
  6
CONTINUOUS
  0
ENDTAB
  0
TABLE
  2
STYLE
 70
     1
  0
STYLE
  2
STANDARD
 70
     0
 40
0.000000
 41
1.000000
 50
0.000000
 71
     0
 42
0.200000
  3
txt
  4
BIGFONT
  0
ENDTAB
  0
TABLE
  2
VIEW
 70
     0
  0
ENDTAB
  0
ENDSEC
  0
SECTION
  2
BLOCKS
  0
ENDSEC
  0
SECTION
  2
ENTITIES
  0
LINE
  8
0
 10
-199.500000
 20
-138.500000
 11
199.500000
 21
-138.500000
  0
LINE
  8
0
 10
-199.500000
 20
-138.500000
 11
-199.500000
 21
138.500000
  0
LINE
  8
0
 10
199.500000
 20
138.500000
 11
199.500000
 21
-138.500000
  0
LINE
  8
0
 10
-199.500000
 20
138.500000
 11
199.500000
 21
138.500000
  0
LINE
  8
0
 10
131.123611
 20
90.000008
 11
131.123611
 21
-90.000008
  0
LINE
  8
0
 10
-131.123611
 20
-90.000008
 11
131.123611
 21
-90.000008
  0
LINE
  8
0
 10
77.191010
 20
-79.887642
 11
131.123611
 21
-79.887642
  0
LINE
  8
0
 10
77.191010
 20
-79.887642
 11
77.191010
 21
-90.000008
  0
LINE
  8
0
 10
77.191010
 20
90.000008
 11
77.191010
 21
79.887642
  0
LINE
  8
0
 10
77.191010
 20
79.887642
 11
131.123611
 21
79.887642
  0
LINE
  8
0
 10
-131.123611
 20
90.000008
 11
131.123611
 21
90.000008
  0
LINE
  8
0
 10
-77.191025
 20
79.887642
 11
-77.191025
 21
90.000008
  0
LINE
  8
0
 10
-131.123611
 20
79.887642
 11
-77.191025
 21
79.887642
  0
LINE
  8
0
 10
-131.123611
 20
-90.000008
 11
-131.123611
 21
90.000008
  0
TEXT
  8
0
 10
81.157310
 20
-87.093826
 40
3.500000
  1
KOGANEI CORP.
 50
0.000000
 41
1.052632
 51
0.000000
  7
STANDARD
  0
TEXT
  8
0
 10
80.231529
 20
83.243828
 40
3.000000
  1
DATE : AUG,1992
 50
0.000000
 41
1.052632
 51
0.000000
  7
STANDARD
  0
TEXT
  8
0
 10
-127.157318
 20
82.793823
 40
3.500000
  1
SLIM CYLINDER
 50
0.000000
 41
1.052632
 51
0.000000
  7
STANDARD
  0
TEXT
  8
0
 10
-115.549469
 20
61.670967
 40
3.500000
  1
MODEL : DAK25X25-RL
 50
0.000000
 41
1.052632
 51
0.000000
  7
STANDARD
  0
POINT
  8
0
 10
-27.000038
 20
29.000002
  0
POINT
  8
0
 10
94.999992
 20
29.000002
  0
LINE
  8
0
 10
-66.000000
 20
24.000002
 11
-41.000004
 21
24.000002
  0
LINE
  8
0
 10
-49.000004
 20
34.000000
 11
-49.000004
 21
24.000002
  0
LINE
  8
0
 10
-47.000004
 20
32.000000
 11
-42.000004
 21
32.000000
  0
LINE
  8
0
 10
-47.000004
 20
26.000002
 11
-42.000004
 21
26.000002
  0
LINE
  8
0
 10
-47.000004
 20
32.000000
 11
-47.000004
 21
26.000002
  0
LINE
  8
0
 10
-42.000004
 20
32.000000
 11
-42.000004
 21
26.000002
  0
LINE
  8
0
 10
-47.000004
 20
26.000013
 11
-42.000004
 21
32.000008
  0
LINE
  8
0
 10
-42.000019
 20
26.000000
 11
-47.000034
 21
32.000008
  0
LINE
  8
0
 10
-47.000004
 20
32.000000
 11
-47.000004
 21
26.000002
  0
LINE
  8
0
 10
-66.000000
 20
34.000000
 11
-41.000004
 21
34.000000
  0
LINE
  8
0
 10
-37.660252
 20
46.320511
 11
-30.000004
 21
46.320511
  0
LINE
  8
0
 10
-37.660252
 20
11.679495
 11
-30.000004
 21
11.679495
  0
LINE
  8
0
 10
-37.660252
 20
37.660255
 11
-30.000004
 21
37.660255
  0
LINE
  8
0
 10
-37.660252
 20
20.339746
 11
-30.000004
 21
20.339746
  0
LINE
  8
0
 10
-39.000023
 20
14.000004
 11
-37.660271
 21
11.679493
  0
LINE
  8
0
 10
-30.000004
 20
14.000002
 11
-29.500004
 21
14.000002
  0
LINE
  8
0
 10
-30.000004
 20
44.000000
 11
-29.500004
 21
44.000000
  0
LINE
  8
0
 10
-38.999989
 20
43.999996
 11
-37.660255
 21
46.320496
  0
LINE
  8
0
 10
-38.999989
 20
43.999996
 11
-37.660255
 21
46.320496
  0
LINE
  8
0
 10
-41.000004
 20
39.000000
 11
-41.000004
 21
19.000002
  0
LINE
  8
0
 10
-39.808247
 20
40.000000
 11
-39.000004
 21
40.000000
  0
LINE
  8
0
 10
-27.000038
 20
46.500046
 11
-27.000038
 21
11.500048
  0
LINE
  8
0
 10
-11.000038
 20
46.500038
 11
-11.000038
 21
11.500036
  0
LINE
  8
0
 10
-29.500004
 20
14.000002
 11
-29.500004
 21
44.000000
  0
LINE
  8
0
 10
-30.000004
 20
11.679495
 11
-30.000004
 21
46.320511
  0
LINE
  8
0
 10
-39.000004
 20
14.000002
 11
-39.000004
 21
44.000000
  0
LINE
  8
0
 10
-39.000004
 20
19.000002
 11
-41.000004
 21
19.000002
  0
LINE
  8
0
 10
-41.000004
 20
39.000000
 11
-39.000004
 21
39.000000
  0
LINE
  8
0
 10
-29.500004
 20
39.000000
 11
-29.000004
 21
39.000000
  0
LINE
  8
0
 10
-29.500004
 20
19.000002
 11
-29.000004
 21
19.000002
  0
LINE
  8
0
 10
-11.000038
 20
15.800001
 11
57.999977
 21
15.800001
  0
LINE
  8
0
 10
-11.000038
 20
42.200005
 11
57.999977
 21
42.200005
  0
LINE
  8
0
 10
57.999977
 20
43.499969
 11
57.999977
 21
14.499969
  0
LINE
  8
0
 10
74.000008
 20
43.500031
 11
58.000008
 21
43.500031
  0
LINE
  8
0
 10
73.999992
 20
14.500042
 11
57.999992
 21
14.500042
  0
LINE
  8
0
 10
73.999977
 20
43.499954
 11
73.999977
 21
14.499956
  0
LINE
  8
0
 10
93.808243
 20
18.000000
 11
94.999977
 21
18.999994
  0
LINE
  8
0
 10
73.999992
 20
18.000002
 11
93.808250
 21
18.000002
  0
LINE
  8
0
 10
73.999992
 20
40.000000
 11
93.999992
 21
40.000000
  0
LINE
  8
0
 10
93.999985
 20
39.999985
 11
94.999977
 21
38.999981
  0
LINE
  8
0
 10
93.999992
 20
39.188004
 11
93.999992
 21
40.000000
  0
LINE
  8
0
 10
93.808250
 20
18.812002
 11
93.808250
 21
18.000002
  0
LINE
  8
0
 10
75.999992
 20
39.188004
 11
94.812004
 21
39.188004
  0
LINE
  8
0
 10
74.593605
 20
40.000046
 11
76.000046
 21
39.188046
  0
LINE
  8
0
 10
74.593559
 20
18.000010
 11
75.999985
 21
18.812004
  0
LINE
  8
0
 10
94.999992
 20
19.000002
 11
94.999992
 21
39.000008
  0
LINE
  8
0
 10
75.999992
 20
40.000000
 11
75.999992
 21
39.188004
  0
LINE
  8
0
 10
75.999992
 20
18.812002
 11
75.999992
 21
18.000002
  0
LINE
  8
0
 10
75.999992
 20
18.812002
 11
94.775948
 21
18.812002
  0
LINE
  8
0
 10
-68.500000
 20
29.000002
 11
99.114983
 21
29.000002
  0
LINE
  8
0
 10
-41.000000
 20
19.000006
 11
-40.160900
 21
18.000008
  0
LINE
  8
0
 10
-40.160908
 20
18.000002
 11
-39.000004
 21
18.000002
  0
LINE
  8
0
 10
-29.500004
 20
18.000002
 11
-27.000004
 21
18.000002
  0
LINE
  8
0
 10
-41.000000
 20
38.999996
 11
-40.160904
 21
39.999996
  0
LINE
  8
0
 10
-40.160908
 20
40.000000
 11
-39.000004
 21
40.000000
  0
LINE
  8
0
 10
-29.500004
 20
40.000000
 11
-27.000004
 21
40.000000
  0
LINE
  8
0
 10
-29.000042
 20
18.000002
 11
-29.000042
 21
40.000000
  0
LINE
  8
0
 10
-40.160908
 20
18.000002
 11
-40.160908
 21
40.000000
  0
LINE
  8
0
 10
-67.000000
 20
33.000000
 11
-49.000004
 21
33.000000
  0
LINE
  8
0
 10
-67.000000
 20
25.000002
 11
-41.000004
 21
25.000002
  0
LINE
  8
0
 10
-66.000000
 20
34.000000
 11
-66.000000
 21
24.000002
  0
LINE
  8
0
 10
-67.000000
 20
25.000004
 11
-66.000000
 21
24.000004
  0
LINE
  8
0
 10
-65.999992
 20
33.999992
 11
-66.999985
 21
32.999992
  0
LINE
  8
0
 10
-67.000000
 20
33.000000
 11
-67.000000
 21
25.000002
  0
LINE
  8
0
 10
-26.999989
 20
46.500038
 11
-10.999989
 21
46.500038
  0
LINE
  8
0
 10
-27.000019
 20
11.500034
 11
-11.000019
 21
11.500034
  0
LINE
  8
0
 10
-11.000000
 20
37.000015
 11
-27.000000
 21
37.000015
  0
LINE
  8
0
 10
-11.000008
 20
21.000015
 11
-27.000008
 21
21.000015
  0
LINE
  8
0
 10
-11.000015
 20
17.864491
 11
-27.000015
 21
17.864491
  0
LINE
  8
0
 10
-11.000000
 20
40.135551
 11
-27.000000
 21
40.135551
  0
LINE
  8
0
 10
65.999977
 20
48.499969
 11
65.999977
 21
9.499954
  0
LINE
  8
0
 10
-19.000038
 20
48.500046
 11
-19.000038
 21
9.500042
  0
LINE
  8
0
 10
85.999992
 20
43.499947
 11
85.999992
 21
14.499947
  0
LINE
  8
0
 10
-14.915078
 20
23.084948
 11
-13.084959
 21
24.915066
  0
LINE
  8
0
 10
-14.915060
 20
24.915064
 11
-13.084950
 21
23.084955
  0
LINE
  8
0
 10
-24.915064
 20
34.915062
 11
-23.084953
 21
33.084953
  0
LINE
  8
0
 10
-24.915075
 20
33.084938
 11
-23.084955
 21
34.915058
  0
LINE
  8
0
 10
-24.915062
 20
24.915062
 11
-23.084953
 21
23.084953
  0
LINE
  8
0
 10
-24.915075
 20
23.084940
 11
-23.084957
 21
24.915058
  0
LINE
  8
0
 10
-14.915058
 20
34.915062
 11
-13.084949
 21
33.084953
  0
LINE
  8
0
 10
-14.915075
 20
33.084946
 11
-13.084956
 21
34.915062
  0
ARC
  8
0
 10
-14.000004
 20
24.000002
 40
4.000000
 50
41.409592
 51
228.590332
  0
ARC
  8
0
 10
-14.000004
 20
34.000000
 40
4.000002
 50
131.409576
 51
318.590363
  0
CIRCLE
  8
0
 10
85.999992
 20
29.000002
 40
4.000000
  0
CIRCLE
  8
0
 10
-19.000004
 20
29.000021
 40
1.700000
  0
CIRCLE
  8
0
 10
-24.000004
 20
34.000000
 40
2.750000
  0
ARC
  8
0
 10
-24.000004
 20
24.000002
 40
3.999999
 50
311.409576
 51
138.590332
  0
CIRCLE
  8
0
 10
-14.000004
 20
34.000000
 40
2.750000
  0
CIRCLE
  8
0
 10
-24.000004
 20
24.000002
 40
2.750000
  0
CIRCLE
  8
0
 10
-14.000004
 20
24.000002
 40
2.750000
  0
ARC
  8
0
 10
-24.000004
 20
34.000000
 40
3.999998
 50
221.409592
 51
48.590370
  0
POLYLINE
  8
0
 66
     1
  0
VERTEX
  8
0
 10
-37.660252
 20
20.339746
  0
VERTEX
  8
0
 10
-38.104877
 20
19.542229
  0
VERTEX
  8
0
 10
-38.475300
 20
18.699039
  0
VERTEX
  8
0
 10
-38.757381
 20
17.821596
  0
VERTEX
  8
0
 10
-38.936993
 20
16.921318
  0
VERTEX
  8
0
 10
-39.000004
 20
16.009621
  0
VERTEX
  8
0
 10
-38.936993
 20
15.097923
  0
VERTEX
  8
0
 10
-38.757381
 20
14.197644
  0
VERTEX
  8
0
 10
-38.475300
 20
13.320201
  0
VERTEX
  8
0
 10
-38.104877
 20
12.477012
  0
VERTEX
  8
0
 10
-37.660252
 20
11.679495
  0
SEQEND
  0
POLYLINE
  8
0
 66
     1
  0
VERTEX
  8
0
 10
-37.660252
 20
37.660255
  0
VERTEX
  8
0
 10
-37.933598
 20
36.724918
  0
VERTEX
  8
0
 10
-38.177536
 20
35.780083
  0
VERTEX
  8
0
 10
-38.391331
 20
34.826939
  0
VERTEX
  8
0
 10
-38.574253
 20
33.866665
  0
VERTEX
  8
0
 10
-38.725563
 20
32.900455
  0
VERTEX
  8
0
 10
-38.844528
 20
31.929499
  0
VERTEX
  8
0
 10
-38.930412
 20
30.954979
  0
VERTEX
  8
0
 10
-38.982483
 20
29.978085
  0
VERTEX
  8
0
 10
-39.000004
 20
29.000002
  0
VERTEX
  8
0
 10
-38.982483
 20
28.021919
  0
VERTEX
  8
0
 10
-38.930412
 20
27.045025
  0
VERTEX
  8
0
 10
-38.844528
 20
26.070503
  0
VERTEX
  8
0
 10
-38.725563
 20
25.099546
  0
VERTEX
  8
0
 10
-38.574253
 20
24.133337
  0
VERTEX
  8
0
 10
-38.391331
 20
23.173065
  0
VERTEX
  8
0
 10
-38.177536
 20
22.219919
  0
VERTEX
  8
0
 10
-37.933598
 20
21.275084
  0
VERTEX
  8
0
 10
-37.660252
 20
20.339746
  0
SEQEND
  0
POLYLINE
  8
0
 66
     1
  0
VERTEX
  8
0
 10
-37.660252
 20
37.660255
  0
VERTEX
  8
0
 10
-38.104877
 20
38.457771
  0
VERTEX
  8
0
 10
-38.475300
 20
39.300961
  0
VERTEX
  8
0
 10
-38.757381
 20
40.178402
  0
VERTEX
  8
0
 10
-38.936993
 20
41.078682
  0
VERTEX
  8
0
 10
-39.000004
 20
41.990379
  0
VERTEX
  8
0
 10
-38.936993
 20
42.902077
  0
VERTEX
  8
0
 10
-38.757381
 20
43.802357
  0
VERTEX
  8
0
 10
-38.475300
 20
44.679802
  0
VERTEX
  8
0
 10
-38.104877
 20
45.522991
  0
VERTEX
  8
0
 10
-37.660252
 20
46.320511
  0
SEQEND
  0
POINT
  8
0
 10
-105.000008
 20
29.000010
  0
POINT
  8
0
 10
-90.000008
 20
29.000010
  0
LINE
  8
0
 10
-124.615303
 20
29.000010
 11
-83.532944
 21
29.000010
  0
LINE
  8
0
 10
-120.000008
 20
37.660263
 11
-120.000008
 21
20.339754
  0
LINE
  8
0
 10
-90.000008
 20
37.660263
 11
-90.000008
 21
20.339754
  0
LINE
  8
0
 10
-104.999954
 20
46.320499
 11
-89.999969
 21
37.660244
  0
LINE
  8
0
 10
-120.000031
 20
20.339750
 11
-105.000008
 21
11.679489
  0
LINE
  8
0
 10
-120.000015
 20
37.660271
 11
-105.000015
 21
46.320526
  0
LINE
  8
0
 10
-105.000046
 20
11.679594
 11
-90.000061
 21
20.339840
  0
LINE
  8
0
 10
-112.000008
 20
33.041458
 11
-112.000008
 21
24.958559
  0
LINE
  8
0
 10
-111.999992
 20
33.041409
 11
-104.999969
 21
37.082863
  0
LINE
  8
0
 10
-105.000053
 20
20.917145
 11
-98.000038
 21
24.958609
  0
LINE
  8
0
 10
-105.000015
 20
37.082905
 11
-98.000031
 21
33.041458
  0
LINE
  8
0
 10
-112.000069
 20
24.958553
 11
-105.000069
 21
20.917105
  0
LINE
  8
0
 10
-98.000008
 20
33.041458
 11
-98.000008
 21
24.958559
  0
LINE
  8
0
 10
-91.500008
 20
40.135536
 11
-91.500008
 21
38.526291
  0
LINE
  8
0
 10
-91.500008
 20
19.473742
 11
-91.500008
 21
17.864481
  0
LINE
  8
0
 10
-90.000008
 20
37.000008
 11
-88.000008
 21
37.000008
  0
LINE
  8
0
 10
-90.000008
 20
21.000010
 11
-88.000015
 21
21.000010
  0
LINE
  8
0
 10
-105.000008
 20
51.251633
 11
-105.000008
 21
7.609940
  0
LINE
  8
0
 10
-86.500008
 20
31.250010
 11
-86.000008
 21
31.250010
  0
LINE
  8
0
 10
-89.000008
 20
26.645761
 11
-86.500008
 21
26.645761
  0
LINE
  8
0
 10
-89.000008
 20
26.645761
 11
-89.000008
 21
21.250010
  0
LINE
  8
0
 10
-86.000008
 20
21.250010
 11
-86.000008
 21
26.750010
  0
LINE
  8
0
 10
-87.749985
 20
21.249969
 11
-87.999992
 21
20.999969
  0
LINE
  8
0
 10
-86.500008
 20
26.750010
 11
-86.000008
 21
26.750010
  0
LINE
  8
0
 10
-89.000008
 20
21.250010
 11
-86.000008
 21
21.250010
  0
LINE
  8
0
 10
-86.500008
 20
31.354258
 11
-86.500008
 21
26.645761
  0
LINE
  8
0
 10
-89.000008
 20
36.750008
 11
-89.000008
 21
31.354258
  0
LINE
  8
0
 10
-90.256477
 20
34.000008
 11
-85.706566
 21
34.000008
  0
LINE
  8
0
 10
-89.000008
 20
31.354258
 11
-86.500008
 21
31.354258
  0
LINE
  8
0
 10
-88.000061
 20
36.999969
 11
-87.750061
 21
36.749977
  0
LINE
  8
0
 10
-89.000008
 20
36.750008
 11
-86.000008
 21
36.750008
  0
LINE
  8
0
 10
-86.000008
 20
36.750008
 11
-86.000008
 21
31.250010
  0
ARC
  8
0
 10
-105.000008
 20
29.000010
 40
17.499998
 50
39.517647
 51
320.482330
  0
CIRCLE
  8
0
 10
-105.000008
 20
29.000010
 40
4.000000
  0
CIRCLE
  8
0
 10
-105.000008
 20
29.000010
 40
15.000000
  0
CIRCLE
  8
0
 10
-105.000008
 20
29.000010
 40
11.000000
  0
CIRCLE
  8
0
 10
-105.000008
 20
29.000010
 40
10.000000
  0
CIRCLE
  8
0
 10
-105.000008
 20
29.000010
 40
7.000000
  0
CIRCLE
  8
0
 10
-105.000008
 20
29.000010
 40
5.000000
  0
POINT
  8
0
 10
-27.000078
 20
-43.666683
  0
POINT
  8
0
 10
94.999924
 20
-43.666683
  0
LINE
  8
0
 10
85.999924
 20
-35.166683
 11
85.999924
 21
-52.166683
  0
LINE
  8
0
  6
DASHED
 10
81.999924
 20
-37.666683
 11
81.999924
 21
-49.666683
  0
LINE
  8
0
  6
DASHED
 10
89.999924
 20
-37.666683
 11
89.999924
 21
-49.666683
  0
LINE
  8
0
 10
-41.000072
 20
-53.666763
 11
-40.000065
 21
-54.666763
  0
LINE
  8
0
 10
-41.000092
 20
-33.666698
 11
-40.000099
 21
-32.666706
  0
LINE
  8
0
 10
-41.000076
 20
-53.666668
 11
-41.000076
 21
-33.666668
  0
LINE
  8
0
 10
-27.000078
 20
-58.166668
 11
-27.000078
 21
-26.666731
  0
LINE
  8
0
 10
-11.000078
 20
-26.666674
 11
-11.000078
 21
-58.166668
  0
LINE
  8
0
 10
-27.000078
 20
-29.166668
 11
-11.000078
 21
-29.166668
  0
LINE
  8
0
 10
-27.000078
 20
-58.166668
 11
-11.000078
 21
-58.166668
  0
LINE
  8
0
 10
-40.000076
 20
-54.666668
 11
-39.000076
 21
-54.666668
  0
LINE
  8
0
 10
-41.000076
 20
-53.666668
 11
-39.000076
 21
-53.666668
  0
LINE
  8
0
 10
-27.000078
 20
-32.666668
 11
-29.500078
 21
-32.666668
  0
LINE
  8
0
 10
-41.000076
 20
-33.666668
 11
-39.000076
 21
-33.666668
  0
LINE
  8
0
 10
-49.000076
 20
-48.666668
 11
-49.000076
 21
-38.666668
  0
LINE
  8
0
 10
-40.000130
 20
-32.666721
 11
-40.000130
 21
-54.666718
  0
LINE
  8
0
 10
-29.000078
 20
-32.666668
 11
-29.000078
 21
-54.666668
  0
LINE
  8
0
 10
-67.000084
 20
-39.666668
 11
-67.000084
 21
-47.666668
  0
LINE
  8
0
 10
-67.000023
 20
-39.666752
 11
-66.000031
 21
-38.666748
  0
LINE
  8
0
 10
-67.000076
 20
-47.666752
 11
-66.000107
 21
-48.666740
  0
LINE
  8
0
 10
-66.000084
 20
-38.666668
 11
-66.000084
 21
-48.666668
  0
LINE
  8
0
 10
-67.000084
 20
-47.666668
 11
-49.000061
 21
-47.666668
  0
LINE
  8
0
 10
-67.000084
 20
-39.666668
 11
-49.000076
 21
-39.666668
  0
LINE
  8
0
 10
-66.000084
 20
-48.666668
 11
-48.000061
 21
-48.666668
  0
LINE
  8
0
 10
-19.000078
 20
-35.166683
 11
-19.000078
 21
-52.166683
  0
LINE
  8
0
 10
-47.000076
 20
-39.666683
 11
-42.000076
 21
-39.666683
  0
LINE
  8
0
 10
-47.000076
 20
-47.666683
 11
-42.000076
 21
-47.666683
  0
LINE
  8
0
 10
-42.000084
 20
-39.666733
 11
-41.000053
 21
-38.666718
  0
LINE
  8
0
 10
-48.000046
 20
-48.666695
 11
-47.000065
 21
-47.666718
  0
LINE
  8
0
 10
-42.000084
 20
-47.666706
 11
-41.000099
 21
-48.666691
  0
LINE
  8
0
 10
-48.000126
 20
-38.666710
 11
-47.000088
 21
-39.666725
  0
LINE
  8
0
 10
-48.000092
 20
-38.666653
 11
-66.000084
 21
-38.666653
  0
LINE
  8
0
 10
73.999924
 20
-58.166683
 11
73.999924
 21
-29.166683
  0
LINE
  8
0
 10
57.999924
 20
-29.166683
 11
57.999924
 21
-58.166683
  0
LINE
  8
0
 10
73.999924
 20
-29.166683
 11
57.999924
 21
-29.166683
  0
LINE
  8
0
 10
73.999924
 20
-58.166683
 11
57.999924
 21
-58.166683
  0
LINE
  8
0
 10
94.999924
 20
-49.666683
 11
94.999924
 21
-37.666683
  0
LINE
  8
0
 10
74.999924
 20
-54.666683
 11
74.999924
 21
-49.666683
  0
LINE
  8
0
 10
73.999924
 20
-54.666683
 11
73.999924
 21
-32.666683
  0
LINE
  8
0
 10
73.999924
 20
-32.666683
 11
74.999924
 21
-32.666683
  0
LINE
  8
0
 10
74.999924
 20
-54.666683
 11
73.999924
 21
-54.666683
  0
LINE
  8
0
 10
-11.000078
 20
-56.866680
 11
57.999924
 21
-56.866680
  0
LINE
  8
0
 10
-11.000078
 20
-30.466686
 11
57.999924
 21
-30.466686
  0
LINE
  8
0
 10
65.999924
 20
-35.166683
 11
65.999924
 21
-52.166683
  0
LINE
  8
0
 10
74.999924
 20
-37.666683
 11
94.999924
 21
-37.666683
  0
LINE
  8
0
 10
74.999924
 20
-49.666683
 11
94.999924
 21
-49.666683
  0
LINE
  8
0
 10
74.999924
 20
-37.666683
 11
74.999924
 21
-32.666683
  0
LINE
  8
0
 10
-69.500008
 20
-43.666683
 11
99.114975
 21
-43.666683
  0
LINE
  8
0
 10
-21.250082
 20
-25.166687
 11
-21.250082
 21
-24.666685
  0
LINE
  8
0
 10
-16.645834
 20
-27.666687
 11
-16.645834
 21
-25.166687
  0
LINE
  8
0
 10
-16.645834
 20
-27.666685
 11
-11.250082
 21
-27.666685
  0
LINE
  8
0
 10
-11.250082
 20
-24.666685
 11
-16.750082
 21
-24.666685
  0
LINE
  8
0
 10
-11.250067
 20
-26.416685
 11
-11.000067
 21
-26.666687
  0
LINE
  8
0
 10
-16.750082
 20
-25.166687
 11
-16.750082
 21
-24.666685
  0
LINE
  8
0
 10
-11.250082
 20
-27.666687
 11
-11.250082
 21
-24.666685
  0
LINE
  8
0
 10
-21.354330
 20
-25.166685
 11
-16.645834
 21
-25.166685
  0
LINE
  8
0
 10
-26.750082
 20
-27.666685
 11
-21.354330
 21
-27.666685
  0
LINE
  8
0
 10
-21.354330
 20
-27.666687
 11
-21.354330
 21
-25.166687
  0
LINE
  8
0
 10
-27.000050
 20
-26.666702
 11
-26.750055
 21
-26.416706
  0
LINE
  8
0
 10
-26.750082
 20
-27.666687
 11
-26.750082
 21
-24.666685
  0
LINE
  8
0
 10
-26.750082
 20
-24.666685
 11
-21.250082
 21
-24.666685
  0
LINE
  8
0
 10
-37.660324
 20
-26.346172
 11
-29.500078
 21
-26.346172
  0
LINE
  8
0
 10
-30.000078
 20
-60.987194
 11
-30.000078
 21
-26.346172
  0
LINE
  8
0
 10
-29.500078
 20
-60.987194
 11
-29.500078
 21
-26.346172
  0
LINE
  8
0
 10
-39.000099
 20
-28.666706
 11
-37.660366
 21
-26.346210
  0
LINE
  8
0
 10
-39.000076
 20
-58.666683
 11
-39.000076
 21
-28.666683
  0
LINE
  8
0
 10
-39.000134
 20
-58.666679
 11
-37.660378
 21
-60.987198
  0
LINE
  8
0
 10
-37.660324
 20
-60.987194
 11
-29.500078
 21
-60.987194
  0
LINE
  8
0
 10
-39.000076
 20
-32.666668
 11
-40.000092
 21
-32.666668
  0
LINE
  8
0
 10
-29.500078
 20
-33.666668
 11
-29.000078
 21
-33.666668
  0
LINE
  8
0
 10
-29.500078
 20
-53.666668
 11
-29.000078
 21
-53.666668
  0
LINE
  8
0
 10
-29.500078
 20
-54.666668
 11
-27.000078
 21
-54.666668
  0
ARC
  8
0
 10
-10.339937
 20
-52.326931
 40
28.660137
 50
162.411957
 51
197.587967
  0
ARC
  8
0
 10
-10.339937
 20
-35.006435
 40
28.660139
 50
162.411972
 51
197.587967
  0
CIRCLE
  8
0
 10
-19.000078
 20
-43.666683
 40
4.000000
  0
CIRCLE
  8
0
 10
65.999924
 20
-43.666683
 40
4.000000
  0
CIRCLE
  8
0
 10
65.999924
 20
-43.666683
 40
5.000000
  0
CIRCLE
  8
0
 10
-19.000078
 20
-43.666683
 40
5.000000
  0
ENDSEC
  0
EOF
