  0
SECTION
  2
HEADER
  0
ENDSEC
  0
SECTION
  2
TABLES
  0
TABLE
  2
LTYPE
 70
     4
  0
LTYPE
  2
CONTINUOUS
 70
    64
  3
Solid line
 72
    65
 73
     0
 40
0.000000
  0
LTYPE
  2
DASHED
 70
    64
  3
__ __ __ __ __ __ __ __ __ __ __ __ __ __ __
 72
    65
 73
     2
 40
3.500000
 49
2.000000
 49
-1.500000
  0
LTYPE
  2
CENTER
 70
    64
  3
____ _ ____ _ ____ _ ____ _ ____ _ ____ _ ____
 72
    65
 73
     4
 40
17.500000
 49
13.000000
 49
-1.500000
 49
1.500000
 49
-1.500000
  0
LTYPE
  2
PHANTOM
 70
    64
  3
_____ _ _ _____ _ _ _____ _ _ _____ _ _ ____  
 72
    65
 73
     6
 40
15.500000
 49
8.000000
 49
-1.500000
 49
1.500000
 49
-1.500000
 49
1.500000
 49
-1.500000
  0
LTYPE
  2
DASHED1
 70
    64
  3
__ __ __ __ __ __ __ __ __ __ __ __ __ __ __
 72
    65
 73
     2
 40
1.500000
 49
1.000000
 49
-0.500000
  0
LTYPE
  2
DASHED2
 70
    64
  3
__ __ __ __ __ __ __ __ __ __ __ __ __ __ __
 72
    65
 73
     2
 40
3.500000
 49
2.500000
 49
-1.000000
  0
LTYPE
  2
DASHED3
 70
    64
  3
__ __ __ __ __ __ __ __ __ __ __ __ __ __ __
 72
    65
 73
     2
 40
6.000000
 49
4.000000
 49
-2.000000
  0
LTYPE
  2
DASHED4
 70
    64
  3
__ __ __ __ __ __ __ __ __ __ __ __ __ __ __
 72
    65
 73
     2
 40
12.000000
 49
10.000000
 49
-2.000000
  0
LTYPE
  2
DASHED5
 70
    64
  3
__ __ __ __ __ __ __ __ __ __ __ __ __ __ __
 72
    65
 73
     2
 40
17.000000
 49
15.000000
 49
-2.000000
  0
LTYPE
  2
DASHED6
 70
    64
  3
__ __ __ __ __ __ __ __ __ __ __ __ __ __ __
 72
    65
 73
     2
 40
29.000000
 49
27.000000
 49
-2.000000
  0
LTYPE
  2
PHANTOM1
 70
    64
  3
_____ _ _ _____ _ _ _____ _ _ _____ _ _ ____  
 72
    65
 73
     6
 40
31.000000
 49
25.000000
 49
-1.500000
 49
1.000000
 49
-1.000000
 49
1.000000
 49
-1.500000
  0
LTYPE
  2
PHANTOM2
 70
    64
  3
_____ _ _ _____ _ _ _____ _ _ _____ _ _ ____  
 72
    65
 73
     6
 40
36.000000
 49
27.000000
 49
-1.500000
 49
2.500000
 49
-1.000000
 49
2.500000
 49
-1.500000
  0
LTYPE
  2
PHANTOM3
 70
    64
  3
_____ _ _ _____ _ _ _____ _ _ _____ _ _ ____  
 72
    65
 73
     6
 40
78.000000
 49
64.000000
 49
-2.000000
 49
4.000000
 49
-2.000000
 49
4.000000
 49
-2.000000
  0
LTYPE
  2
CENTER1
 70
    64
  3
____ _ ____ _ ____ _ ____ _ ____ _ ____ _ ____
 72
    65
 73
     4
 40
19.000000
 49
14.000000
 49
-1.000000
 49
3.000000
 49
-1.000000
  0
LTYPE
  2
CENTER2
 70
    64
  3
____ _ ____ _ ____ _ ____ _ ____ _ ____ _ ____
 72
    65
 73
     4
 40
28.500000
 49
25.000000
 49
-1.000000
 49
1.500000
 49
-1.000000
  0
LTYPE
  2
CENTER3
 70
    64
  3
____ _ ____ _ ____ _ ____ _ ____ _ ____ _ ____
 72
    65
 73
     4
 40
31.500000
 49
27.000000
 49
-1.000000
 49
2.500000
 49
-1.000000
  0
LTYPE
  2
CENTER4
 70
    64
  3
____ _ ____ _ ____ _ ____ _ ____ _ ____ _ ____
 72
    65
 73
     4
 40
50.000000
 49
45.000000
 49
-1.000000
 49
3.000000
 49
-1.000000
  0
LTYPE
  2
CENTER5
 70
    64
  3
____ _ ____ _ ____ _ ____ _ ____ _ ____ _ ____
 72
    65
 73
     4
 40
100.000000
 49
92.000000
 49
-2.000000
 49
4.000000
 49
-2.000000
  0
LTYPE
  2
SBK1
 70
    64
  3
______ _ _ _ ______ _ _ _ ______ _ _ _ _____  
 72
    65
 73
     8
 40
60.500000
 49
45.000000
 49
-2.000000
 49
2.500000
 49
-2.000000
 49
2.500000
 49
-2.000000
 49
2.500000
 49
-2.000000
  0
LTYPE
  2
SBK2
 70
    64
  3
______ _ _ _ ______ _ _ _ ______ _ _ _ _____  
 72
    65
 73
     8
 40
84.000000
 49
64.000000
 49
-2.000000
 49
4.000000
 49
-2.000000
 49
4.000000
 49
-2.000000
 49
4.000000
 49
-2.000000
  0
LTYPE
  2
STCH
 70
    64
  3
__ __ __ __ __ __ __ __ __ __ __ __ __ __ __
 72
    65
 73
     2
 40
3.000000
 49
1.000000
 49
-2.000000
  0
LTYPE
  2
MTCH
 70
    64
  3
_____ _ _ _____ _ _ _____ _ _ _____ _ _ ____  
 72
    65
 73
     6
 40
80.000000
 49
66.000000
 49
-2.000000
 49
4.000000
 49
-2.000000
 49
4.000000
 49
-2.000000
  0
ENDTAB
  0
TABLE
  2
LAYER
 70
     1
  0
LAYER
  2
0
 70
     0
 62
     7
  6
CONTINUOUS
  0
ENDTAB
  0
TABLE
  2
STYLE
 70
     1
  0
STYLE
  2
STANDARD
 70
     0
 40
0.000000
 41
1.000000
 50
0.000000
 71
     0
 42
0.200000
  3
txt
  4
BIGFONT
  0
ENDTAB
  0
TABLE
  2
VIEW
 70
     0
  0
ENDTAB
  0
ENDSEC
  0
SECTION
  2
BLOCKS
  0
ENDSEC
  0
SECTION
  2
ENTITIES
  0
LINE
  8
0
 10
-185.436783
 20
-127.279236
 11
-185.436783
 21
127.279236
  0
LINE
  8
0
 10
185.436783
 20
127.279236
 11
185.436783
 21
-127.279236
  0
LINE
  8
0
 10
-185.436783
 20
-127.279236
 11
185.436783
 21
-127.279236
  0
LINE
  8
0
 10
-185.436783
 20
127.279236
 11
185.436783
 21
127.279236
  0
LINE
  8
0
 10
-185.436783
 20
112.978195
 11
-109.164589
 21
112.978195
  0
LINE
  8
0
 10
-109.164589
 20
112.978195
 11
-109.164589
 21
127.279236
  0
LINE
  8
0
 10
109.164581
 20
-112.978210
 11
185.436783
 21
-112.978210
  0
LINE
  8
0
 10
109.164581
 20
112.978195
 11
185.436783
 21
112.978195
  0
LINE
  8
0
 10
109.164581
 20
127.279236
 11
109.164581
 21
112.978195
  0
LINE
  8
0
 10
109.164581
 20
-112.978210
 11
109.164581
 21
-127.279236
  0
TEXT
  8
0
 10
113.360985
 20
117.310349
 40
4.242641
  1
DATE : AUG ,1992
 50
0.000000
 41
1.052631
 51
0.000000
  7
STANDARD
  0
TEXT
  8
0
 10
-180.264954
 20
116.628723
 40
5.000000
  1
SLIM CYLINDER
 50
0.000000
 41
1.052632
 51
0.000000
  7
STANDARD
  0
TEXT
  8
0
 10
114.336403
 20
-123.628723
 40
5.000000
  1
KOGANEI CORP.
 50
0.000000
 41
1.052632
 51
0.000000
  7
STANDARD
  0
TEXT
  8
0
 10
-157.250641
 20
83.856079
 40
5.000000
  1
MODEL : DAK32X25-HL
 50
0.000000
 41
1.052632
 51
0.000000
  7
STANDARD
  0
POINT
  8
0
 10
-17.699545
 20
39.999996
  0
POINT
  8
0
 10
122.300392
 20
39.999996
  0
LINE
  8
0
 10
-20.911863
 20
58.000000
 11
-20.411863
 21
58.000000
  0
LINE
  8
0
 10
-20.911852
 20
22.000301
 11
-20.411852
 21
22.000301
  0
LINE
  8
0
 10
-28.304155
 20
19.215351
 11
-20.911852
 21
19.215355
  0
LINE
  8
0
 10
-29.911861
 20
57.999981
 11
-29.911854
 21
21.999979
  0
LINE
  8
0
 10
-29.911972
 20
58.000084
 11
-28.304279
 21
60.784695
  0
LINE
  8
0
 10
-29.911888
 20
21.999983
 11
-28.304188
 21
19.215368
  0
LINE
  8
0
 10
-28.304165
 20
50.392284
 11
-20.911861
 21
50.392288
  0
LINE
  8
0
 10
-28.304157
 20
29.607677
 11
-20.911854
 21
29.607681
  0
LINE
  8
0
 10
-28.304167
 20
60.784687
 11
-20.911863
 21
60.784691
  0
LINE
  8
0
 10
-61.699486
 20
44.999973
 11
-37.699516
 21
44.999981
  0
LINE
  8
0
 10
-61.699516
 20
34.999973
 11
-37.699516
 21
34.999981
  0
LINE
  8
0
 10
-61.699516
 20
44.999973
 11
-61.699516
 21
34.999973
  0
LINE
  8
0
 10
-39.699516
 20
44.999977
 11
-39.699516
 21
34.999977
  0
LINE
  8
0
 10
-37.699516
 20
44.999981
 11
-37.699516
 21
34.999981
  0
LINE
  8
0
 10
-36.699486
 20
45.999981
 11
-31.699488
 21
45.999981
  0
LINE
  8
0
 10
-36.699486
 20
33.999981
 11
-31.699484
 21
33.999981
  0
LINE
  8
0
 10
-37.699444
 20
44.999916
 11
-36.699444
 21
45.999916
  0
LINE
  8
0
 10
-37.699417
 20
34.999947
 11
-36.699451
 21
33.999958
  0
LINE
  8
0
 10
-32.699486
 20
43.316612
 11
-32.699486
 21
36.683365
  0
LINE
  8
0
 10
-61.699516
 20
44.999973
 11
-61.699516
 21
34.999973
  0
LINE
  8
0
 10
-31.699490
 20
52.499947
 11
-31.699482
 21
27.499950
  0
LINE
  8
0
 10
-29.911861
 20
53.499981
 11
-29.911854
 21
26.499981
  0
LINE
  8
0
 10
-1.699550
 20
56.799999
 11
69.300484
 21
56.800018
  0
LINE
  8
0
 10
-1.699541
 20
23.199997
 11
69.300499
 21
23.200016
  0
LINE
  8
0
 10
-1.699543
 20
23.200016
 11
-1.699552
 21
56.800011
  0
LINE
  8
0
 10
-1.699541
 20
22.500019
 11
-1.699550
 21
57.500015
  0
LINE
  8
0
 10
-17.699539
 20
22.500021
 11
-17.699549
 21
57.500015
  0
LINE
  8
0
 10
-1.699492
 20
57.500004
 11
-17.699492
 21
57.500000
  0
LINE
  8
0
 10
95.300507
 20
53.500031
 11
121.041832
 21
53.500038
  0
LINE
  8
0
 10
95.300499
 20
26.500031
 11
121.041832
 21
26.500038
  0
LINE
  8
0
 10
122.300499
 20
52.000038
 11
122.300499
 21
28.000034
  0
LINE
  8
0
 10
121.041862
 20
53.500008
 11
122.300499
 21
52.000011
  0
LINE
  8
0
 10
121.041908
 20
26.500021
 11
122.300560
 21
28.000015
  0
LINE
  8
0
 10
121.041832
 20
53.500038
 11
121.041832
 21
52.500038
  0
LINE
  8
0
 10
121.041710
 20
27.500038
 11
121.041710
 21
26.500038
  0
LINE
  8
0
 10
97.300400
 20
53.500031
 11
97.300400
 21
52.500031
  0
LINE
  8
0
 10
97.300507
 20
27.500031
 11
97.300507
 21
26.500031
  0
LINE
  8
0
 10
97.300499
 20
52.500031
 11
121.880943
 21
52.500038
  0
LINE
  8
0
 10
97.300507
 20
27.500031
 11
121.880943
 21
27.500038
  0
LINE
  8
0
 10
95.568420
 20
53.499973
 11
97.300468
 21
52.499977
  0
LINE
  8
0
 10
95.568451
 20
26.500050
 11
97.300522
 21
27.500038
  0
LINE
  8
0
 10
-65.430473
 20
39.999981
 11
126.766823
 21
40.000031
  0
LINE
  8
0
 10
-20.911863
 20
60.784607
 11
-20.911852
 21
19.215376
  0
LINE
  8
0
 10
-20.411863
 20
58.000000
 11
-20.411852
 21
21.999994
  0
LINE
  8
0
 10
95.300499
 20
22.499977
 11
95.300484
 21
57.500038
  0
LINE
  8
0
 10
-36.699486
 20
45.999977
 11
-36.699619
 21
33.999977
  0
LINE
  8
0
 10
-17.699482
 20
26.500099
 11
-20.411854
 21
26.500099
  0
LINE
  8
0
 10
-30.699490
 20
53.500095
 11
-29.911861
 21
53.500095
  0
LINE
  8
0
 10
-19.699482
 20
26.499985
 11
-19.699490
 21
53.499985
  0
LINE
  8
0
 10
-62.699486
 20
35.999973
 11
-39.699516
 21
35.999977
  0
LINE
  8
0
 10
-62.699486
 20
43.999973
 11
-39.699516
 21
43.999977
  0
LINE
  8
0
 10
-61.699440
 20
34.999973
 11
-62.699440
 21
35.999973
  0
LINE
  8
0
 10
-62.699486
 20
35.999973
 11
-62.699486
 21
43.999973
  0
LINE
  8
0
 10
-62.699478
 20
43.999969
 11
-61.699478
 21
44.999969
  0
LINE
  8
0
 10
-36.699516
 20
43.316711
 11
-32.699486
 21
43.316711
  0
LINE
  8
0
 10
-36.699486
 20
36.683464
 11
-32.699486
 21
36.683464
  0
LINE
  8
0
 10
-36.699486
 20
43.316593
 11
-32.699486
 21
36.683357
  0
LINE
  8
0
 10
-32.699520
 20
43.316631
 11
-36.699547
 21
36.683372
  0
LINE
  8
0
 10
95.300499
 20
57.500038
 11
69.300499
 21
57.500031
  0
LINE
  8
0
 10
69.300499
 20
22.499992
 11
69.300484
 21
57.500000
  0
LINE
  8
0
 10
92.800507
 20
52.737747
 11
92.800507
 21
50.645672
  0
LINE
  8
0
 10
92.800507
 20
48.354321
 11
92.800507
 21
31.645641
  0
LINE
  8
0
 10
92.800507
 20
29.354351
 11
92.800507
 21
27.262268
  0
LINE
  8
0
 10
69.300507
 20
52.737740
 11
95.300507
 21
52.737747
  0
LINE
  8
0
 10
69.300499
 20
27.262260
 11
95.300499
 21
27.262268
  0
LINE
  8
0
 10
-30.699505
 20
53.499969
 11
-31.699505
 21
52.499962
  0
LINE
  8
0
 10
-31.699482
 20
27.499950
 11
-30.699486
 21
26.499954
  0
LINE
  8
0
 10
-30.699490
 20
53.499954
 11
-30.699482
 21
26.499950
  0
LINE
  8
0
 10
-29.911854
 20
26.500095
 11
-30.699486
 21
26.500095
  0
LINE
  8
0
 10
-20.411861
 20
53.500099
 11
-17.699490
 21
53.500099
  0
LINE
  8
0
 10
-31.699482
 20
52.500095
 11
-29.911858
 21
52.500095
  0
LINE
  8
0
 10
-20.411858
 20
52.500099
 11
-19.699490
 21
52.500099
  0
LINE
  8
0
 10
-31.699474
 20
27.499798
 11
-29.911850
 21
27.499798
  0
LINE
  8
0
 10
-20.411850
 20
27.499775
 11
-19.699482
 21
27.499775
  0
LINE
  8
0
 10
-9.699537
 20
19.215372
 11
-9.699549
 21
60.784637
  0
LINE
  8
0
 10
81.550499
 20
60.784939
 11
81.550514
 21
19.215326
  0
LINE
  8
0
 10
110.300499
 20
60.785007
 11
110.300499
 21
19.215319
  0
LINE
  8
0
 10
89.385353
 20
48.584896
 11
91.215469
 21
50.415016
  0
LINE
  8
0
 10
89.385574
 20
50.415035
 11
91.215706
 21
48.584911
  0
LINE
  8
0
 10
71.385567
 20
50.415138
 11
73.215691
 21
48.585014
  0
LINE
  8
0
 10
71.385345
 20
48.585007
 11
73.215469
 21
50.415134
  0
LINE
  8
0
 10
71.385567
 20
31.415062
 11
73.215691
 21
29.584944
  0
LINE
  8
0
 10
71.385338
 20
29.584934
 11
73.215469
 21
31.415066
  0
LINE
  8
0
 10
89.385635
 20
31.415108
 11
91.215759
 21
29.584980
  0
LINE
  8
0
 10
89.385406
 20
29.584967
 11
91.215538
 21
31.415092
  0
LINE
  8
0
 10
-1.699480
 20
22.499989
 11
-17.699480
 21
22.499985
  0
LINE
  8
0
 10
95.300514
 20
22.500008
 11
69.300514
 21
22.500000
  0
CIRCLE
  8
0
 10
90.300522
 20
49.499996
 40
2.750000
  0
CIRCLE
  8
0
 10
81.300507
 20
40.000000
 40
1.750000
  0
ARC
  8
0
 10
90.300507
 20
49.500034
 40
3.999998
 50
125.959946
 51
308.682159
  0
ARC
  8
0
 10
72.300507
 20
49.500031
 40
4.000002
 50
221.409317
 51
54.040054
  0
ARC
  8
0
 10
90.300507
 20
30.500034
 40
3.999999
 50
51.317799
 51
234.041412
  0
CIRCLE
  8
0
 10
110.300499
 20
40.000042
 40
5.000000
  0
CIRCLE
  8
0
 10
72.300507
 20
30.499998
 40
2.750000
  0
CIRCLE
  8
0
 10
72.300507
 20
49.500000
 40
2.750000
  0
ARC
  8
0
 10
90.300507
 20
49.499996
 40
3.999998
 50
131.409668
 51
308.682159
  0
ARC
  8
0
 10
72.300507
 20
30.500029
 40
3.999999
 50
305.958588
 51
138.590744
  0
CIRCLE
  8
0
 10
90.300507
 20
30.499996
 40
2.750000
  0
POLYLINE
  8
0
 66
     1
  0
VERTEX
  8
0
 10
-28.304165
 20
50.392284
  0
VERTEX
  8
0
 10
-28.575138
 20
49.474842
  0
VERTEX
  8
0
 10
-28.822598
 20
48.549599
  0
VERTEX
  8
0
 10
-29.046061
 20
47.617329
  0
VERTEX
  8
0
 10
-29.245043
 20
46.678818
  0
VERTEX
  8
0
 10
-29.419062
 20
45.734844
  0
VERTEX
  8
0
 10
-29.567635
 20
44.786186
  0
VERTEX
  8
0
 10
-29.690277
 20
43.833630
  0
VERTEX
  8
0
 10
-29.786507
 20
42.877949
  0
VERTEX
  8
0
 10
-29.855841
 20
41.919926
  0
VERTEX
  8
0
 10
-29.897797
 20
40.960342
  0
VERTEX
  8
0
 10
-29.911888
 20
39.999981
  0
VERTEX
  8
0
 10
-29.897795
 20
39.039619
  0
VERTEX
  8
0
 10
-29.855841
 20
38.080036
  0
VERTEX
  8
0
 10
-29.786505
 20
37.122013
  0
VERTEX
  8
0
 10
-29.690275
 20
36.166332
  0
VERTEX
  8
0
 10
-29.567631
 20
35.213776
  0
VERTEX
  8
0
 10
-29.419058
 20
34.265118
  0
VERTEX
  8
0
 10
-29.245037
 20
33.321144
  0
VERTEX
  8
0
 10
-29.046055
 20
32.382629
  0
VERTEX
  8
0
 10
-28.822592
 20
31.450363
  0
VERTEX
  8
0
 10
-28.575130
 20
30.525118
  0
VERTEX
  8
0
 10
-28.304157
 20
29.607677
  0
SEQEND
  0
POLYLINE
  8
0
 66
     1
  0
VERTEX
  8
0
 10
-28.304167
 20
60.784588
  0
VERTEX
  8
0
 10
-28.754519
 20
59.991245
  0
VERTEX
  8
0
 10
-29.144993
 20
59.158260
  0
VERTEX
  8
0
 10
-29.465778
 20
58.293556
  0
VERTEX
  8
0
 10
-29.707060
 20
57.405064
  0
VERTEX
  8
0
 10
-29.859026
 20
56.500713
  0
VERTEX
  8
0
 10
-29.911861
 20
55.588436
  0
VERTEX
  8
0
 10
-29.859026
 20
54.676159
  0
VERTEX
  8
0
 10
-29.707060
 20
53.771809
  0
VERTEX
  8
0
 10
-29.465776
 20
52.883316
  0
VERTEX
  8
0
 10
-29.144993
 20
52.018612
  0
VERTEX
  8
0
 10
-28.754517
 20
51.185627
  0
VERTEX
  8
0
 10
-28.304165
 20
50.392284
  0
SEQEND
  0
POLYLINE
  8
0
 66
     1
  0
VERTEX
  8
0
 10
-28.304157
 20
29.607677
  0
VERTEX
  8
0
 10
-28.754509
 20
28.814335
  0
VERTEX
  8
0
 10
-29.144985
 20
27.981348
  0
VERTEX
  8
0
 10
-29.465771
 20
27.116644
  0
VERTEX
  8
0
 10
-29.707052
 20
26.228151
  0
VERTEX
  8
0
 10
-29.859018
 20
25.323801
  0
VERTEX
  8
0
 10
-29.911854
 20
24.411522
  0
VERTEX
  8
0
 10
-29.859016
 20
23.499243
  0
VERTEX
  8
0
 10
-29.707050
 20
22.594894
  0
VERTEX
  8
0
 10
-29.465769
 20
21.706406
  0
VERTEX
  8
0
 10
-29.144983
 20
20.841703
  0
VERTEX
  8
0
 10
-28.754507
 20
20.008717
  0
VERTEX
  8
0
 10
-28.304155
 20
19.215376
  0
SEQEND
  0
POINT
  8
0
 10
-114.699493
 20
39.999966
  0
POINT
  8
0
 10
-132.699524
 20
39.999966
  0
LINE
  8
0
 10
-150.699493
 20
50.392292
 11
-150.699493
 21
29.607685
  0
LINE
  8
0
 10
-114.699486
 20
50.392269
 11
-114.699501
 21
29.607662
  0
LINE
  8
0
 10
-150.699509
 20
50.392345
 11
-132.699539
 21
60.784615
  0
LINE
  8
0
 10
-132.699524
 20
19.215391
 11
-114.699547
 21
29.607685
  0
LINE
  8
0
 10
-132.699371
 20
60.784538
 11
-114.699478
 21
50.392281
  0
LINE
  8
0
 10
-150.699493
 20
29.607689
 11
-132.699570
 21
19.215382
  0
LINE
  8
0
 10
-139.699493
 20
44.041431
 11
-139.699493
 21
35.958530
  0
LINE
  8
0
 10
-125.699493
 20
44.041424
 11
-125.699493
 21
35.958523
  0
LINE
  8
0
 10
-139.699509
 20
44.041466
 11
-132.699509
 21
48.082909
  0
LINE
  8
0
 10
-132.699585
 20
31.917156
 11
-125.699600
 21
35.958614
  0
LINE
  8
0
 10
-132.699524
 20
48.082874
 11
-125.699554
 21
44.041431
  0
LINE
  8
0
 10
-139.699524
 20
35.958561
 11
-132.699509
 21
31.917101
  0
LINE
  8
0
 10
-153.375000
 20
39.999989
 11
-108.015045
 21
39.999962
  0
LINE
  8
0
 10
-132.699478
 20
63.874969
 11
-132.699509
 21
8.311558
  0
LINE
  8
0
 10
-118.350395
 20
52.500114
 11
-112.199516
 21
52.500107
  0
LINE
  8
0
 10
-113.399529
 20
27.499821
 11
-113.399521
 21
33.622463
  0
LINE
  8
0
 10
-112.199524
 20
46.377468
 11
-112.199524
 21
33.622463
  0
LINE
  8
0
 10
-110.199516
 20
50.500107
 11
-110.199532
 21
29.499825
  0
LINE
  8
0
 10
-113.399513
 20
52.500111
 11
-113.399521
 21
46.377468
  0
LINE
  8
0
 10
-112.199509
 20
52.500114
 11
-110.199501
 21
50.500114
  0
LINE
  8
0
 10
-114.699524
 20
46.377468
 11
-110.199524
 21
46.377464
  0
LINE
  8
0
 10
-116.199516
 20
52.500111
 11
-116.199516
 21
51.258301
  0
LINE
  8
0
 10
-114.699524
 20
33.622463
 11
-110.199524
 21
33.622459
  0
LINE
  8
0
 10
-112.199478
 20
27.499765
 11
-110.199478
 21
29.499767
  0
LINE
  8
0
 10
-118.350410
 20
27.499823
 11
-112.199532
 21
27.499819
  0
LINE
  8
0
 10
-116.199532
 20
27.499821
 11
-116.199532
 21
28.741631
  0
CIRCLE
  8
0
 10
-132.699493
 20
39.999977
 40
4.000000
  0
CIRCLE
  8
0
 10
-132.699493
 20
39.999977
 40
7.000000
  0
CIRCLE
  8
0
 10
-132.699493
 20
39.999977
 40
12.500000
  0
CIRCLE
  8
0
 10
-132.699493
 20
39.999977
 40
13.500000
  0
CIRCLE
  8
0
 10
-132.699493
 20
39.999977
 40
18.000000
  0
CIRCLE
  8
0
 10
-132.699493
 20
39.999977
 40
5.000000
  0
POINT
  8
0
 10
-17.699598
 20
-51.587551
  0
POINT
  8
0
 10
122.300354
 20
-51.587551
  0
LINE
  8
0
 10
75.423141
 20
-31.087536
 11
87.177925
 21
-31.087534
  0
LINE
  8
0
 10
71.300507
 20
-29.087538
 11
91.300560
 21
-29.087536
  0
LINE
  8
0
 10
69.300484
 20
-31.087530
 11
71.300491
 21
-29.087528
  0
LINE
  8
0
 10
75.423149
 20
-34.087524
 11
75.423149
 21
-29.087542
  0
LINE
  8
0
 10
87.177925
 20
-34.087524
 11
87.177925
 21
-29.087540
  0
LINE
  8
0
 10
93.300644
 20
-31.087469
 11
91.300644
 21
-29.087475
  0
LINE
  8
0
 10
110.300415
 20
-38.587521
 11
110.300415
 21
-64.587524
  0
LINE
  8
0
  6
DASHED
 10
105.300415
 20
-41.587524
 11
105.300415
 21
-61.587524
  0
LINE
  8
0
  6
DASHED
 10
115.300415
 20
-41.587521
 11
115.300415
 21
-61.587521
  0
LINE
  8
0
 10
81.550507
 20
-43.587524
 11
81.550507
 21
-59.587524
  0
LINE
  8
0
 10
95.300415
 20
-69.087524
 11
95.300415
 21
-34.087524
  0
LINE
  8
0
 10
122.300415
 20
-61.587521
 11
122.300415
 21
-41.587521
  0
LINE
  8
0
 10
96.300415
 20
-65.587524
 11
96.300415
 21
-61.587524
  0
LINE
  8
0
 10
95.300415
 20
-65.587524
 11
95.300415
 21
-37.587524
  0
LINE
  8
0
 10
95.300415
 20
-37.587524
 11
96.300415
 21
-37.587524
  0
LINE
  8
0
 10
96.300415
 20
-65.587524
 11
95.300415
 21
-65.587524
  0
LINE
  8
0
 10
-65.699585
 20
-51.587540
 11
127.833252
 21
-51.587521
  0
LINE
  8
0
 10
-9.699578
 20
-43.587536
 11
-9.699576
 21
-59.587536
  0
LINE
  8
0
 10
96.300415
 20
-41.587524
 11
96.300415
 21
-37.587524
  0
LINE
  8
0
 10
96.300415
 20
-41.587524
 11
122.300415
 21
-41.587521
  0
LINE
  8
0
 10
96.300415
 20
-61.587524
 11
122.300415
 21
-61.587521
  0
LINE
  8
0
 10
69.300491
 20
-69.087532
 11
69.300491
 21
-31.087542
  0
LINE
  8
0
 10
-31.699581
 20
-64.087555
 11
-31.699581
 21
-39.087524
  0
LINE
  8
0
 10
-17.699579
 20
-69.087524
 11
-17.699583
 21
-34.087521
  0
LINE
  8
0
 10
-17.699579
 20
-69.087524
 11
-1.699579
 21
-69.087524
  0
LINE
  8
0
 10
-39.699581
 20
-56.587570
 11
-39.699581
 21
-46.587524
  0
LINE
  8
0
 10
-19.699583
 20
-38.087521
 11
-19.699579
 21
-65.087555
  0
LINE
  8
0
 10
-62.699585
 20
-47.587524
 11
-62.699585
 21
-55.587555
  0
LINE
  8
0
 10
-62.699425
 20
-47.587761
 11
-61.699425
 21
-46.587753
  0
LINE
  8
0
 10
-61.699585
 20
-46.587524
 11
-61.699585
 21
-56.587570
  0
LINE
  8
0
 10
-62.699585
 20
-47.587524
 11
-39.699581
 21
-47.587524
  0
LINE
  8
0
 10
-31.699581
 20
-46.587505
 11
-61.699585
 21
-46.587509
  0
LINE
  8
0
 10
-1.699579
 20
-69.087524
 11
-1.699583
 21
-34.087547
  0
LINE
  8
0
 10
95.300415
 20
-69.087524
 11
69.300491
 21
-69.087532
  0
LINE
  8
0
 10
-1.699579
 20
-68.387527
 11
69.300491
 21
-68.387520
  0
LINE
  8
0
 10
-31.699581
 20
-39.087524
 11
-29.911953
 21
-39.087521
  0
LINE
  8
0
 10
-17.699583
 20
-38.087521
 11
-20.411955
 21
-38.087521
  0
LINE
  8
0
 10
-31.699608
 20
-39.087509
 11
-30.699633
 21
-38.087509
  0
LINE
  8
0
 10
-30.699598
 20
-38.087521
 11
-30.699594
 21
-65.087555
  0
LINE
  8
0
 10
-61.699600
 20
-56.587509
 11
-62.699593
 21
-55.587513
  0
LINE
  8
0
 10
-39.699581
 20
-55.587555
 11
-62.699585
 21
-55.587555
  0
LINE
  8
0
 10
-61.699585
 20
-56.587570
 11
-31.699581
 21
-56.587566
  0
LINE
  8
0
 10
-19.699579
 20
-64.087555
 11
-20.411951
 21
-64.087555
  0
LINE
  8
0
 10
-30.699594
 20
-65.087555
 11
-29.911951
 21
-65.087555
  0
LINE
  8
0
 10
-30.699589
 20
-65.087532
 11
-31.699589
 21
-64.087532
  0
LINE
  8
0
 10
69.300491
 20
-32.287537
 11
75.423149
 21
-32.287537
  0
LINE
  8
0
 10
93.300507
 20
-32.287533
 11
87.177925
 21
-32.287533
  0
LINE
  8
0
 10
-20.911955
 20
-30.802929
 11
-20.911951
 21
-72.372147
  0
LINE
  8
0
 10
-20.411955
 20
-30.802929
 11
-20.411951
 21
-72.372147
  0
LINE
  8
0
 10
-28.304258
 20
-30.802931
 11
-20.411955
 21
-30.802929
  0
LINE
  8
0
 10
-29.911924
 20
-33.587502
 11
-28.304222
 21
-30.802893
  0
LINE
  8
0
 10
-29.911955
 20
-33.587540
 11
-29.911951
 21
-69.587540
  0
LINE
  8
0
 10
-29.911926
 20
-69.587524
 11
-28.304235
 21
-72.372116
  0
LINE
  8
0
 10
-28.304255
 20
-72.372147
 11
-20.411951
 21
-72.372147
  0
LINE
  8
0
 10
-29.911955
 20
-38.087521
 11
-30.699598
 21
-38.087521
  0
LINE
  8
0
 10
-20.411955
 20
-39.087521
 11
-19.699583
 21
-39.087521
  0
LINE
  8
0
 10
-29.911953
 20
-64.087555
 11
-31.699581
 21
-64.087555
  0
LINE
  8
0
 10
-20.411951
 20
-65.087555
 11
-17.699579
 21
-65.087555
  0
LINE
  8
0
 10
93.300507
 20
-34.087524
 11
93.300507
 21
-31.087540
  0
LINE
  8
0
 10
-17.699583
 20
-34.087547
 11
-1.699583
 21
-34.087547
  0
LINE
  8
0
 10
-1.699583
 20
-34.787544
 11
69.300491
 21
-34.787537
  0
LINE
  8
0
 10
95.300415
 20
-34.087521
 11
69.300491
 21
-34.087524
  0
ARC
  8
0
 10
4.479326
 20
-41.195076
 40
34.391281
 50
162.411804
 51
197.588196
  0
ARC
  8
0
 10
4.479330
 20
-61.979378
 40
34.391285
 50
162.411743
 51
197.588135
  0
CIRCLE
  8
0
 10
81.550507
 20
-51.587524
 40
4.000000
  0
CIRCLE
  8
0
 10
81.550507
 20
-51.587524
 40
5.000000
  0
CIRCLE
  8
0
 10
-9.699577
 20
-51.587536
 40
4.000000
  0
CIRCLE
  8
0
 10
-9.699577
 20
-51.587536
 40
5.000000
  0
ENDSEC
  0
EOF
