  0
SECTION
  2
HEADER
  0
ENDSEC
  0
SECTION
  2
TABLES
  0
TABLE
  2
LTYPE
 70
     4
  0
LTYPE
  2
CONTINUOUS
 70
    64
  3
Solid line
 72
    65
 73
     0
 40
0.000000
  0
LTYPE
  2
DASHED
 70
    64
  3
__ __ __ __ __ __ __ __ __ __ __ __ __ __ __
 72
    65
 73
     2
 40
3.500000
 49
2.000000
 49
-1.500000
  0
LTYPE
  2
CENTER
 70
    64
  3
____ _ ____ _ ____ _ ____ _ ____ _ ____ _ ____
 72
    65
 73
     4
 40
17.500000
 49
13.000000
 49
-1.500000
 49
1.500000
 49
-1.500000
  0
LTYPE
  2
PHANTOM
 70
    64
  3
_____ _ _ _____ _ _ _____ _ _ _____ _ _ ____  
 72
    65
 73
     6
 40
15.500000
 49
8.000000
 49
-1.500000
 49
1.500000
 49
-1.500000
 49
1.500000
 49
-1.500000
  0
LTYPE
  2
DASHED1
 70
    64
  3
__ __ __ __ __ __ __ __ __ __ __ __ __ __ __
 72
    65
 73
     2
 40
1.500000
 49
1.000000
 49
-0.500000
  0
LTYPE
  2
DASHED2
 70
    64
  3
__ __ __ __ __ __ __ __ __ __ __ __ __ __ __
 72
    65
 73
     2
 40
3.500000
 49
2.500000
 49
-1.000000
  0
LTYPE
  2
DASHED3
 70
    64
  3
__ __ __ __ __ __ __ __ __ __ __ __ __ __ __
 72
    65
 73
     2
 40
6.000000
 49
4.000000
 49
-2.000000
  0
LTYPE
  2
DASHED4
 70
    64
  3
__ __ __ __ __ __ __ __ __ __ __ __ __ __ __
 72
    65
 73
     2
 40
12.000000
 49
10.000000
 49
-2.000000
  0
LTYPE
  2
DASHED5
 70
    64
  3
__ __ __ __ __ __ __ __ __ __ __ __ __ __ __
 72
    65
 73
     2
 40
17.000000
 49
15.000000
 49
-2.000000
  0
LTYPE
  2
DASHED6
 70
    64
  3
__ __ __ __ __ __ __ __ __ __ __ __ __ __ __
 72
    65
 73
     2
 40
29.000000
 49
27.000000
 49
-2.000000
  0
LTYPE
  2
PHANTOM1
 70
    64
  3
_____ _ _ _____ _ _ _____ _ _ _____ _ _ ____  
 72
    65
 73
     6
 40
31.000000
 49
25.000000
 49
-1.500000
 49
1.000000
 49
-1.000000
 49
1.000000
 49
-1.500000
  0
LTYPE
  2
PHANTOM2
 70
    64
  3
_____ _ _ _____ _ _ _____ _ _ _____ _ _ ____  
 72
    65
 73
     6
 40
36.000000
 49
27.000000
 49
-1.500000
 49
2.500000
 49
-1.000000
 49
2.500000
 49
-1.500000
  0
LTYPE
  2
PHANTOM3
 70
    64
  3
_____ _ _ _____ _ _ _____ _ _ _____ _ _ ____  
 72
    65
 73
     6
 40
78.000000
 49
64.000000
 49
-2.000000
 49
4.000000
 49
-2.000000
 49
4.000000
 49
-2.000000
  0
LTYPE
  2
CENTER1
 70
    64
  3
____ _ ____ _ ____ _ ____ _ ____ _ ____ _ ____
 72
    65
 73
     4
 40
19.000000
 49
14.000000
 49
-1.000000
 49
3.000000
 49
-1.000000
  0
LTYPE
  2
CENTER2
 70
    64
  3
____ _ ____ _ ____ _ ____ _ ____ _ ____ _ ____
 72
    65
 73
     4
 40
28.500000
 49
25.000000
 49
-1.000000
 49
1.500000
 49
-1.000000
  0
LTYPE
  2
CENTER3
 70
    64
  3
____ _ ____ _ ____ _ ____ _ ____ _ ____ _ ____
 72
    65
 73
     4
 40
31.500000
 49
27.000000
 49
-1.000000
 49
2.500000
 49
-1.000000
  0
LTYPE
  2
CENTER4
 70
    64
  3
____ _ ____ _ ____ _ ____ _ ____ _ ____ _ ____
 72
    65
 73
     4
 40
50.000000
 49
45.000000
 49
-1.000000
 49
3.000000
 49
-1.000000
  0
LTYPE
  2
CENTER5
 70
    64
  3
____ _ ____ _ ____ _ ____ _ ____ _ ____ _ ____
 72
    65
 73
     4
 40
100.000000
 49
92.000000
 49
-2.000000
 49
4.000000
 49
-2.000000
  0
LTYPE
  2
SBK1
 70
    64
  3
______ _ _ _ ______ _ _ _ ______ _ _ _ _____  
 72
    65
 73
     8
 40
60.500000
 49
45.000000
 49
-2.000000
 49
2.500000
 49
-2.000000
 49
2.500000
 49
-2.000000
 49
2.500000
 49
-2.000000
  0
LTYPE
  2
SBK2
 70
    64
  3
______ _ _ _ ______ _ _ _ ______ _ _ _ _____  
 72
    65
 73
     8
 40
84.000000
 49
64.000000
 49
-2.000000
 49
4.000000
 49
-2.000000
 49
4.000000
 49
-2.000000
 49
4.000000
 49
-2.000000
  0
LTYPE
  2
STCH
 70
    64
  3
__ __ __ __ __ __ __ __ __ __ __ __ __ __ __
 72
    65
 73
     2
 40
3.000000
 49
1.000000
 49
-2.000000
  0
LTYPE
  2
MTCH
 70
    64
  3
_____ _ _ _____ _ _ _____ _ _ _____ _ _ ____  
 72
    65
 73
     6
 40
80.000000
 49
66.000000
 49
-2.000000
 49
4.000000
 49
-2.000000
 49
4.000000
 49
-2.000000
  0
ENDTAB
  0
TABLE
  2
LAYER
 70
     1
  0
LAYER
  2
0
 70
     0
 62
     7
  6
CONTINUOUS
  0
ENDTAB
  0
TABLE
  2
STYLE
 70
     1
  0
STYLE
  2
STANDARD
 70
     0
 40
0.000000
 41
1.000000
 50
0.000000
 71
     0
 42
0.200000
  3
txt
  4
BIGFONT
  0
ENDTAB
  0
TABLE
  2
VIEW
 70
     0
  0
ENDTAB
  0
ENDSEC
  0
SECTION
  2
BLOCKS
  0
ENDSEC
  0
SECTION
  2
ENTITIES
  0
LINE
  8
0
 10
-185.436783
 20
-127.279236
 11
-185.436783
 21
127.279236
  0
LINE
  8
0
 10
185.436783
 20
127.279236
 11
185.436783
 21
-127.279236
  0
LINE
  8
0
 10
-185.436783
 20
-127.279236
 11
185.436783
 21
-127.279236
  0
LINE
  8
0
 10
-185.436783
 20
127.279236
 11
185.436783
 21
127.279236
  0
LINE
  8
0
 10
-185.436783
 20
112.978195
 11
-109.164589
 21
112.978195
  0
LINE
  8
0
 10
-109.164589
 20
112.978195
 11
-109.164589
 21
127.279236
  0
LINE
  8
0
 10
109.164581
 20
-112.978210
 11
185.436783
 21
-112.978210
  0
LINE
  8
0
 10
109.164581
 20
112.978195
 11
185.436783
 21
112.978195
  0
LINE
  8
0
 10
109.164581
 20
127.279236
 11
109.164581
 21
112.978195
  0
LINE
  8
0
 10
109.164581
 20
-112.978210
 11
109.164581
 21
-127.279236
  0
TEXT
  8
0
 10
113.360985
 20
117.310349
 40
4.242641
  1
DATE : AUG ,1992
 50
0.000000
 41
1.052631
 51
0.000000
  7
STANDARD
  0
TEXT
  8
0
 10
-180.264954
 20
116.628723
 40
5.000000
  1
SLIM CYLINDER
 50
0.000000
 41
1.052632
 51
0.000000
  7
STANDARD
  0
TEXT
  8
0
 10
114.336403
 20
-123.628723
 40
5.000000
  1
KOGANEI CORP.
 50
0.000000
 41
1.052632
 51
0.000000
  7
STANDARD
  0
TEXT
  8
0
 10
-158.164597
 20
88.087540
 40
5.000000
  1
MODEL : DAK40X25-RL
 50
0.000000
 41
1.052632
 51
0.000000
  7
STANDARD
  0
POINT
  8
0
 10
-10.800006
 20
43.500008
  0
POINT
  8
0
 10
134.199997
 20
43.500008
  0
LINE
  8
0
 10
-54.799988
 20
50.499996
 11
-30.799988
 21
50.500000
  0
LINE
  8
0
 10
-54.799988
 20
36.499996
 11
-30.799988
 21
36.500000
  0
LINE
  8
0
 10
-32.799988
 20
50.500000
 11
-32.799988
 21
36.500000
  0
LINE
  8
0
 10
-30.799988
 20
36.500000
 11
-30.799988
 21
50.500000
  0
LINE
  8
0
 10
-30.799911
 20
50.499947
 11
-29.799915
 21
51.499947
  0
LINE
  8
0
 10
-30.799988
 20
36.500004
 11
-29.799969
 21
35.499992
  0
LINE
  8
0
 10
-29.799988
 20
35.500000
 11
-29.799988
 21
51.500000
  0
LINE
  8
0
 10
-25.799988
 20
39.627014
 11
-25.799988
 21
47.372982
  0
LINE
  8
0
 10
-29.799988
 20
47.372982
 11
-25.799988
 21
47.372982
  0
LINE
  8
0
 10
-29.799988
 20
39.627014
 11
-25.799988
 21
39.627014
  0
LINE
  8
0
 10
-29.800003
 20
47.372944
 11
-25.799980
 21
39.627010
  0
LINE
  8
0
 10
-25.799980
 20
47.372982
 11
-29.799984
 21
39.627010
  0
LINE
  8
0
 10
-29.799988
 20
51.500000
 11
-24.799988
 21
51.500000
  0
LINE
  8
0
 10
-29.799988
 20
35.500000
 11
-24.799988
 21
35.500000
  0
LINE
  8
0
 10
-10.800005
 20
64.300003
 11
-10.800001
 21
22.700001
  0
LINE
  8
0
 10
-24.799988
 20
58.500000
 11
-24.799988
 21
28.500000
  0
LINE
  8
0
 10
-21.468992
 20
19.828644
 11
-14.300001
 21
19.828644
  0
LINE
  8
0
 10
-23.299990
 20
64.000000
 11
-23.299986
 21
22.999998
  0
LINE
  8
0
 10
-23.299988
 20
63.999977
 11
-21.468996
 21
67.171333
  0
LINE
  8
0
 10
-23.299984
 20
23.000000
 11
-21.468988
 21
19.828648
  0
LINE
  8
0
 10
-14.300001
 20
23.000000
 11
-13.800001
 21
23.000000
  0
LINE
  8
0
 10
-13.800005
 20
64.000000
 11
-13.800001
 21
23.000000
  0
LINE
  8
0
 10
-14.300005
 20
67.171356
 11
-14.300001
 21
19.828644
  0
LINE
  8
0
 10
-14.300005
 20
64.000000
 11
-13.800005
 21
64.000000
  0
LINE
  8
0
 10
-21.468996
 20
67.171356
 11
-14.300005
 21
67.171356
  0
LINE
  8
0
 10
-21.468994
 20
31.664318
 11
-14.300002
 21
31.664318
  0
LINE
  8
0
 10
-21.468994
 20
55.335678
 11
-14.300004
 21
55.335678
  0
LINE
  8
0
 10
-23.541351
 20
60.000000
 11
-23.299988
 21
60.000000
  0
LINE
  8
0
 10
-23.541351
 20
26.999998
 11
-23.299988
 21
26.999998
  0
LINE
  8
0
 10
-13.800004
 20
60.000000
 11
-10.800004
 21
60.000000
  0
LINE
  8
0
 10
-13.800002
 20
27.000000
 11
-10.800002
 21
27.000000
  0
LINE
  8
0
 10
-24.800030
 20
58.500038
 11
-23.541424
 21
60.000034
  0
LINE
  8
0
 10
-24.800003
 20
28.500008
 11
-23.541367
 21
27.000000
  0
LINE
  8
0
 10
-12.800004
 20
60.000000
 11
-12.800002
 21
27.000000
  0
LINE
  8
0
 10
-24.380432
 20
28.000000
 11
-23.299988
 21
28.000000
  0
LINE
  8
0
 10
-24.380463
 20
59.000000
 11
-23.299988
 21
59.000000
  0
LINE
  8
0
 10
-13.800002
 20
28.000000
 11
-12.800002
 21
28.000000
  0
LINE
  8
0
 10
-13.800004
 20
59.000000
 11
-12.800004
 21
59.000000
  0
LINE
  8
0
 10
-10.800005
 20
64.300003
 11
107.199997
 21
64.300011
  0
LINE
  8
0
 10
134.199997
 20
58.500011
 11
134.199997
 21
28.500011
  0
LINE
  8
0
 10
132.412262
 20
59.999943
 11
134.199875
 21
58.499943
  0
LINE
  8
0
 10
132.412460
 20
26.999977
 11
134.200119
 21
28.499969
  0
LINE
  8
0
 10
107.199997
 20
60.000008
 11
132.412369
 21
60.000011
  0
LINE
  8
0
 10
107.199997
 20
27.000010
 11
132.412369
 21
27.000011
  0
LINE
  8
0
 10
132.412369
 20
27.000011
 11
132.412369
 21
28.000011
  0
LINE
  8
0
 10
132.412369
 20
59.000011
 11
132.412369
 21
60.000011
  0
LINE
  8
0
 10
107.199997
 20
60.000008
 11
132.412369
 21
60.000011
  0
LINE
  8
0
 10
109.199997
 20
59.000008
 11
133.604111
 21
59.000011
  0
LINE
  8
0
 10
109.199997
 20
28.000010
 11
133.604111
 21
28.000011
  0
LINE
  8
0
 10
109.199997
 20
60.000008
 11
109.199997
 21
59.000008
  0
LINE
  8
0
 10
109.199997
 20
28.000010
 11
109.199997
 21
27.000010
  0
LINE
  8
0
 10
107.199997
 20
64.300011
 11
107.199997
 21
22.700006
  0
LINE
  8
0
 10
109.199989
 20
58.999985
 11
107.467941
 21
59.999992
  0
LINE
  8
0
 10
109.199959
 20
28.000031
 11
107.467911
 21
27.000027
  0
LINE
  8
0
 10
107.199997
 20
64.300011
 11
107.199997
 21
22.700006
  0
LINE
  8
0
 10
107.199997
 20
22.700006
 11
-10.800001
 21
22.699997
  0
LINE
  8
0
 10
-57.800003
 20
43.499996
 11
140.844376
 21
43.500011
  0
LINE
  8
0
 10
122.199997
 20
65.000015
 11
122.199997
 21
22.000011
  0
LINE
  8
0
 10
99.199997
 20
19.828653
 11
99.199997
 21
67.171364
  0
LINE
  8
0
 10
-55.799988
 20
49.499996
 11
-32.799988
 21
49.500000
  0
LINE
  8
0
 10
-55.799988
 20
37.499996
 11
-32.799988
 21
37.500000
  0
LINE
  8
0
 10
-54.799988
 20
50.499996
 11
-54.799988
 21
36.499996
  0
LINE
  8
0
 10
-54.799976
 20
50.499981
 11
-55.799980
 21
49.499977
  0
LINE
  8
0
 10
-55.799988
 20
49.499996
 11
-55.799988
 21
37.499996
  0
LINE
  8
0
 10
-55.799995
 20
37.499985
 11
-54.799980
 21
36.499977
  0
LINE
  8
0
 10
5.199996
 20
67.171356
 11
5.200000
 21
19.828646
  0
LINE
  8
0
 10
20.199997
 20
64.300003
 11
20.200001
 21
22.699999
  0
LINE
  8
0
 10
17.199997
 20
59.062775
 11
17.200001
 21
27.937227
  0
LINE
  8
0
 10
-6.800004
 20
59.062775
 11
-6.800002
 21
27.937225
  0
LINE
  8
0
 10
-6.800004
 20
59.062775
 11
17.199997
 21
59.062775
  0
LINE
  8
0
 10
-6.800002
 20
27.937225
 11
17.200001
 21
27.937227
  0
LINE
  8
0
 10
-6.800004
 20
56.000000
 11
17.199997
 21
56.000000
  0
LINE
  8
0
 10
-6.800002
 20
31.000000
 11
17.200001
 21
31.000002
  0
LINE
  8
0
 10
13.284820
 20
52.084869
 11
15.114951
 21
53.915001
  0
LINE
  8
0
 10
13.285048
 20
53.915001
 11
15.115180
 21
52.084869
  0
LINE
  8
0
 10
-4.714959
 20
53.915108
 11
-2.884830
 21
52.084984
  0
LINE
  8
0
 10
-4.715174
 20
52.084984
 11
-2.885043
 21
53.915115
  0
LINE
  8
0
 10
-4.714957
 20
34.915039
 11
-2.884828
 21
33.084911
  0
LINE
  8
0
 10
-4.715178
 20
33.084915
 11
-2.885047
 21
34.915047
  0
LINE
  8
0
 10
13.285108
 20
34.915070
 11
15.115235
 21
33.084942
  0
LINE
  8
0
 10
13.284883
 20
33.084946
 11
15.115016
 21
34.915077
  0
LINE
  8
0
 10
92.199997
 20
64.300011
 11
92.199997
 21
22.700005
  0
ARC
  8
0
 10
-3.800004
 20
53.000000
 40
4.000000
 50
221.409637
 51
48.590370
  0
CIRCLE
  8
0
 10
122.199997
 20
43.500011
 40
5.000000
  0
CIRCLE
  8
0
 10
5.199998
 20
43.500000
 40
1.750000
  0
CIRCLE
  8
0
 10
-3.800004
 20
52.999969
 40
2.750000
  0
CIRCLE
  8
0
 10
14.199998
 20
33.999962
 40
2.750000
  0
CIRCLE
  8
0
 10
14.200013
 20
52.999962
 40
2.750000
  0
CIRCLE
  8
0
 10
-3.800002
 20
33.999969
 40
2.750000
  0
ARC
  8
0
 10
14.199998
 20
52.999962
 40
4.000002
 50
131.409653
 51
318.590454
  0
ARC
  8
0
 10
-3.800002
 20
34.000000
 40
4.000000
 50
311.409607
 51
138.590378
  0
ARC
  8
0
 10
14.199998
 20
34.000000
 40
4.000002
 50
41.409679
 51
228.590332
  0
ARC
  8
0
 10
14.199998
 20
53.000000
 40
4.000002
 50
131.409653
 51
308.682190
  0
POLYLINE
  8
0
 66
     1
  0
VERTEX
  8
0
 10
-21.468994
 20
31.664318
  0
VERTEX
  8
0
 10
-21.912539
 20
30.892841
  0
VERTEX
  8
0
 10
-22.307156
 20
30.087242
  0
VERTEX
  8
0
 10
-22.645807
 20
29.253210
  0
VERTEX
  8
0
 10
-22.921453
 20
28.396431
  0
VERTEX
  8
0
 10
-23.127058
 20
27.522591
  0
VERTEX
  8
0
 10
-23.255583
 20
26.637377
  0
VERTEX
  8
0
 10
-23.299988
 20
25.746477
  0
VERTEX
  8
0
 10
-23.255583
 20
24.855577
  0
VERTEX
  8
0
 10
-23.127058
 20
23.970366
  0
VERTEX
  8
0
 10
-22.921452
 20
23.096527
  0
VERTEX
  8
0
 10
-22.645805
 20
22.239748
  0
VERTEX
  8
0
 10
-22.307154
 20
21.405718
  0
VERTEX
  8
0
 10
-21.912537
 20
20.600121
  0
VERTEX
  8
0
 10
-21.468992
 20
19.828644
  0
SEQEND
  0
POLYLINE
  8
0
 66
     1
  0
VERTEX
  8
0
 10
-21.468994
 20
55.335678
  0
VERTEX
  8
0
 10
-21.752901
 20
54.378239
  0
VERTEX
  8
0
 10
-22.014341
 20
53.413269
  0
VERTEX
  8
0
 10
-22.252895
 20
52.441452
  0
VERTEX
  8
0
 10
-22.468136
 20
51.463474
  0
VERTEX
  8
0
 10
-22.659641
 20
50.480022
  0
VERTEX
  8
0
 10
-22.826986
 20
49.491776
  0
VERTEX
  8
0
 10
-22.969749
 20
48.499420
  0
VERTEX
  8
0
 10
-23.087505
 20
47.503647
  0
VERTEX
  8
0
 10
-23.179831
 20
46.505131
  0
VERTEX
  8
0
 10
-23.246302
 20
45.504562
  0
VERTEX
  8
0
 10
-23.286495
 20
44.502625
  0
VERTEX
  8
0
 10
-23.299988
 20
43.500000
  0
VERTEX
  8
0
 10
-23.286495
 20
42.497375
  0
VERTEX
  8
0
 10
-23.246302
 20
41.495438
  0
VERTEX
  8
0
 10
-23.179831
 20
40.494869
  0
VERTEX
  8
0
 10
-23.087505
 20
39.496353
  0
VERTEX
  8
0
 10
-22.969749
 20
38.500576
  0
VERTEX
  8
0
 10
-22.826986
 20
37.508221
  0
VERTEX
  8
0
 10
-22.659641
 20
36.519974
  0
VERTEX
  8
0
 10
-22.468136
 20
35.536522
  0
VERTEX
  8
0
 10
-22.252895
 20
34.558544
  0
VERTEX
  8
0
 10
-22.014341
 20
33.586727
  0
VERTEX
  8
0
 10
-21.752901
 20
32.621758
  0
VERTEX
  8
0
 10
-21.468994
 20
31.664318
  0
SEQEND
  0
POLYLINE
  8
0
 66
     1
  0
VERTEX
  8
0
 10
-21.468996
 20
67.171356
  0
VERTEX
  8
0
 10
-21.912540
 20
66.399879
  0
VERTEX
  8
0
 10
-22.307156
 20
65.594284
  0
VERTEX
  8
0
 10
-22.645807
 20
64.760254
  0
VERTEX
  8
0
 10
-22.921453
 20
63.903473
  0
VERTEX
  8
0
 10
-23.127058
 20
63.029636
  0
VERTEX
  8
0
 10
-23.255583
 20
62.144424
  0
VERTEX
  8
0
 10
-23.299988
 20
61.253525
  0
VERTEX
  8
0
 10
-23.255583
 20
60.362625
  0
VERTEX
  8
0
 10
-23.127058
 20
59.477409
  0
VERTEX
  8
0
 10
-22.921453
 20
58.603569
  0
VERTEX
  8
0
 10
-22.645805
 20
57.746788
  0
VERTEX
  8
0
 10
-22.307156
 20
56.912754
  0
VERTEX
  8
0
 10
-21.912539
 20
56.107155
  0
VERTEX
  8
0
 10
-21.468994
 20
55.335678
  0
SEQEND
  0
POINT
  8
0
 10
-106.800003
 20
43.499992
  0
POINT
  8
0
 10
-127.300003
 20
43.499992
  0
LINE
  8
0
 10
-147.800003
 20
55.335693
 11
-147.800003
 21
31.664330
  0
LINE
  8
0
 10
-147.799866
 20
55.335621
 11
-127.299919
 21
67.171265
  0
LINE
  8
0
 10
-127.299995
 20
19.828640
 11
-106.799995
 21
31.664291
  0
LINE
  8
0
 10
-127.300011
 20
67.171356
 11
-106.800011
 21
55.335663
  0
LINE
  8
0
 10
-147.799927
 20
31.664314
 11
-127.300026
 21
19.828638
  0
LINE
  8
0
 10
-136.800003
 20
48.984829
 11
-136.800003
 21
38.015179
  0
LINE
  8
0
 10
-117.800003
 20
48.984825
 11
-117.800003
 21
38.015171
  0
LINE
  8
0
 10
-136.799988
 20
48.984825
 11
-127.299995
 21
54.469643
  0
LINE
  8
0
 10
-127.300003
 20
32.530334
 11
-117.800003
 21
38.015156
  0
LINE
  8
0
 10
-127.299973
 20
54.469666
 11
-117.799973
 21
48.984829
  0
LINE
  8
0
 10
-136.800003
 20
38.015182
 11
-127.300011
 21
32.530342
  0
LINE
  8
0
 10
-152.399994
 20
43.500015
 11
-98.800003
 21
43.499985
  0
LINE
  8
0
 10
-127.299988
 20
69.500000
 11
-127.300026
 21
7.632942
  0
LINE
  8
0
 10
-107.517632
 20
55.749989
 11
-107.460884
 21
55.749989
  0
LINE
  8
0
 10
-107.517632
 20
31.249989
 11
-107.460899
 21
31.249989
  0
LINE
  8
0
 10
-106.799995
 20
55.335670
 11
-106.800011
 21
31.664307
  0
LINE
  8
0
 10
-102.599998
 20
54.000137
 11
-102.600014
 21
32.999802
  0
LINE
  8
0
 10
-104.600006
 20
49.877491
 11
-104.600006
 21
37.122486
  0
LINE
  8
0
 10
-107.950905
 20
56.000134
 11
-104.599998
 21
56.000134
  0
LINE
  8
0
 10
-105.799995
 20
56.000134
 11
-105.800003
 21
49.877491
  0
LINE
  8
0
 10
-104.599998
 20
56.000145
 11
-102.599998
 21
54.000141
  0
LINE
  8
0
 10
-106.800003
 20
49.877491
 11
-102.600006
 21
49.877487
  0
LINE
  8
0
 10
-106.800003
 20
37.122486
 11
-102.600006
 21
37.122482
  0
LINE
  8
0
 10
-104.599945
 20
30.999781
 11
-102.599945
 21
32.999783
  0
LINE
  8
0
 10
-107.950874
 20
30.999844
 11
-104.600014
 21
30.999844
  0
LINE
  8
0
 10
-105.800011
 20
30.999844
 11
-105.800003
 21
37.122486
  0
CIRCLE
  8
0
 10
-127.300003
 20
43.500000
 40
7.000000
  0
CIRCLE
  8
0
 10
-127.300003
 20
43.500000
 40
6.000000
  0
CIRCLE
  8
0
 10
-127.300003
 20
43.500000
 40
20.500000
  0
CIRCLE
  8
0
 10
-127.300003
 20
43.500000
 40
16.500000
  0
CIRCLE
  8
0
 10
-127.300003
 20
43.500000
 40
15.500000
  0
CIRCLE
  8
0
 10
-127.300003
 20
43.500000
 40
9.500000
  0
POINT
  8
0
 10
-10.800011
 20
-54.333324
  0
POINT
  8
0
 10
134.200012
 20
-54.333324
  0
LINE
  8
0
 10
-0.677506
 20
-30.833330
 11
11.077499
 21
-30.833330
  0
LINE
  8
0
 10
-6.800148
 20
-33.533329
 11
-6.800149
 21
-30.833332
  0
LINE
  8
0
 10
-6.800148
 20
-32.033325
 11
-0.677505
 21
-32.033325
  0
LINE
  8
0
 10
-6.800158
 20
-30.833326
 11
-4.800155
 21
-28.833324
  0
LINE
  8
0
 10
-0.677505
 20
-33.533329
 11
-0.677505
 21
-28.833332
  0
LINE
  8
0
 10
11.077501
 20
-33.533329
 11
11.077501
 21
-28.833332
  0
LINE
  8
0
 10
17.200203
 20
-30.833265
 11
15.200201
 21
-28.833267
  0
LINE
  8
0
 10
17.200144
 20
-33.533329
 11
17.200144
 21
-30.833332
  0
LINE
  8
0
 10
17.200144
 20
-32.033325
 11
11.077501
 21
-32.033325
  0
LINE
  8
0
 10
-4.800156
 20
-28.833330
 11
15.200184
 21
-28.833330
  0
LINE
  8
0
 10
5.199993
 20
-46.333332
 11
5.199993
 21
-62.333332
  0
LINE
  8
0
 10
99.199997
 20
-46.333328
 11
99.199997
 21
-62.333328
  0
LINE
  8
0
 10
108.199997
 20
-44.333328
 11
134.199982
 21
-44.333328
  0
LINE
  8
0
 10
108.199997
 20
-64.333328
 11
134.199982
 21
-64.333328
  0
LINE
  8
0
  6
DASHED
 10
117.199989
 20
-44.333328
 11
117.199989
 21
-64.333328
  0
LINE
  8
0
  6
DASHED
 10
127.199989
 20
-44.333328
 11
127.199989
 21
-64.333328
  0
LINE
  8
0
 10
122.199989
 20
-40.333328
 11
122.199989
 21
-68.333344
  0
LINE
  8
0
 10
107.199997
 20
-75.133316
 11
107.199997
 21
-36.833328
  0
LINE
  8
0
 10
108.199997
 20
-70.833328
 11
108.199997
 21
-64.333328
  0
LINE
  8
0
 10
107.199997
 20
-68.333328
 11
107.199997
 21
-33.533340
  0
LINE
  8
0
 10
-58.800003
 20
-54.333332
 11
145.199982
 21
-54.333328
  0
LINE
  8
0
 10
108.199997
 20
-44.333328
 11
108.199997
 21
-37.833328
  0
LINE
  8
0
 10
-24.800007
 20
-69.833313
 11
-24.800007
 21
-38.833347
  0
LINE
  8
0
 10
-10.800006
 20
-75.133331
 11
-10.800008
 21
-33.533329
  0
LINE
  8
0
 10
20.199993
 20
-33.533329
 11
20.199993
 21
-75.133331
  0
LINE
  8
0
 10
-10.800008
 20
-33.533329
 11
107.199997
 21
-33.533325
  0
LINE
  8
0
 10
-32.800007
 20
-61.333347
 11
-32.800007
 21
-47.333332
  0
LINE
  8
0
 10
-12.800007
 20
-37.833347
 11
-12.800007
 21
-70.833313
  0
LINE
  8
0
 10
-55.800003
 20
-48.333332
 11
-55.800003
 21
-60.333332
  0
LINE
  8
0
 10
-55.799900
 20
-48.333496
 11
-54.799919
 21
-47.333492
  0
LINE
  8
0
 10
-54.800003
 20
-47.333332
 11
-54.800003
 21
-61.333347
  0
LINE
  8
0
 10
-55.800003
 20
-48.333332
 11
-32.800007
 21
-48.333332
  0
LINE
  8
0
 10
-24.800007
 20
-47.333317
 11
-54.800003
 21
-47.333317
  0
LINE
  8
0
 10
92.199997
 20
-33.533340
 11
92.199997
 21
-75.133316
  0
LINE
  8
0
 10
-24.800007
 20
-38.833347
 11
-23.299988
 21
-38.833347
  0
LINE
  8
0
 10
-10.800007
 20
-37.833347
 11
-13.800003
 21
-37.833347
  0
LINE
  8
0
 10
-24.799988
 20
-38.833412
 11
-23.800007
 21
-37.833416
  0
LINE
  8
0
 10
-23.800022
 20
-37.833347
 11
-23.800022
 21
-70.833313
  0
LINE
  8
0
 10
107.199997
 20
-37.833328
 11
108.199997
 21
-37.833328
  0
LINE
  8
0
 10
-54.799965
 20
-61.333279
 11
-55.799965
 21
-60.333271
  0
LINE
  8
0
 10
-32.800007
 20
-60.333332
 11
-55.800003
 21
-60.333332
  0
LINE
  8
0
 10
-54.800003
 20
-61.333347
 11
-24.800007
 21
-61.333347
  0
LINE
  8
0
 10
-12.800007
 20
-69.833313
 11
-13.800003
 21
-69.833313
  0
LINE
  8
0
 10
-23.800022
 20
-70.833313
 11
-23.299988
 21
-70.833313
  0
LINE
  8
0
 10
-23.800049
 20
-70.833328
 11
-24.800032
 21
-69.833336
  0
LINE
  8
0
 10
108.199997
 20
-70.833328
 11
107.199997
 21
-70.833328
  0
LINE
  8
0
 10
134.199982
 20
-44.333328
 11
134.199982
 21
-64.333328
  0
LINE
  8
0
 10
-31.067722
 20
-47.333317
 11
-31.067722
 21
-61.333347
  0
LINE
  8
0
 10
-30.067722
 20
-47.333317
 11
-30.067722
 21
-61.333347
  0
LINE
  8
0
 10
107.199997
 20
-75.133331
 11
-10.800006
 21
-75.133331
  0
LINE
  8
0
 10
-21.468994
 20
-30.661976
 11
-13.800004
 21
-30.661976
  0
LINE
  8
0
 10
-14.300004
 20
-30.661976
 11
-14.300002
 21
-78.004684
  0
LINE
  8
0
 10
-13.800004
 20
-30.661976
 11
-13.800002
 21
-78.004684
  0
LINE
  8
0
 10
-23.299976
 20
-33.833401
 11
-21.468983
 21
-30.662027
  0
LINE
  8
0
 10
-23.299988
 20
-33.833332
 11
-23.299988
 21
-74.833328
  0
LINE
  8
0
 10
-23.299988
 20
-74.833328
 11
-21.468996
 21
-78.004684
  0
LINE
  8
0
 10
-21.468994
 20
-78.004684
 11
-13.800002
 21
-78.004684
  0
LINE
  8
0
 10
-23.299988
 20
-37.833347
 11
-23.800022
 21
-37.833347
  0
LINE
  8
0
 10
-13.800003
 20
-38.833347
 11
-12.800007
 21
-38.833347
  0
LINE
  8
0
 10
-23.299988
 20
-69.833313
 11
-24.800007
 21
-69.833313
  0
LINE
  8
0
 10
-13.800003
 20
-70.833313
 11
-10.800007
 21
-70.833313
  0
ARC
  8
0
 10
15.869888
 20
-42.497822
 40
39.169884
 50
162.412216
 51
197.587738
  0
ARC
  8
0
 10
15.869888
 20
-66.169479
 40
39.169880
 50
162.412186
 51
197.587708
  0
CIRCLE
  8
0
 10
99.199997
 20
-54.333328
 40
4.000000
  0
CIRCLE
  8
0
 10
5.199993
 20
-54.333332
 40
5.000000
  0
CIRCLE
  8
0
 10
5.199993
 20
-54.333332
 40
4.000000
  0
CIRCLE
  8
0
 10
99.199997
 20
-54.333328
 40
5.000000
  0
ENDSEC
  0
EOF
