  0
SECTION
  2
HEADER
  0
ENDSEC
  0
SECTION
  2
TABLES
  0
TABLE
  2
LTYPE
 70
     4
  0
LTYPE
  2
CONTINUOUS
 70
    64
  3
Solid line
 72
    65
 73
     0
 40
0.000000
  0
LTYPE
  2
DASHED
 70
    64
  3
__ __ __ __ __ __ __ __ __ __ __ __ __ __ __
 72
    65
 73
     2
 40
3.500000
 49
2.000000
 49
-1.500000
  0
LTYPE
  2
CENTER
 70
    64
  3
____ _ ____ _ ____ _ ____ _ ____ _ ____ _ ____
 72
    65
 73
     4
 40
17.500000
 49
13.000000
 49
-1.500000
 49
1.500000
 49
-1.500000
  0
LTYPE
  2
PHANTOM
 70
    64
  3
_____ _ _ _____ _ _ _____ _ _ _____ _ _ ____  
 72
    65
 73
     6
 40
15.500000
 49
8.000000
 49
-1.500000
 49
1.500000
 49
-1.500000
 49
1.500000
 49
-1.500000
  0
LTYPE
  2
DASHED1
 70
    64
  3
__ __ __ __ __ __ __ __ __ __ __ __ __ __ __
 72
    65
 73
     2
 40
1.500000
 49
1.000000
 49
-0.500000
  0
LTYPE
  2
DASHED2
 70
    64
  3
__ __ __ __ __ __ __ __ __ __ __ __ __ __ __
 72
    65
 73
     2
 40
3.500000
 49
2.500000
 49
-1.000000
  0
LTYPE
  2
DASHED3
 70
    64
  3
__ __ __ __ __ __ __ __ __ __ __ __ __ __ __
 72
    65
 73
     2
 40
6.000000
 49
4.000000
 49
-2.000000
  0
LTYPE
  2
DASHED4
 70
    64
  3
__ __ __ __ __ __ __ __ __ __ __ __ __ __ __
 72
    65
 73
     2
 40
12.000000
 49
10.000000
 49
-2.000000
  0
LTYPE
  2
DASHED5
 70
    64
  3
__ __ __ __ __ __ __ __ __ __ __ __ __ __ __
 72
    65
 73
     2
 40
17.000000
 49
15.000000
 49
-2.000000
  0
LTYPE
  2
DASHED6
 70
    64
  3
__ __ __ __ __ __ __ __ __ __ __ __ __ __ __
 72
    65
 73
     2
 40
29.000000
 49
27.000000
 49
-2.000000
  0
LTYPE
  2
PHANTOM1
 70
    64
  3
_____ _ _ _____ _ _ _____ _ _ _____ _ _ ____  
 72
    65
 73
     6
 40
31.000000
 49
25.000000
 49
-1.500000
 49
1.000000
 49
-1.000000
 49
1.000000
 49
-1.500000
  0
LTYPE
  2
PHANTOM2
 70
    64
  3
_____ _ _ _____ _ _ _____ _ _ _____ _ _ ____  
 72
    65
 73
     6
 40
36.000000
 49
27.000000
 49
-1.500000
 49
2.500000
 49
-1.000000
 49
2.500000
 49
-1.500000
  0
LTYPE
  2
PHANTOM3
 70
    64
  3
_____ _ _ _____ _ _ _____ _ _ _____ _ _ ____  
 72
    65
 73
     6
 40
78.000000
 49
64.000000
 49
-2.000000
 49
4.000000
 49
-2.000000
 49
4.000000
 49
-2.000000
  0
LTYPE
  2
CENTER1
 70
    64
  3
____ _ ____ _ ____ _ ____ _ ____ _ ____ _ ____
 72
    65
 73
     4
 40
19.000000
 49
14.000000
 49
-1.000000
 49
3.000000
 49
-1.000000
  0
LTYPE
  2
CENTER2
 70
    64
  3
____ _ ____ _ ____ _ ____ _ ____ _ ____ _ ____
 72
    65
 73
     4
 40
28.500000
 49
25.000000
 49
-1.000000
 49
1.500000
 49
-1.000000
  0
LTYPE
  2
CENTER3
 70
    64
  3
____ _ ____ _ ____ _ ____ _ ____ _ ____ _ ____
 72
    65
 73
     4
 40
31.500000
 49
27.000000
 49
-1.000000
 49
2.500000
 49
-1.000000
  0
LTYPE
  2
CENTER4
 70
    64
  3
____ _ ____ _ ____ _ ____ _ ____ _ ____ _ ____
 72
    65
 73
     4
 40
50.000000
 49
45.000000
 49
-1.000000
 49
3.000000
 49
-1.000000
  0
LTYPE
  2
CENTER5
 70
    64
  3
____ _ ____ _ ____ _ ____ _ ____ _ ____ _ ____
 72
    65
 73
     4
 40
100.000000
 49
92.000000
 49
-2.000000
 49
4.000000
 49
-2.000000
  0
LTYPE
  2
SBK1
 70
    64
  3
______ _ _ _ ______ _ _ _ ______ _ _ _ _____  
 72
    65
 73
     8
 40
60.500000
 49
45.000000
 49
-2.000000
 49
2.500000
 49
-2.000000
 49
2.500000
 49
-2.000000
 49
2.500000
 49
-2.000000
  0
LTYPE
  2
SBK2
 70
    64
  3
______ _ _ _ ______ _ _ _ ______ _ _ _ _____  
 72
    65
 73
     8
 40
84.000000
 49
64.000000
 49
-2.000000
 49
4.000000
 49
-2.000000
 49
4.000000
 49
-2.000000
 49
4.000000
 49
-2.000000
  0
LTYPE
  2
STCH
 70
    64
  3
__ __ __ __ __ __ __ __ __ __ __ __ __ __ __
 72
    65
 73
     2
 40
3.000000
 49
1.000000
 49
-2.000000
  0
LTYPE
  2
MTCH
 70
    64
  3
_____ _ _ _____ _ _ _____ _ _ _____ _ _ ____  
 72
    65
 73
     6
 40
80.000000
 49
66.000000
 49
-2.000000
 49
4.000000
 49
-2.000000
 49
4.000000
 49
-2.000000
  0
ENDTAB
  0
TABLE
  2
LAYER
 70
     1
  0
LAYER
  2
0
 70
     0
 62
     7
  6
CONTINUOUS
  0
ENDTAB
  0
TABLE
  2
STYLE
 70
     1
  0
STYLE
  2
STANDARD
 70
     0
 40
0.000000
 41
1.000000
 50
0.000000
 71
     0
 42
0.200000
  3
txt
  4
BIGFONT
  0
ENDTAB
  0
TABLE
  2
VIEW
 70
     0
  0
ENDTAB
  0
ENDSEC
  0
SECTION
  2
BLOCKS
  0
ENDSEC
  0
SECTION
  2
ENTITIES
  0
LINE
  8
0
 10
-185.436783
 20
-127.279236
 11
-185.436783
 21
127.279236
  0
LINE
  8
0
 10
185.436783
 20
127.279236
 11
185.436783
 21
-127.279236
  0
LINE
  8
0
 10
-185.436783
 20
-127.279236
 11
185.436783
 21
-127.279236
  0
LINE
  8
0
 10
-185.436783
 20
127.279236
 11
185.436783
 21
127.279236
  0
LINE
  8
0
 10
-185.436783
 20
112.978195
 11
-109.164589
 21
112.978195
  0
LINE
  8
0
 10
-109.164589
 20
112.978195
 11
-109.164589
 21
127.279236
  0
LINE
  8
0
 10
109.164581
 20
-112.978210
 11
185.436783
 21
-112.978210
  0
LINE
  8
0
 10
109.164581
 20
112.978195
 11
185.436783
 21
112.978195
  0
LINE
  8
0
 10
109.164581
 20
127.279236
 11
109.164581
 21
112.978195
  0
LINE
  8
0
 10
109.164581
 20
-112.978210
 11
109.164581
 21
-127.279236
  0
TEXT
  8
0
 10
113.360985
 20
117.310349
 40
4.242641
  1
DATE : AUG ,1992
 50
0.000000
 41
1.052631
 51
0.000000
  7
STANDARD
  0
TEXT
  8
0
 10
-180.264954
 20
116.628723
 40
5.000000
  1
SLIM CYLINDER
 50
0.000000
 41
1.052632
 51
0.000000
  7
STANDARD
  0
TEXT
  8
0
 10
114.336403
 20
-123.628723
 40
5.000000
  1
KOGANEI CORP.
 50
0.000000
 41
1.052632
 51
0.000000
  7
STANDARD
  0
TEXT
  8
0
 10
-152.832993
 20
86.504448
 40
5.000000
  1
MODEL : DAK50X25-RL
 50
0.000000
 41
1.052632
 51
0.000000
  7
STANDARD
  0
POINT
  8
0
 10
-14.499991
 20
35.999992
  0
POINT
  8
0
 10
136.499954
 20
35.999992
  0
POINT
  8
0
 10
-14.499990
 20
35.999992
  0
LINE
  8
0
 10
-65.688004
 20
42.999989
 11
-41.499996
 21
42.999992
  0
LINE
  8
0
 10
-66.500000
 20
42.187992
 11
-43.499996
 21
42.187992
  0
LINE
  8
0
 10
-66.500000
 20
29.811985
 11
-43.499996
 21
29.811987
  0
LINE
  8
0
 10
-65.688004
 20
28.999989
 11
-41.499996
 21
28.999990
  0
LINE
  8
0
 10
-66.500000
 20
42.187992
 11
-66.500000
 21
29.811985
  0
LINE
  8
0
 10
-43.499996
 20
42.999989
 11
-43.499996
 21
28.999990
  0
LINE
  8
0
 10
-66.499962
 20
42.187973
 11
-65.687958
 21
42.999973
  0
LINE
  8
0
 10
-66.499977
 20
29.811981
 11
-65.687988
 21
28.999989
  0
LINE
  8
0
 10
-65.688004
 20
42.999989
 11
-65.688004
 21
28.999989
  0
LINE
  8
0
 10
-41.499996
 20
28.999990
 11
-41.499996
 21
42.999992
  0
LINE
  8
0
 10
-41.499954
 20
42.999962
 11
-40.499954
 21
43.999962
  0
LINE
  8
0
 10
-41.499985
 20
29.000004
 11
-40.499981
 21
28.000006
  0
LINE
  8
0
 10
-36.499996
 20
32.127007
 11
-36.499996
 21
39.872978
  0
LINE
  8
0
 10
-40.499996
 20
39.872978
 11
-36.499996
 21
39.872978
  0
LINE
  8
0
 10
-40.499996
 20
32.127007
 11
-36.499996
 21
32.127007
  0
LINE
  8
0
 10
-40.500015
 20
39.872990
 11
-36.500015
 21
32.127026
  0
LINE
  8
0
 10
-36.500095
 20
39.873028
 11
-40.500107
 21
32.127056
  0
LINE
  8
0
 10
-40.499996
 20
27.999990
 11
-40.499996
 21
43.999992
  0
LINE
  8
0
 10
-40.499996
 20
43.999992
 11
-34.499996
 21
43.999992
  0
LINE
  8
0
 10
-40.499996
 20
27.999990
 11
-34.499996
 21
27.999990
  0
LINE
  8
0
 10
-33.241344
 20
17.999990
 11
-31.499992
 21
17.999990
  0
LINE
  8
0
 10
-33.241348
 20
53.999992
 11
-31.499996
 21
53.999992
  0
LINE
  8
0
 10
-34.499996
 20
52.499992
 11
-34.499992
 21
19.499990
  0
LINE
  8
0
 10
-34.500000
 20
52.499989
 11
-33.241352
 21
53.999985
  0
LINE
  8
0
 10
-34.499989
 20
19.499992
 11
-33.241337
 21
17.999987
  0
LINE
  8
0
 10
-33.241344
 20
17.999990
 11
-33.241348
 21
53.999992
  0
LINE
  8
0
 10
-20.499996
 20
53.999992
 11
-14.499996
 21
53.999992
  0
LINE
  8
0
 10
-20.499994
 20
17.999992
 11
-14.499994
 21
17.999992
  0
LINE
  8
0
 10
-19.499996
 20
53.999992
 11
-19.499994
 21
17.999992
  0
LINE
  8
0
 10
116.500008
 20
52.500000
 11
116.500008
 21
19.500002
  0
LINE
  8
0
 10
116.500008
 20
62.000000
 11
116.500008
 21
10.000002
  0
LINE
  8
0
 10
93.500008
 20
62.000000
 11
93.500008
 21
10.000000
  0
LINE
  8
0
 10
104.500008
 20
69.000000
 11
104.500008
 21
10.000002
  0
LINE
  8
0
 10
-69.949989
 20
35.999989
 11
142.500015
 21
36.000004
  0
LINE
  8
0
 10
-34.080448
 20
52.999992
 11
-31.499996
 21
52.999992
  0
LINE
  8
0
 10
-34.080444
 20
18.999990
 11
-31.499992
 21
18.999990
  0
LINE
  8
0
 10
-20.499994
 20
18.999992
 11
-19.499994
 21
18.999992
  0
LINE
  8
0
 10
-20.499996
 20
52.999992
 11
-19.499996
 21
52.999992
  0
LINE
  8
0
 10
116.500008
 20
54.000000
 11
135.241379
 21
54.000004
  0
LINE
  8
0
 10
116.500008
 20
18.000002
 11
135.241348
 21
18.000004
  0
LINE
  8
0
 10
135.241333
 20
53.999981
 11
136.499985
 21
52.499981
  0
LINE
  8
0
 10
135.241364
 20
17.999987
 11
136.500015
 21
19.499990
  0
LINE
  8
0
 10
136.500015
 20
19.500004
 11
136.500015
 21
52.500004
  0
LINE
  8
0
 10
121.500008
 20
54.000000
 11
121.500008
 21
18.000002
  0
LINE
  8
0
 10
135.241348
 20
18.000004
 11
135.241348
 21
54.000004
  0
LINE
  8
0
 10
121.500008
 20
53.000000
 11
136.080460
 21
53.000004
  0
LINE
  8
0
 10
121.500008
 20
19.000002
 11
136.080460
 21
19.000004
  0
LINE
  8
0
 10
116.500008
 20
62.000000
 11
13.000003
 21
61.999992
  0
LINE
  8
0
 10
116.500008
 20
10.000002
 11
-14.499993
 21
9.999992
  0
LINE
  8
0
 10
-0.499998
 20
72.972931
 11
-0.499992
 21
-6.791183
  0
LINE
  8
0
 10
-14.499997
 20
56.999992
 11
-14.499993
 21
9.999992
  0
LINE
  8
0
 10
-14.499997
 20
56.999992
 11
13.000003
 21
56.999992
  0
LINE
  8
0
 10
-11.999998
 20
71.499992
 11
11.000003
 21
71.500000
  0
LINE
  8
0
 10
-14.249997
 20
63.999992
 11
-8.145896
 21
63.999992
  0
LINE
  8
0
 10
-6.749993
 20
9.899994
 11
5.750007
 21
9.899996
  0
LINE
  8
0
 10
5.750007
 20
9.999994
 11
5.750007
 21
9.899996
  0
LINE
  8
0
 10
-6.749993
 20
9.999992
 11
-6.749993
 21
9.899994
  0
LINE
  8
0
 10
-5.499993
 20
6.299988
 11
4.500007
 21
6.299990
  0
LINE
  8
0
 10
4.500007
 20
9.899996
 11
4.500007
 21
6.299990
  0
LINE
  8
0
 10
-5.499993
 20
9.899994
 11
-5.499993
 21
6.299988
  0
LINE
  8
0
 10
-2.499992
 20
4.099991
 11
1.500008
 21
4.099993
  0
LINE
  8
0
 10
2.000007
 20
6.299990
 11
2.000007
 21
6.099993
  0
LINE
  8
0
 10
-2.999993
 20
6.299988
 11
-2.999993
 21
6.099991
  0
LINE
  8
0
 10
1.567008
 20
6.299990
 11
1.567008
 21
5.666994
  0
LINE
  8
0
 10
-2.566995
 20
6.299988
 11
-2.566995
 21
5.666992
  0
LINE
  8
0
 10
-0.499993
 20
9.466982
 11
-0.499993
 21
6.733004
  0
LINE
  8
0
 10
98.250008
 20
9.900002
 11
110.750008
 21
9.900003
  0
LINE
  8
0
 10
110.750008
 20
10.000002
 11
110.750008
 21
9.900003
  0
LINE
  8
0
 10
98.250008
 20
10.000000
 11
98.250008
 21
9.900002
  0
LINE
  8
0
 10
99.500008
 20
6.299997
 11
109.500008
 21
6.299997
  0
LINE
  8
0
 10
109.500008
 20
9.900003
 11
109.500008
 21
6.299997
  0
LINE
  8
0
 10
99.500008
 20
9.900003
 11
99.500008
 21
6.299997
  0
LINE
  8
0
 10
102.500008
 20
4.100000
 11
106.500008
 21
4.100000
  0
LINE
  8
0
 10
107.000008
 20
6.299997
 11
107.000008
 21
6.100000
  0
LINE
  8
0
 10
102.000008
 20
6.299997
 11
102.000008
 21
6.100000
  0
LINE
  8
0
 10
106.566994
 20
6.299997
 11
106.566994
 21
5.667002
  0
LINE
  8
0
 10
102.432991
 20
6.299997
 11
102.432991
 21
5.667002
  0
LINE
  8
0
 10
104.500008
 20
9.466990
 11
104.500008
 21
6.733011
  0
LINE
  8
0
 10
19.500000
 20
61.999992
 11
19.500008
 21
9.999994
  0
LINE
  8
0
 10
104.500008
 20
15.949411
 11
104.500008
 21
2.272766
  0
LINE
  8
0
 10
13.000003
 20
69.500000
 11
13.000003
 21
66.999992
  0
LINE
  8
0
 10
-13.999998
 20
69.499992
 11
-13.999997
 21
66.999992
  0
LINE
  8
0
 10
-8.145897
 20
71.499992
 11
-8.145896
 21
63.999992
  0
LINE
  8
0
 10
-14.249997
 20
63.999992
 11
-14.249997
 21
66.999992
  0
LINE
  8
0
 10
-14.249997
 20
66.999992
 11
-8.145897
 21
66.999992
  0
LINE
  8
0
 10
-13.999997
 20
63.999992
 11
-13.999997
 21
56.999992
  0
LINE
  8
0
 10
13.250003
 20
63.999992
 11
13.250003
 21
66.999992
  0
LINE
  8
0
 10
13.250003
 20
63.999992
 11
7.145900
 21
63.999992
  0
LINE
  8
0
 10
13.250003
 20
66.999992
 11
7.145900
 21
66.999992
  0
LINE
  8
0
 10
7.145900
 20
71.499992
 11
7.145900
 21
63.999992
  0
LINE
  8
0
 10
13.000003
 20
63.999992
 11
13.000003
 21
56.999992
  0
LINE
  8
0
 10
-8.145897
 20
69.499992
 11
7.145900
 21
69.499992
  0
LINE
  8
0
 10
-11.999984
 20
71.499985
 11
-13.999987
 21
69.499985
  0
LINE
  8
0
 10
10.999993
 20
71.499985
 11
12.999995
 21
69.499985
  0
LINE
  8
0
 10
1.500007
 20
5.599993
 11
1.500008
 21
4.099993
  0
LINE
  8
0
 10
-2.499993
 20
5.599991
 11
-2.499992
 21
4.099991
  0
LINE
  8
0
 10
-2.499993
 20
5.599991
 11
1.500007
 21
5.599993
  0
LINE
  8
0
 10
-2.499995
 20
5.599987
 11
-2.999995
 21
6.099987
  0
LINE
  8
0
 10
1.500006
 20
5.599995
 11
2.000005
 21
6.099995
  0
LINE
  8
0
 10
-2.999993
 20
6.099991
 11
2.000007
 21
6.099993
  0
LINE
  8
0
 10
102.500008
 20
5.600000
 11
106.500008
 21
5.600000
  0
LINE
  8
0
 10
102.500008
 20
5.600000
 11
102.500008
 21
4.100000
  0
LINE
  8
0
 10
106.500008
 20
5.600000
 11
106.500008
 21
4.100000
  0
LINE
  8
0
 10
102.499893
 20
5.599899
 11
101.999878
 21
6.099911
  0
LINE
  8
0
 10
106.499977
 20
5.600040
 11
106.999977
 21
6.100042
  0
LINE
  8
0
 10
102.000008
 20
6.100000
 11
107.000008
 21
6.100000
  0
LINE
  8
0
 10
-29.445724
 20
62.558098
 11
-20.999996
 21
62.558098
  0
LINE
  8
0
 10
-29.445724
 20
49.279045
 11
-20.999996
 21
49.279045
  0
LINE
  8
0
 10
-31.500126
 20
59.000061
 11
-29.445850
 21
62.558174
  0
LINE
  8
0
 10
-31.499992
 20
12.999990
 11
-31.499996
 21
58.999992
  0
LINE
  8
0
 10
-20.999996
 20
62.558098
 11
-20.999992
 21
9.441883
  0
LINE
  8
0
 10
-29.445723
 20
22.720940
 11
-20.999994
 21
22.720940
  0
LINE
  8
0
 10
-31.499996
 20
12.999992
 11
-29.445717
 21
9.441885
  0
LINE
  8
0
 10
-29.445717
 20
9.441881
 11
-20.999992
 21
9.441883
  0
LINE
  8
0
 10
-20.999996
 20
58.999992
 11
-20.499996
 21
58.999992
  0
LINE
  8
0
 10
-20.499996
 20
58.999992
 11
-20.499992
 21
12.999992
  0
LINE
  8
0
 10
-20.999992
 20
12.999992
 11
-20.499992
 21
12.999992
  0
CIRCLE
  8
0
 10
104.500008
 20
36.000000
 40
5.500000
  0
CIRCLE
  8
0
 10
104.500008
 20
36.000000
 40
6.500000
  0
CIRCLE
  8
0
 10
-0.499995
 20
35.999992
 40
5.499996
  0
CIRCLE
  8
0
 10
-0.499995
 20
35.999992
 40
6.499996
  0
POLYLINE
  8
0
 66
     1
  0
VERTEX
  8
0
 10
-29.445723
 20
22.720940
  0
VERTEX
  8
0
 10
-29.943356
 20
21.855379
  0
VERTEX
  8
0
 10
-30.386095
 20
20.951536
  0
VERTEX
  8
0
 10
-30.766041
 20
20.015793
  0
VERTEX
  8
0
 10
-31.075300
 20
19.054529
  0
VERTEX
  8
0
 10
-31.305977
 20
18.074123
  0
VERTEX
  8
0
 10
-31.450172
 20
17.080957
  0
VERTEX
  8
0
 10
-31.499992
 20
16.081411
  0
VERTEX
  8
0
 10
-31.450172
 20
15.081865
  0
VERTEX
  8
0
 10
-31.305975
 20
14.088698
  0
VERTEX
  8
0
 10
-31.075298
 20
13.108293
  0
VERTEX
  8
0
 10
-30.766037
 20
12.147028
  0
VERTEX
  8
0
 10
-30.386089
 20
11.211284
  0
VERTEX
  8
0
 10
-29.943350
 20
10.307442
  0
VERTEX
  8
0
 10
-29.445717
 20
9.441881
  0
SEQEND
  0
POLYLINE
  8
0
 66
     1
  0
VERTEX
  8
0
 10
-29.445724
 20
62.558098
  0
VERTEX
  8
0
 10
-29.943357
 20
61.692539
  0
VERTEX
  8
0
 10
-30.386097
 20
60.788696
  0
VERTEX
  8
0
 10
-30.766045
 20
59.852951
  0
VERTEX
  8
0
 10
-31.075304
 20
58.891689
  0
VERTEX
  8
0
 10
-31.305981
 20
57.911282
  0
VERTEX
  8
0
 10
-31.450176
 20
56.918118
  0
VERTEX
  8
0
 10
-31.499996
 20
55.918571
  0
VERTEX
  8
0
 10
-31.450176
 20
54.919025
  0
VERTEX
  8
0
 10
-31.305979
 20
53.925861
  0
VERTEX
  8
0
 10
-31.075304
 20
52.945454
  0
VERTEX
  8
0
 10
-30.766043
 20
51.984192
  0
VERTEX
  8
0
 10
-30.386097
 20
51.048447
  0
VERTEX
  8
0
 10
-29.943357
 20
50.144604
  0
VERTEX
  8
0
 10
-29.445724
 20
49.279045
  0
SEQEND
  0
POLYLINE
  8
0
 66
     1
  0
VERTEX
  8
0
 10
-29.445724
 20
49.279045
  0
VERTEX
  8
0
 10
-29.720280
 20
48.358837
  0
VERTEX
  8
0
 10
-29.976368
 20
47.432343
  0
VERTEX
  8
0
 10
-30.213690
 20
46.500042
  0
VERTEX
  8
0
 10
-30.431944
 20
45.562420
  0
VERTEX
  8
0
 10
-30.630835
 20
44.619961
  0
VERTEX
  8
0
 10
-30.810059
 20
43.673153
  0
VERTEX
  8
0
 10
-30.969318
 20
42.722473
  0
VERTEX
  8
0
 10
-31.108315
 20
41.768406
  0
VERTEX
  8
0
 10
-31.226748
 20
40.811436
  0
VERTEX
  8
0
 10
-31.324320
 20
39.852051
  0
VERTEX
  8
0
 10
-31.400728
 20
38.890728
  0
VERTEX
  8
0
 10
-31.455679
 20
37.927956
  0
VERTEX
  8
0
 10
-31.488867
 20
36.964214
  0
VERTEX
  8
0
 10
-31.499996
 20
35.999992
  0
VERTEX
  8
0
 10
-31.488867
 20
35.035770
  0
VERTEX
  8
0
 10
-31.455677
 20
34.072029
  0
VERTEX
  8
0
 10
-31.400728
 20
33.109257
  0
VERTEX
  8
0
 10
-31.324318
 20
32.147934
  0
VERTEX
  8
0
 10
-31.226748
 20
31.188547
  0
VERTEX
  8
0
 10
-31.108313
 20
30.231579
  0
VERTEX
  8
0
 10
-30.969316
 20
29.277514
  0
VERTEX
  8
0
 10
-30.810057
 20
28.326832
  0
VERTEX
  8
0
 10
-30.630833
 20
27.380022
  0
VERTEX
  8
0
 10
-30.431942
 20
26.437563
  0
VERTEX
  8
0
 10
-30.213688
 20
25.499943
  0
VERTEX
  8
0
 10
-29.976366
 20
24.567642
  0
VERTEX
  8
0
 10
-29.720278
 20
23.641148
  0
VERTEX
  8
0
 10
-29.445723
 20
22.720940
  0
SEQEND
  0
POLYLINE
  8
0
 66
     1
  0
VERTEX
  8
0
 10
104.500008
 20
9.466990
  0
VERTEX
  8
0
 10
105.314354
 20
9.702290
  0
VERTEX
  8
0
 10
106.151482
 20
9.849259
  0
VERTEX
  8
0
 10
107.000008
 20
9.900003
  0
VERTEX
  8
0
 10
107.848534
 20
9.849259
  0
VERTEX
  8
0
 10
108.685661
 20
9.702290
  0
VERTEX
  8
0
 10
109.500008
 20
9.466990
  0
SEQEND
  0
POLYLINE
  8
0
 66
     1
  0
VERTEX
  8
0
 10
99.500008
 20
9.466990
  0
VERTEX
  8
0
 10
100.314354
 20
9.702290
  0
VERTEX
  8
0
 10
101.151482
 20
9.849259
  0
VERTEX
  8
0
 10
102.000008
 20
9.900003
  0
VERTEX
  8
0
 10
102.848534
 20
9.849259
  0
VERTEX
  8
0
 10
103.685661
 20
9.702290
  0
VERTEX
  8
0
 10
104.500008
 20
9.466990
  0
SEQEND
  0
POLYLINE
  8
0
 66
     1
  0
VERTEX
  8
0
 10
104.500008
 20
6.733011
  0
VERTEX
  8
0
 10
105.314354
 20
6.497712
  0
VERTEX
  8
0
 10
106.151482
 20
6.350742
  0
VERTEX
  8
0
 10
107.000008
 20
6.299997
  0
VERTEX
  8
0
 10
107.848534
 20
6.350742
  0
VERTEX
  8
0
 10
108.685661
 20
6.497712
  0
VERTEX
  8
0
 10
109.500008
 20
6.733011
  0
SEQEND
  0
POLYLINE
  8
0
 66
     1
  0
VERTEX
  8
0
 10
99.500008
 20
6.733011
  0
VERTEX
  8
0
 10
100.314354
 20
6.497712
  0
VERTEX
  8
0
 10
101.151482
 20
6.350742
  0
VERTEX
  8
0
 10
102.000008
 20
6.299997
  0
VERTEX
  8
0
 10
102.848534
 20
6.350742
  0
VERTEX
  8
0
 10
103.685661
 20
6.497712
  0
VERTEX
  8
0
 10
104.500008
 20
6.733011
  0
SEQEND
  0
POLYLINE
  8
0
 66
     1
  0
VERTEX
  8
0
 10
-5.499993
 20
9.466980
  0
VERTEX
  8
0
 10
-4.685651
 20
9.702280
  0
VERTEX
  8
0
 10
-3.848519
 20
9.849250
  0
VERTEX
  8
0
 10
-2.999993
 20
9.899994
  0
VERTEX
  8
0
 10
-2.151468
 20
9.849250
  0
VERTEX
  8
0
 10
-1.314336
 20
9.702281
  0
VERTEX
  8
0
 10
-0.499993
 20
9.466982
  0
SEQEND
  0
POLYLINE
  8
0
 66
     1
  0
VERTEX
  8
0
 10
-0.499993
 20
9.466982
  0
VERTEX
  8
0
 10
0.314349
 20
9.702282
  0
VERTEX
  8
0
 10
1.151481
 20
9.849252
  0
VERTEX
  8
0
 10
2.000007
 20
9.899996
  0
VERTEX
  8
0
 10
2.848532
 20
9.849252
  0
VERTEX
  8
0
 10
3.685664
 20
9.702282
  0
VERTEX
  8
0
 10
4.500007
 20
9.466982
  0
SEQEND
  0
POLYLINE
  8
0
 66
     1
  0
VERTEX
  8
0
 10
-5.499993
 20
6.733002
  0
VERTEX
  8
0
 10
-4.685650
 20
6.497703
  0
VERTEX
  8
0
 10
-3.848519
 20
6.350732
  0
VERTEX
  8
0
 10
-2.999993
 20
6.299988
  0
VERTEX
  8
0
 10
-2.151468
 20
6.350733
  0
VERTEX
  8
0
 10
-1.314336
 20
6.497704
  0
VERTEX
  8
0
 10
-0.499993
 20
6.733004
  0
SEQEND
  0
POLYLINE
  8
0
 66
     1
  0
VERTEX
  8
0
 10
-0.499993
 20
6.733004
  0
VERTEX
  8
0
 10
0.314350
 20
6.497705
  0
VERTEX
  8
0
 10
1.151481
 20
6.350734
  0
VERTEX
  8
0
 10
2.000007
 20
6.299990
  0
VERTEX
  8
0
 10
2.848532
 20
6.350734
  0
VERTEX
  8
0
 10
3.685664
 20
6.497705
  0
VERTEX
  8
0
 10
4.500007
 20
6.733004
  0
SEQEND
  0
POINT
  8
0
 10
-113.500008
 20
30.981752
  0
POINT
  8
0
 10
-136.500046
 20
30.981752
  0
LINE
  8
0
 10
-146.000000
 20
36.484818
 11
-146.000000
 21
25.515169
  0
LINE
  8
0
 10
-127.000000
 20
36.484840
 11
-127.000000
 21
25.515181
  0
LINE
  8
0
 10
-145.999954
 20
36.484734
 11
-136.499954
 21
41.969570
  0
LINE
  8
0
 10
-136.499924
 20
20.030218
 11
-126.999901
 21
25.515051
  0
LINE
  8
0
 10
-136.500031
 20
41.969673
 11
-127.000000
 21
36.484833
  0
LINE
  8
0
 10
-145.999985
 20
25.515190
 11
-136.499985
 21
20.030367
  0
LINE
  8
0
 10
-159.500000
 20
44.279037
 11
-159.500000
 21
17.720934
  0
LINE
  8
0
 10
-113.500008
 20
44.279068
 11
-113.499992
 21
17.720961
  0
LINE
  8
0
 10
-159.499954
 20
44.278931
 11
-136.499939
 21
57.557991
  0
LINE
  8
0
 10
-136.499939
 20
4.441895
 11
-113.499977
 21
17.720955
  0
LINE
  8
0
 10
-136.500000
 20
57.558113
 11
-113.500008
 21
44.279072
  0
LINE
  8
0
 10
-159.499969
 20
17.720955
 11
-136.499924
 21
4.441906
  0
LINE
  8
0
 10
-134.399979
 20
1.299997
 11
-134.399979
 21
0.700006
  0
LINE
  8
0
 10
-130.249985
 20
5.762379
 11
-130.249985
 21
4.900005
  0
LINE
  8
0
 10
-138.599976
 20
1.299994
 11
-138.599976
 21
0.699991
  0
LINE
  8
0
 10
-136.999985
 20
-0.900002
 11
-138.499985
 21
-0.900003
  0
LINE
  8
0
 10
-136.999985
 20
0.599998
 11
-136.999985
 21
-0.900002
  0
LINE
  8
0
 10
-135.999985
 20
0.599998
 11
-135.999985
 21
-0.900002
  0
LINE
  8
0
 10
-142.749985
 20
5.762371
 11
-142.749985
 21
4.899998
  0
LINE
  8
0
 10
-134.499985
 20
0.600000
 11
-138.499985
 21
0.599997
  0
LINE
  8
0
 10
-130.249985
 20
4.900055
 11
-135.706512
 21
4.900051
  0
LINE
  8
0
 10
-130.749985
 20
4.466991
 11
-130.749985
 21
1.733013
  0
LINE
  8
0
 10
-133.999985
 20
1.299997
 11
-133.999985
 21
1.100000
  0
LINE
  8
0
 10
-138.999985
 20
1.299994
 11
-138.999985
 21
1.100000
  0
LINE
  8
0
 10
-142.249985
 20
4.466984
 11
-142.249985
 21
1.733006
  0
LINE
  8
0
 10
-137.293457
 20
4.900051
 11
-142.749985
 21
4.900047
  0
LINE
  8
0
 10
-134.499985
 20
-0.900000
 11
-135.999985
 21
-0.900002
  0
LINE
  8
0
 10
-141.500076
 20
4.900087
 11
-142.250061
 21
4.467085
  0
LINE
  8
0
 10
-136.500015
 20
70.199997
 11
-136.499985
 21
-2.815626
  0
LINE
  8
0
 10
-130.749969
 20
1.732975
 11
-131.499954
 21
1.299965
  0
LINE
  8
0
 10
-142.249985
 20
1.733027
 11
-141.499969
 21
1.300003
  0
LINE
  8
0
 10
-131.499969
 20
4.900042
 11
-130.749985
 21
4.467022
  0
LINE
  8
0
 10
-131.499985
 20
1.300053
 11
-141.499985
 21
1.300045
  0
LINE
  8
0
 10
-133.624985
 20
4.466990
 11
-133.624985
 21
1.733011
  0
LINE
  8
0
 10
-139.374985
 20
4.466986
 11
-139.374985
 21
1.733007
  0
LINE
  8
0
 10
-151.500015
 20
64.499985
 11
-151.500015
 21
51.999992
  0
LINE
  8
0
 10
-121.500015
 20
64.500008
 11
-121.500015
 21
52.000008
  0
LINE
  8
0
 10
-149.500015
 20
66.499992
 11
-123.500023
 21
66.500008
  0
LINE
  8
0
 10
-151.829727
 20
51.999992
 11
-146.126938
 21
51.999992
  0
LINE
  8
0
 10
-126.873077
 20
52.000008
 11
-121.170303
 21
52.000008
  0
LINE
  8
0
 10
-151.500015
 20
58.999992
 11
-144.760010
 21
58.999992
  0
LINE
  8
0
 10
-128.240021
 20
59.000008
 11
-121.500015
 21
59.000008
  0
LINE
  8
0
 10
-169.500000
 20
30.981731
 11
-108.047058
 21
30.981768
  0
LINE
  8
0
 10
-128.240021
 20
66.500008
 11
-128.240021
 21
59.000008
  0
LINE
  8
0
 10
-144.760010
 20
66.500000
 11
-144.760010
 21
58.999992
  0
LINE
  8
0
 10
-127.250015
 20
62.000008
 11
-121.500015
 21
62.000008
  0
LINE
  8
0
 10
-127.250015
 20
59.000008
 11
-127.250015
 21
62.000008
  0
LINE
  8
0
 10
-145.750015
 20
58.999992
 11
-145.750015
 21
61.999992
  0
LINE
  8
0
 10
-145.750015
 20
61.999992
 11
-151.500015
 21
61.999992
  0
LINE
  8
0
 10
-149.499985
 20
66.499969
 11
-151.499985
 21
64.499962
  0
LINE
  8
0
 10
-123.500031
 20
66.500015
 11
-121.500023
 21
64.500008
  0
LINE
  8
0
 10
-144.760010
 20
64.500000
 11
-128.240021
 21
64.500008
  0
LINE
  8
0
 10
-134.499985
 20
0.600000
 11
-134.499985
 21
-0.900000
  0
LINE
  8
0
 10
-138.499985
 20
0.599997
 11
-138.499985
 21
-0.900003
  0
LINE
  8
0
 10
-138.499969
 20
0.600008
 11
-138.999985
 21
1.100021
  0
LINE
  8
0
 10
-134.499939
 20
0.599974
 11
-133.999939
 21
1.099974
  0
LINE
  8
0
 10
-133.999985
 20
1.100000
 11
-138.999985
 21
1.099997
  0
CIRCLE
  8
0
 10
-136.500000
 20
31.000000
 40
9.500000
  0
CIRCLE
  8
0
 10
-136.500000
 20
31.000000
 40
7.000000
  0
CIRCLE
  8
0
 10
-136.500000
 20
31.000000
 40
6.188000
  0
CIRCLE
  8
0
 10
-136.500000
 20
31.000000
 40
23.000000
  0
CIRCLE
  8
0
 10
-136.500000
 20
31.000000
 40
16.500000
  0
CIRCLE
  8
0
 10
-136.500000
 20
31.000000
 40
18.000000
  0
ARC
  8
0
 10
-136.500000
 20
31.000000
 40
26.000000
 50
0.000034
 51
27.795801
  0
ARC
  8
0
 10
-136.500000
 20
31.000000
 40
26.000000
 50
332.204254
 51
0.000034
  0
ARC
  8
0
 10
-136.500000
 20
31.000000
 40
26.000000
 50
32.204258
 51
53.871105
  0
ARC
  8
0
 10
-136.500000
 20
31.000000
 40
26.000002
 50
152.204285
 51
207.795761
  0
ARC
  8
0
 10
-136.500000
 20
31.000000
 40
26.000004
 50
212.204239
 51
267.795776
  0
ARC
  8
0
 10
-136.500000
 20
31.000000
 40
26.000000
 50
272.204224
 51
327.795837
  0
ARC
  8
0
 10
-136.500000
 20
31.000000
 40
25.999998
 50
126.128975
 51
147.795853
  0
POLYLINE
  8
0
 66
     1
  0
VERTEX
  8
0
 10
-137.241547
 20
4.870705
  0
VERTEX
  8
0
 10
-137.962799
 20
4.787095
  0
VERTEX
  8
0
 10
-138.674927
 20
4.651767
  0
VERTEX
  8
0
 10
-139.374985
 20
4.466986
  0
SEQEND
  0
POLYLINE
  8
0
 66
     1
  0
VERTEX
  8
0
 10
-130.749985
 20
4.466991
  0
VERTEX
  8
0
 10
-131.440323
 20
4.780339
  0
VERTEX
  8
0
 10
-132.187485
 20
4.900003
  0
VERTEX
  8
0
 10
-132.934647
 20
4.780338
  0
VERTEX
  8
0
 10
-133.624985
 20
4.466990
  0
SEQEND
  0
POLYLINE
  8
0
 66
     1
  0
VERTEX
  8
0
 10
-130.749985
 20
1.733013
  0
VERTEX
  8
0
 10
-131.440323
 20
1.419664
  0
VERTEX
  8
0
 10
-132.187485
 20
1.299997
  0
VERTEX
  8
0
 10
-132.934647
 20
1.419663
  0
VERTEX
  8
0
 10
-133.624985
 20
1.733011
  0
SEQEND
  0
POLYLINE
  8
0
 66
     1
  0
VERTEX
  8
0
 10
-133.624985
 20
4.466990
  0
VERTEX
  8
0
 10
-134.325607
 20
4.651817
  0
VERTEX
  8
0
 10
-135.038315
 20
4.787213
  0
VERTEX
  8
0
 10
-135.757965
 20
4.870671
  0
SEQEND
  0
POLYLINE
  8
0
 66
     1
  0
VERTEX
  8
0
 10
-139.374985
 20
4.466986
  0
VERTEX
  8
0
 10
-140.065323
 20
4.780334
  0
VERTEX
  8
0
 10
-140.812485
 20
4.900000
  0
VERTEX
  8
0
 10
-141.559647
 20
4.780334
  0
VERTEX
  8
0
 10
-142.249985
 20
4.466984
  0
SEQEND
  0
POLYLINE
  8
0
 66
     1
  0
VERTEX
  8
0
 10
-133.624985
 20
1.733011
  0
VERTEX
  8
0
 10
-134.566437
 20
1.496514
  0
VERTEX
  8
0
 10
-135.528152
 20
1.350142
  0
VERTEX
  8
0
 10
-136.499985
 20
1.299995
  0
VERTEX
  8
0
 10
-137.471817
 20
1.350141
  0
VERTEX
  8
0
 10
-138.433533
 20
1.496512
  0
VERTEX
  8
0
 10
-139.374985
 20
1.733007
  0
SEQEND
  0
POLYLINE
  8
0
 66
     1
  0
VERTEX
  8
0
 10
-139.374985
 20
1.733007
  0
VERTEX
  8
0
 10
-140.065323
 20
1.419659
  0
VERTEX
  8
0
 10
-140.812485
 20
1.299994
  0
VERTEX
  8
0
 10
-141.559647
 20
1.419658
  0
VERTEX
  8
0
 10
-142.249985
 20
1.733006
  0
SEQEND
  0
POINT
  8
0
 10
-14.500028
 20
-55.333370
  0
POINT
  8
0
 10
136.499908
 20
-55.333370
  0
LINE
  8
0
 10
-29.445736
 20
-28.775225
 11
-21.000004
 21
-28.775225
  0
LINE
  8
0
 10
-29.445744
 20
-81.891434
 11
-21.000011
 21
-81.891434
  0
LINE
  8
0
 10
-31.500023
 20
-78.333321
 11
-29.445744
 21
-81.891426
  0
LINE
  8
0
 10
-31.500126
 20
-32.333267
 11
-29.445847
 21
-28.775160
  0
LINE
  8
0
 10
-20.500004
 20
-32.333332
 11
-20.500011
 21
-78.333328
  0
LINE
  8
0
 10
-21.000004
 20
-28.775225
 11
-21.000011
 21
-81.891434
  0
LINE
  8
0
 10
-21.000004
 20
-32.333328
 11
-20.500004
 21
-32.333332
  0
LINE
  8
0
 10
-21.000011
 20
-78.333328
 11
-20.500011
 21
-78.333328
  0
LINE
  8
0
 10
-31.500004
 20
-78.333328
 11
-31.499996
 21
-32.333328
  0
LINE
  8
0
 10
-69.500000
 20
-55.333321
 11
142.500000
 21
-55.333351
  0
LINE
  8
0
 10
-34.500004
 20
-55.333324
 11
-34.500004
 21
-38.333374
  0
LINE
  8
0
 10
-14.500008
 20
-81.333328
 11
-14.500000
 21
-29.333332
  0
LINE
  8
0
 10
-66.500000
 20
-49.333324
 11
-66.500000
 21
-55.333321
  0
LINE
  8
0
 10
-66.499870
 20
-49.333569
 11
-65.499893
 21
-48.333572
  0
LINE
  8
0
 10
-65.500000
 20
-48.333309
 11
-65.500000
 21
-55.333321
  0
LINE
  8
0
 10
-66.500000
 20
-49.333324
 11
-43.500004
 21
-49.333328
  0
LINE
  8
0
 10
-37.499989
 20
-48.333313
 11
-65.500000
 21
-48.333309
  0
LINE
  8
0
 10
-14.500000
 20
-29.333332
 11
116.500000
 21
-29.333351
  0
LINE
  8
0
 10
-34.500019
 20
-38.333374
 11
-31.500000
 21
-38.333374
  0
LINE
  8
0
 10
-14.500024
 20
-37.333378
 11
-20.500004
 21
-37.333378
  0
LINE
  8
0
 10
-34.500008
 20
-38.333443
 11
-33.500031
 21
-37.333450
  0
LINE
  8
0
 10
-33.500019
 20
-37.333374
 11
-33.500019
 21
-55.333324
  0
LINE
  8
0
 10
116.500000
 20
-37.333351
 11
135.000000
 21
-37.333355
  0
LINE
  8
0
 10
136.500000
 20
-55.333351
 11
136.500000
 21
-38.833370
  0
LINE
  8
0
 10
121.500000
 20
-38.333351
 11
136.000015
 21
-38.333355
  0
LINE
  8
0
 10
116.500000
 20
-29.333351
 11
116.500000
 21
-81.333344
  0
LINE
  8
0
 10
104.500000
 20
-45.753349
 11
104.500000
 21
-64.913345
  0
LINE
  8
0
 10
-19.500004
 20
-55.333328
 11
-19.500000
 21
-37.333378
  0
LINE
  8
0
 10
-43.500004
 20
-48.333313
 11
-43.500004
 21
-55.333324
  0
LINE
  8
0
 10
-36.500004
 20
-47.333328
 11
-34.500004
 21
-47.333328
  0
LINE
  8
0
 10
-36.500000
 20
-47.333378
 11
-37.499977
 21
-48.333378
  0
LINE
  8
0
 10
19.499992
 20
-81.333336
 11
19.500000
 21
-29.333338
  0
LINE
  8
0
 10
-34.500008
 20
-72.333282
 11
-34.500004
 21
-55.333324
  0
LINE
  8
0
 10
-66.500000
 20
-55.333321
 11
-66.500000
 21
-61.333321
  0
LINE
  8
0
 10
-65.500031
 20
-62.333256
 11
-66.500008
 21
-61.333294
  0
LINE
  8
0
 10
-65.500000
 20
-55.333321
 11
-65.500000
 21
-62.333336
  0
LINE
  8
0
 10
-43.500004
 20
-61.333324
 11
-66.500000
 21
-61.333321
  0
LINE
  8
0
 10
-65.500000
 20
-62.333336
 11
-37.499992
 21
-62.333340
  0
LINE
  8
0
 10
93.499992
 20
-81.333344
 11
93.500008
 21
-29.333349
  0
LINE
  8
0
 10
-19.500013
 20
-72.333282
 11
-20.500010
 21
-72.333282
  0
LINE
  8
0
 10
-33.500069
 20
-73.333282
 11
-31.500004
 21
-73.333282
  0
LINE
  8
0
 10
-33.500008
 20
-73.333214
 11
-34.499977
 21
-72.333221
  0
LINE
  8
0
 10
-33.500019
 20
-55.333324
 11
-33.500023
 21
-73.333282
  0
LINE
  8
0
 10
134.999985
 20
-73.333351
 11
116.500000
 21
-73.333344
  0
LINE
  8
0
 10
136.500000
 20
-71.833351
 11
136.500000
 21
-55.333351
  0
LINE
  8
0
 10
135.999985
 20
-72.333351
 11
121.500000
 21
-72.333351
  0
LINE
  8
0
 10
121.500000
 20
-73.333351
 11
121.500000
 21
-37.333351
  0
LINE
  8
0
 10
-19.500008
 20
-73.333282
 11
-19.500004
 21
-55.333328
  0
LINE
  8
0
 10
-43.500004
 20
-55.333324
 11
-43.500008
 21
-62.333340
  0
LINE
  8
0
 10
-34.500008
 20
-63.333324
 11
-36.500008
 21
-63.333324
  0
LINE
  8
0
 10
-37.499969
 20
-62.333344
 11
-36.500000
 21
-63.333336
  0
LINE
  8
0
 10
135.000198
 20
-37.333145
 11
136.500198
 21
-38.833138
  0
LINE
  8
0
 10
136.499985
 20
-71.833282
 11
135.000000
 21
-73.333267
  0
LINE
  8
0
 10
135.000000
 20
-37.333355
 11
135.000000
 21
-73.333351
  0
LINE
  8
0
 10
-0.500006
 20
-64.913330
 11
-0.500002
 21
-45.753334
  0
LINE
  8
0
 10
116.500000
 20
-81.333344
 11
-14.500008
 21
-81.333328
  0
LINE
  8
0
 10
-29.445740
 20
-55.333324
 11
-21.000008
 21
-55.333328
  0
LINE
  8
0
 10
-31.500000
 20
-37.333374
 11
-33.500057
 21
-37.333374
  0
LINE
  8
0
 10
-20.500006
 20
-38.333378
 11
-19.499987
 21
-38.333378
  0
LINE
  8
0
 10
-31.500004
 20
-72.333282
 11
-34.500038
 21
-72.333282
  0
LINE
  8
0
 10
-20.500011
 20
-73.333282
 11
-14.500037
 21
-73.333282
  0
LINE
  8
0
 10
-0.500045
 20
-49.583290
 11
-5.479712
 21
-52.458275
  0
LINE
  8
0
 10
-5.479668
 20
-52.458317
 11
-5.479668
 21
-58.208313
  0
LINE
  8
0
 10
-5.479687
 20
-58.208359
 11
-0.500034
 21
-61.083378
  0
LINE
  8
0
 10
-0.500041
 20
-61.083336
 11
4.479630
 21
-58.208332
  0
LINE
  8
0
 10
4.479636
 20
-58.208332
 11
4.479636
 21
-52.458336
  0
LINE
  8
0
 10
4.479629
 20
-52.458302
 11
-0.500014
 21
-49.583298
  0
LINE
  8
0
 10
109.479683
 20
-52.458344
 11
104.500015
 21
-49.583351
  0
LINE
  8
0
 10
109.479660
 20
-58.208332
 11
109.479660
 21
-52.458336
  0
LINE
  8
0
 10
104.500046
 20
-61.083385
 11
109.479698
 21
-58.208366
  0
LINE
  8
0
 10
99.520348
 20
-58.208355
 11
104.500008
 21
-61.083359
  0
LINE
  8
0
 10
99.520355
 20
-52.458351
 11
99.520355
 21
-58.208344
  0
LINE
  8
0
 10
104.500031
 20
-49.583366
 11
99.520378
 21
-52.458378
  0
CIRCLE
  8
0
 10
-0.500008
 20
-55.333332
 40
7.000000
  0
CIRCLE
  8
0
 10
-0.500023
 20
-55.333332
 40
4.979652
  0
ARC
  8
0
 10
12.446046
 20
-42.054283
 40
43.946045
 50
162.412186
 51
197.587769
  0
ARC
  8
0
 10
12.446042
 20
-68.612381
 40
43.946045
 50
162.412140
 51
197.587723
  0
CIRCLE
  8
0
 10
104.500015
 20
-55.333347
 40
4.979652
  0
CIRCLE
  8
0
 10
-0.500008
 20
-55.333332
 40
2.500000
  0
CIRCLE
  8
0
 10
104.500000
 20
-55.333347
 40
3.000000
  0
CIRCLE
  8
0
 10
-0.500008
 20
-55.333332
 40
3.000000
  0
CIRCLE
  8
0
 10
104.500000
 20
-55.333347
 40
2.500000
  0
CIRCLE
  8
0
 10
104.500000
 20
-55.333347
 40
7.000000
  0
ENDSEC
  0
EOF
