  0
SECTION
  2
HEADER
  0
ENDSEC
  0
SECTION
  2
TABLES
  0
TABLE
  2
LTYPE
 70
     4
  0
LTYPE
  2
CONTINUOUS
 70
    64
  3
Solid line
 72
    65
 73
     0
 40
0.000000
  0
LTYPE
  2
DASHED
 70
    64
  3
__ __ __ __ __ __ __ __ __ __ __ __ __ __ __
 72
    65
 73
     2
 40
3.500000
 49
2.000000
 49
-1.500000
  0
LTYPE
  2
CENTER
 70
    64
  3
____ _ ____ _ ____ _ ____ _ ____ _ ____ _ ____
 72
    65
 73
     4
 40
17.500000
 49
13.000000
 49
-1.500000
 49
1.500000
 49
-1.500000
  0
LTYPE
  2
PHANTOM
 70
    64
  3
_____ _ _ _____ _ _ _____ _ _ _____ _ _ ____  
 72
    65
 73
     6
 40
15.500000
 49
8.000000
 49
-1.500000
 49
1.500000
 49
-1.500000
 49
1.500000
 49
-1.500000
  0
LTYPE
  2
DASHED1
 70
    64
  3
__ __ __ __ __ __ __ __ __ __ __ __ __ __ __
 72
    65
 73
     2
 40
1.500000
 49
1.000000
 49
-0.500000
  0
LTYPE
  2
DASHED2
 70
    64
  3
__ __ __ __ __ __ __ __ __ __ __ __ __ __ __
 72
    65
 73
     2
 40
3.500000
 49
2.500000
 49
-1.000000
  0
LTYPE
  2
DASHED3
 70
    64
  3
__ __ __ __ __ __ __ __ __ __ __ __ __ __ __
 72
    65
 73
     2
 40
6.000000
 49
4.000000
 49
-2.000000
  0
LTYPE
  2
DASHED4
 70
    64
  3
__ __ __ __ __ __ __ __ __ __ __ __ __ __ __
 72
    65
 73
     2
 40
12.000000
 49
10.000000
 49
-2.000000
  0
LTYPE
  2
DASHED5
 70
    64
  3
__ __ __ __ __ __ __ __ __ __ __ __ __ __ __
 72
    65
 73
     2
 40
17.000000
 49
15.000000
 49
-2.000000
  0
LTYPE
  2
DASHED6
 70
    64
  3
__ __ __ __ __ __ __ __ __ __ __ __ __ __ __
 72
    65
 73
     2
 40
29.000000
 49
27.000000
 49
-2.000000
  0
LTYPE
  2
PHANTOM1
 70
    64
  3
_____ _ _ _____ _ _ _____ _ _ _____ _ _ ____  
 72
    65
 73
     6
 40
31.000000
 49
25.000000
 49
-1.500000
 49
1.000000
 49
-1.000000
 49
1.000000
 49
-1.500000
  0
LTYPE
  2
PHANTOM2
 70
    64
  3
_____ _ _ _____ _ _ _____ _ _ _____ _ _ ____  
 72
    65
 73
     6
 40
36.000000
 49
27.000000
 49
-1.500000
 49
2.500000
 49
-1.000000
 49
2.500000
 49
-1.500000
  0
LTYPE
  2
PHANTOM3
 70
    64
  3
_____ _ _ _____ _ _ _____ _ _ _____ _ _ ____  
 72
    65
 73
     6
 40
78.000000
 49
64.000000
 49
-2.000000
 49
4.000000
 49
-2.000000
 49
4.000000
 49
-2.000000
  0
LTYPE
  2
CENTER1
 70
    64
  3
____ _ ____ _ ____ _ ____ _ ____ _ ____ _ ____
 72
    65
 73
     4
 40
19.000000
 49
14.000000
 49
-1.000000
 49
3.000000
 49
-1.000000
  0
LTYPE
  2
CENTER2
 70
    64
  3
____ _ ____ _ ____ _ ____ _ ____ _ ____ _ ____
 72
    65
 73
     4
 40
28.500000
 49
25.000000
 49
-1.000000
 49
1.500000
 49
-1.000000
  0
LTYPE
  2
CENTER3
 70
    64
  3
____ _ ____ _ ____ _ ____ _ ____ _ ____ _ ____
 72
    65
 73
     4
 40
31.500000
 49
27.000000
 49
-1.000000
 49
2.500000
 49
-1.000000
  0
LTYPE
  2
CENTER4
 70
    64
  3
____ _ ____ _ ____ _ ____ _ ____ _ ____ _ ____
 72
    65
 73
     4
 40
50.000000
 49
45.000000
 49
-1.000000
 49
3.000000
 49
-1.000000
  0
LTYPE
  2
CENTER5
 70
    64
  3
____ _ ____ _ ____ _ ____ _ ____ _ ____ _ ____
 72
    65
 73
     4
 40
100.000000
 49
92.000000
 49
-2.000000
 49
4.000000
 49
-2.000000
  0
LTYPE
  2
SBK1
 70
    64
  3
______ _ _ _ ______ _ _ _ ______ _ _ _ _____  
 72
    65
 73
     8
 40
60.500000
 49
45.000000
 49
-2.000000
 49
2.500000
 49
-2.000000
 49
2.500000
 49
-2.000000
 49
2.500000
 49
-2.000000
  0
LTYPE
  2
SBK2
 70
    64
  3
______ _ _ _ ______ _ _ _ ______ _ _ _ _____  
 72
    65
 73
     8
 40
84.000000
 49
64.000000
 49
-2.000000
 49
4.000000
 49
-2.000000
 49
4.000000
 49
-2.000000
 49
4.000000
 49
-2.000000
  0
LTYPE
  2
STCH
 70
    64
  3
__ __ __ __ __ __ __ __ __ __ __ __ __ __ __
 72
    65
 73
     2
 40
3.000000
 49
1.000000
 49
-2.000000
  0
LTYPE
  2
MTCH
 70
    64
  3
_____ _ _ _____ _ _ _____ _ _ _____ _ _ ____  
 72
    65
 73
     6
 40
80.000000
 49
66.000000
 49
-2.000000
 49
4.000000
 49
-2.000000
 49
4.000000
 49
-2.000000
  0
ENDTAB
  0
TABLE
  2
LAYER
 70
     1
  0
LAYER
  2
0
 70
     0
 62
     7
  6
CONTINUOUS
  0
ENDTAB
  0
TABLE
  2
STYLE
 70
     1
  0
STYLE
  2
STANDARD
 70
     0
 40
0.000000
 41
1.000000
 50
0.000000
 71
     0
 42
0.200000
  3
txt
  4
BIGFONT
  0
ENDTAB
  0
TABLE
  2
VIEW
 70
     0
  0
ENDTAB
  0
ENDSEC
  0
SECTION
  2
BLOCKS
  0
ENDSEC
  0
SECTION
  2
ENTITIES
  0
LINE
  8
0
 10
-185.436783
 20
-127.279236
 11
-185.436783
 21
127.279236
  0
LINE
  8
0
 10
185.436783
 20
127.279236
 11
185.436783
 21
-127.279236
  0
LINE
  8
0
 10
-185.436783
 20
-127.279236
 11
185.436783
 21
-127.279236
  0
LINE
  8
0
 10
-185.436783
 20
127.279236
 11
185.436783
 21
127.279236
  0
LINE
  8
0
 10
-185.436783
 20
112.978195
 11
-109.164589
 21
112.978195
  0
LINE
  8
0
 10
-109.164589
 20
112.978195
 11
-109.164589
 21
127.279236
  0
LINE
  8
0
 10
109.164581
 20
-112.978210
 11
185.436783
 21
-112.978210
  0
LINE
  8
0
 10
109.164581
 20
112.978195
 11
185.436783
 21
112.978195
  0
LINE
  8
0
 10
109.164581
 20
127.279236
 11
109.164581
 21
112.978195
  0
LINE
  8
0
 10
109.164581
 20
-112.978210
 11
109.164581
 21
-127.279236
  0
TEXT
  8
0
 10
113.360985
 20
117.310349
 40
4.242641
  1
DATE : AUG ,1992
 50
0.000000
 41
1.052631
 51
0.000000
  7
STANDARD
  0
TEXT
  8
0
 10
-180.264954
 20
116.628723
 40
5.000000
  1
SLIM CYLINDER
 50
0.000000
 41
1.052632
 51
0.000000
  7
STANDARD
  0
TEXT
  8
0
 10
114.336403
 20
-123.628723
 40
5.000000
  1
KOGANEI CORP.
 50
0.000000
 41
1.052632
 51
0.000000
  7
STANDARD
  0
TEXT
  8
0
 10
-147.215775
 20
89.792282
 40
5.000000
  1
MODEL : DAK63X25-HL
 50
0.000000
 41
1.052632
 51
0.000000
  7
STANDARD
  0
POINT
  8
0
 10
-14.999997
 20
39.999992
  0
POINT
  8
0
 10
135.999969
 20
39.999992
  0
LINE
  8
0
 10
-35.000004
 20
56.500000
 11
-35.000000
 21
23.500002
  0
LINE
  8
0
 10
-33.212368
 20
58.000000
 11
-32.000004
 21
58.000000
  0
LINE
  8
0
 10
-35.000004
 20
56.500000
 11
-32.000004
 21
56.500000
  0
LINE
  8
0
 10
-35.000000
 20
23.499998
 11
-32.000000
 21
23.499998
  0
LINE
  8
0
 10
-35.000065
 20
56.500061
 11
-33.212429
 21
58.000069
  0
LINE
  8
0
 10
-34.999992
 20
23.499998
 11
-33.212341
 21
21.999992
  0
LINE
  8
0
 10
-21.000002
 20
62.875000
 11
-20.999998
 21
16.875000
  0
LINE
  8
0
 10
-32.000004
 20
62.875000
 11
-32.000000
 21
16.874998
  0
LINE
  8
0
 10
-29.945726
 20
66.433113
 11
-21.500002
 21
66.433113
  0
LINE
  8
0
 10
-29.945723
 20
13.316887
 11
-21.499998
 21
13.316889
  0
LINE
  8
0
 10
-21.500002
 20
62.875000
 11
-21.000002
 21
62.875000
  0
LINE
  8
0
 10
-21.499998
 20
16.875000
 11
-20.999998
 21
16.875000
  0
LINE
  8
0
 10
-21.500002
 20
66.433113
 11
-21.499998
 21
13.316889
  0
LINE
  8
0
 10
-32.000011
 20
62.875019
 11
-29.945744
 21
66.433144
  0
LINE
  8
0
 10
-31.999985
 20
16.875008
 11
-29.945705
 21
13.316891
  0
LINE
  8
0
 10
-29.945724
 20
26.595943
 11
-21.500000
 21
26.595943
  0
LINE
  8
0
 10
-29.945724
 20
53.154057
 11
-21.500000
 21
53.154057
  0
LINE
  8
0
 10
-33.212368
 20
58.000000
 11
-33.212364
 21
21.999998
  0
LINE
  8
0
 10
-20.000002
 20
58.000000
 11
-19.999998
 21
22.000000
  0
LINE
  8
0
 10
-21.000002
 20
58.000000
 11
-15.000001
 21
58.000000
  0
LINE
  8
0
 10
-20.999998
 20
22.000000
 11
-14.999999
 21
22.000000
  0
LINE
  8
0
 10
-20.000002
 20
56.917496
 11
-21.000002
 21
56.917496
  0
LINE
  8
0
 10
-19.999998
 20
23.082500
 11
-20.999998
 21
23.082500
  0
LINE
  8
0
 10
7.999997
 20
72.699997
 11
8.000001
 21
7.299999
  0
LINE
  8
0
 10
-15.000003
 20
72.699997
 11
-14.999997
 21
7.299999
  0
LINE
  8
0
 10
-3.000003
 20
76.784866
 11
-2.999997
 21
-0.431564
  0
LINE
  8
0
 10
-70.060013
 20
39.999996
 11
140.260635
 21
40.000011
  0
LINE
  8
0
 10
-67.000000
 20
46.187996
 11
-67.000000
 21
33.811996
  0
LINE
  8
0
 10
-66.000000
 20
46.999996
 11
-42.000000
 21
47.000000
  0
LINE
  8
0
 10
-66.000000
 20
32.999996
 11
-42.000000
 21
33.000000
  0
LINE
  8
0
 10
-66.999992
 20
46.000000
 11
-65.999985
 21
46.999992
  0
LINE
  8
0
 10
-67.000008
 20
33.999996
 11
-66.000008
 21
33.000004
  0
LINE
  8
0
 10
-44.000000
 20
46.999996
 11
-44.000000
 21
32.999996
  0
LINE
  8
0
 10
-66.812004
 20
46.187996
 11
-44.000000
 21
46.187996
  0
LINE
  8
0
 10
-66.811996
 20
33.811996
 11
-44.000000
 21
33.811996
  0
LINE
  8
0
 10
-66.000000
 20
46.999996
 11
-66.000000
 21
32.999996
  0
LINE
  8
0
 10
-41.000000
 20
48.000000
 11
-35.000000
 21
48.000000
  0
LINE
  8
0
 10
-41.000000
 20
31.999998
 11
-35.000000
 21
31.999998
  0
LINE
  8
0
 10
-41.999981
 20
46.999977
 11
-40.999981
 21
47.999981
  0
LINE
  8
0
 10
-42.000008
 20
32.999996
 11
-41.000011
 21
32.000000
  0
LINE
  8
0
 10
-41.000000
 20
43.872986
 11
-37.000000
 21
43.872986
  0
LINE
  8
0
 10
-40.999989
 20
43.872971
 11
-36.999996
 21
36.127010
  0
LINE
  8
0
 10
-37.000053
 20
43.873009
 11
-41.000061
 21
36.127041
  0
LINE
  8
0
 10
-37.000000
 20
43.872986
 11
-37.000000
 21
36.127014
  0
LINE
  8
0
 10
-41.000000
 20
36.127014
 11
-37.000000
 21
36.127014
  0
LINE
  8
0
 10
-41.000000
 20
48.000000
 11
-41.000000
 21
31.999998
  0
LINE
  8
0
 10
-42.000000
 20
47.000000
 11
-42.000000
 21
33.000000
  0
LINE
  8
0
 10
136.000000
 20
56.500011
 11
136.000000
 21
23.500011
  0
LINE
  8
0
 10
116.000000
 20
58.000008
 11
134.741348
 21
58.000011
  0
LINE
  8
0
 10
116.000000
 20
22.000010
 11
134.741348
 21
22.000011
  0
LINE
  8
0
 10
121.000000
 20
58.000008
 11
121.000000
 21
22.000010
  0
LINE
  8
0
 10
134.741318
 20
57.999977
 11
135.999985
 21
56.499969
  0
LINE
  8
0
 10
134.741348
 20
22.000010
 11
136.000000
 21
23.499996
  0
LINE
  8
0
 10
134.741348
 20
58.000011
 11
134.741348
 21
22.000011
  0
LINE
  8
0
 10
121.000000
 20
56.917503
 11
135.649673
 21
56.917507
  0
LINE
  8
0
 10
121.000000
 20
23.082510
 11
135.649689
 21
23.082512
  0
LINE
  8
0
 10
-33.212364
 20
21.999998
 11
-32.000000
 21
21.999998
  0
LINE
  8
0
 10
82.000000
 20
72.700005
 11
82.000000
 21
7.300007
  0
LINE
  8
0
 10
99.000000
 20
76.618835
 11
99.000000
 21
0.470009
  0
LINE
  8
0
 10
116.000000
 20
61.000008
 11
116.000000
 21
7.300011
  0
LINE
  8
0
 10
85.000000
 20
72.700005
 11
85.000000
 21
61.000008
  0
LINE
  8
0
 10
116.000000
 20
61.000008
 11
85.000000
 21
61.000008
  0
LINE
  8
0
 10
105.250000
 20
7.200005
 11
92.750000
 21
7.200005
  0
LINE
  8
0
 10
92.750000
 20
7.300007
 11
92.750000
 21
7.200005
  0
LINE
  8
0
 10
105.250000
 20
7.300007
 11
105.250000
 21
7.200005
  0
LINE
  8
0
 10
104.000000
 20
3.600006
 11
94.000000
 21
3.600006
  0
LINE
  8
0
 10
94.000000
 20
7.200005
 11
94.000000
 21
3.600006
  0
LINE
  8
0
 10
104.000000
 20
7.200005
 11
104.000000
 21
3.600006
  0
LINE
  8
0
 10
101.000000
 20
1.400002
 11
97.000000
 21
1.400002
  0
LINE
  8
0
 10
96.500000
 20
3.600006
 11
96.500000
 21
3.400002
  0
LINE
  8
0
 10
101.500000
 20
3.600006
 11
101.500000
 21
3.400002
  0
LINE
  8
0
 10
96.932999
 20
3.600006
 11
96.932999
 21
2.967003
  0
LINE
  8
0
 10
101.067001
 20
3.600006
 11
101.067001
 21
2.967010
  0
LINE
  8
0
 10
99.000000
 20
6.766991
 11
99.000000
 21
4.033012
  0
LINE
  8
0
 10
116.000000
 20
7.300011
 11
-14.999997
 21
7.299999
  0
LINE
  8
0
 10
85.000000
 20
72.700005
 11
-15.000003
 21
72.699997
  0
LINE
  8
0
 10
3.250001
 20
7.099998
 11
-9.249998
 21
7.099998
  0
LINE
  8
0
 10
-9.249998
 20
7.199997
 11
-9.249998
 21
7.099998
  0
LINE
  8
0
 10
3.250001
 20
7.199997
 11
3.250001
 21
7.099998
  0
LINE
  8
0
 10
2.000001
 20
3.500000
 11
-7.999997
 21
3.500000
  0
LINE
  8
0
 10
-7.999998
 20
7.099998
 11
-7.999997
 21
3.500000
  0
LINE
  8
0
 10
2.000001
 20
7.099998
 11
2.000001
 21
3.500000
  0
LINE
  8
0
 10
-0.999997
 20
1.299995
 11
-4.999997
 21
1.299995
  0
LINE
  8
0
 10
-5.499997
 20
3.500000
 11
-5.499997
 21
3.299995
  0
LINE
  8
0
 10
-0.499997
 20
3.500000
 11
-0.499997
 21
3.299995
  0
LINE
  8
0
 10
-5.066998
 20
3.500000
 11
-5.066998
 21
2.866997
  0
LINE
  8
0
 10
-0.932996
 20
3.500000
 11
-0.932996
 21
2.866997
  0
LINE
  8
0
 10
-2.999997
 20
6.666985
 11
-2.999997
 21
3.933006
  0
LINE
  8
0
 10
87.500000
 20
75.500008
 11
110.500000
 21
75.500008
  0
LINE
  8
0
 10
85.000000
 20
68.000008
 11
91.354103
 21
68.000008
  0
LINE
  8
0
 10
112.500000
 20
73.500015
 11
112.500000
 21
71.000008
  0
LINE
  8
0
 10
91.354103
 20
75.500008
 11
91.354103
 21
68.000008
  0
LINE
  8
0
 10
90.750000
 20
68.000008
 11
90.750000
 21
71.000008
  0
LINE
  8
0
 10
85.250000
 20
68.000008
 11
85.250000
 21
71.000008
  0
LINE
  8
0
 10
85.250000
 20
71.000008
 11
90.750000
 21
71.000008
  0
LINE
  8
0
 10
112.750000
 20
68.000008
 11
112.750000
 21
71.000008
  0
LINE
  8
0
 10
112.750000
 20
68.000008
 11
106.645905
 21
68.000008
  0
LINE
  8
0
 10
107.250000
 20
68.000008
 11
107.250000
 21
71.000008
  0
LINE
  8
0
 10
112.750000
 20
71.000008
 11
107.250000
 21
71.000008
  0
LINE
  8
0
 10
106.645905
 20
75.500008
 11
106.645905
 21
68.000008
  0
LINE
  8
0
 10
112.500000
 20
68.000008
 11
112.500000
 21
61.000008
  0
LINE
  8
0
 10
91.354103
 20
73.500008
 11
106.645905
 21
73.500008
  0
LINE
  8
0
 10
87.499992
 20
75.500000
 11
84.699989
 21
72.700005
  0
LINE
  8
0
 10
110.499985
 20
75.500000
 11
112.499992
 21
73.500000
  0
LINE
  8
0
 10
-0.999997
 20
2.799995
 11
-4.999997
 21
2.799995
  0
LINE
  8
0
 10
-0.499997
 20
3.299995
 11
-5.499996
 21
3.299995
  0
LINE
  8
0
 10
-4.999997
 20
2.799995
 11
-4.999997
 21
1.299995
  0
LINE
  8
0
 10
-0.999997
 20
2.799995
 11
-0.999997
 21
1.299995
  0
LINE
  8
0
 10
-4.999996
 20
2.799999
 11
-5.499996
 21
3.300003
  0
LINE
  8
0
 10
-0.999998
 20
2.799999
 11
-0.499998
 21
3.299999
  0
LINE
  8
0
 10
97.000000
 20
2.900002
 11
97.000000
 21
1.400002
  0
LINE
  8
0
 10
101.000000
 20
2.900002
 11
101.000000
 21
1.400002
  0
LINE
  8
0
 10
101.000000
 20
2.900002
 11
97.000000
 21
2.900002
  0
LINE
  8
0
 10
101.500000
 20
3.400002
 11
96.500000
 21
3.400002
  0
LINE
  8
0
 10
96.999947
 20
2.899963
 11
96.499947
 21
3.399963
  0
LINE
  8
0
 10
100.999985
 20
2.900017
 11
101.499985
 21
3.400021
  0
CIRCLE
  8
0
 10
99.000000
 20
40.000008
 40
5.499996
  0
CIRCLE
  8
0
 10
99.000000
 20
40.000008
 40
6.499996
  0
CIRCLE
  8
0
 10
-3.000000
 20
40.000000
 40
6.500000
  0
CIRCLE
  8
0
 10
-3.000000
 20
40.000000
 40
5.500000
  0
POLYLINE
  8
0
 66
     1
  0
VERTEX
  8
0
 10
2.000001
 20
6.666985
  0
VERTEX
  8
0
 10
1.185659
 20
6.902285
  0
VERTEX
  8
0
 10
0.348528
 20
7.049254
  0
VERTEX
  8
0
 10
-0.499997
 20
7.099998
  0
VERTEX
  8
0
 10
-1.348523
 20
7.049254
  0
VERTEX
  8
0
 10
-2.185654
 20
6.902285
  0
VERTEX
  8
0
 10
-2.999997
 20
6.666985
  0
SEQEND
  0
POLYLINE
  8
0
 66
     1
  0
VERTEX
  8
0
 10
2.000001
 20
3.933006
  0
VERTEX
  8
0
 10
1.185658
 20
3.697709
  0
VERTEX
  8
0
 10
0.348528
 20
3.550743
  0
VERTEX
  8
0
 10
-0.499997
 20
3.500000
  0
VERTEX
  8
0
 10
-1.348523
 20
3.550743
  0
VERTEX
  8
0
 10
-2.185654
 20
3.697709
  0
VERTEX
  8
0
 10
-2.999997
 20
3.933006
  0
SEQEND
  0
POLYLINE
  8
0
 66
     1
  0
VERTEX
  8
0
 10
-2.999997
 20
3.933006
  0
VERTEX
  8
0
 10
-3.814340
 20
3.697709
  0
VERTEX
  8
0
 10
-4.651472
 20
3.550743
  0
VERTEX
  8
0
 10
-5.499997
 20
3.500000
  0
VERTEX
  8
0
 10
-6.348523
 20
3.550743
  0
VERTEX
  8
0
 10
-7.185654
 20
3.697709
  0
VERTEX
  8
0
 10
-7.999997
 20
3.933006
  0
SEQEND
  0
POLYLINE
  8
0
 66
     1
  0
VERTEX
  8
0
 10
104.000000
 20
6.766991
  0
VERTEX
  8
0
 10
103.185654
 20
7.002291
  0
VERTEX
  8
0
 10
102.348526
 20
7.149260
  0
VERTEX
  8
0
 10
101.500000
 20
7.200005
  0
VERTEX
  8
0
 10
100.651474
 20
7.149260
  0
VERTEX
  8
0
 10
99.814346
 20
7.002291
  0
VERTEX
  8
0
 10
99.000000
 20
6.766991
  0
SEQEND
  0
POLYLINE
  8
0
 66
     1
  0
VERTEX
  8
0
 10
-2.999997
 20
6.666985
  0
VERTEX
  8
0
 10
-3.814340
 20
6.902285
  0
VERTEX
  8
0
 10
-4.651471
 20
7.049254
  0
VERTEX
  8
0
 10
-5.499997
 20
7.099998
  0
VERTEX
  8
0
 10
-6.348523
 20
7.049254
  0
VERTEX
  8
0
 10
-7.185655
 20
6.902285
  0
VERTEX
  8
0
 10
-7.999998
 20
6.666985
  0
SEQEND
  0
POLYLINE
  8
0
 66
     1
  0
VERTEX
  8
0
 10
104.000000
 20
4.033012
  0
VERTEX
  8
0
 10
103.185654
 20
3.797715
  0
VERTEX
  8
0
 10
102.348526
 20
3.650749
  0
VERTEX
  8
0
 10
101.500000
 20
3.600006
  0
VERTEX
  8
0
 10
100.651474
 20
3.650749
  0
VERTEX
  8
0
 10
99.814346
 20
3.797715
  0
VERTEX
  8
0
 10
99.000000
 20
4.033012
  0
SEQEND
  0
POLYLINE
  8
0
 66
     1
  0
VERTEX
  8
0
 10
-29.945726
 20
66.433113
  0
VERTEX
  8
0
 10
-30.443361
 20
65.567551
  0
VERTEX
  8
0
 10
-30.886101
 20
64.663712
  0
VERTEX
  8
0
 10
-31.266050
 20
63.727966
  0
VERTEX
  8
0
 10
-31.575310
 20
62.766701
  0
VERTEX
  8
0
 10
-31.805986
 20
61.786293
  0
VERTEX
  8
0
 10
-31.950184
 20
60.793125
  0
VERTEX
  8
0
 10
-32.000004
 20
59.793579
  0
VERTEX
  8
0
 10
-31.950184
 20
58.794033
  0
VERTEX
  8
0
 10
-31.805986
 20
57.800869
  0
VERTEX
  8
0
 10
-31.575310
 20
56.820461
  0
VERTEX
  8
0
 10
-31.266048
 20
55.859200
  0
VERTEX
  8
0
 10
-30.886099
 20
54.923458
  0
VERTEX
  8
0
 10
-30.443359
 20
54.019615
  0
VERTEX
  8
0
 10
-29.945724
 20
53.154057
  0
SEQEND
  0
POLYLINE
  8
0
 66
     1
  0
VERTEX
  8
0
 10
-29.945724
 20
53.154057
  0
VERTEX
  8
0
 10
-30.220282
 20
52.233849
  0
VERTEX
  8
0
 10
-30.476370
 20
51.307354
  0
VERTEX
  8
0
 10
-30.713692
 20
50.375053
  0
VERTEX
  8
0
 10
-30.931948
 20
49.437431
  0
VERTEX
  8
0
 10
-31.130836
 20
48.494972
  0
VERTEX
  8
0
 10
-31.310061
 20
47.548164
  0
VERTEX
  8
0
 10
-31.469322
 20
46.597481
  0
VERTEX
  8
0
 10
-31.608318
 20
45.643414
  0
VERTEX
  8
0
 10
-31.726751
 20
44.686447
  0
VERTEX
  8
0
 10
-31.824324
 20
43.727058
  0
VERTEX
  8
0
 10
-31.900732
 20
42.765739
  0
VERTEX
  8
0
 10
-31.955681
 20
41.802963
  0
VERTEX
  8
0
 10
-31.988871
 20
40.839226
  0
VERTEX
  8
0
 10
-32.000000
 20
39.875000
  0
VERTEX
  8
0
 10
-31.988871
 20
38.910774
  0
VERTEX
  8
0
 10
-31.955681
 20
37.947037
  0
VERTEX
  8
0
 10
-31.900732
 20
36.984261
  0
VERTEX
  8
0
 10
-31.824324
 20
36.022942
  0
VERTEX
  8
0
 10
-31.726751
 20
35.063553
  0
VERTEX
  8
0
 10
-31.608318
 20
34.106586
  0
VERTEX
  8
0
 10
-31.469322
 20
33.152519
  0
VERTEX
  8
0
 10
-31.310061
 20
32.201836
  0
VERTEX
  8
0
 10
-31.130836
 20
31.255026
  0
VERTEX
  8
0
 10
-30.931948
 20
30.312569
  0
VERTEX
  8
0
 10
-30.713692
 20
29.374947
  0
VERTEX
  8
0
 10
-30.476370
 20
28.442648
  0
VERTEX
  8
0
 10
-30.220282
 20
27.516151
  0
VERTEX
  8
0
 10
-29.945724
 20
26.595943
  0
SEQEND
  0
POLYLINE
  8
0
 66
     1
  0
VERTEX
  8
0
 10
-29.945724
 20
26.595943
  0
VERTEX
  8
0
 10
-30.443359
 20
25.730383
  0
VERTEX
  8
0
 10
-30.886099
 20
24.826542
  0
VERTEX
  8
0
 10
-31.266047
 20
23.890799
  0
VERTEX
  8
0
 10
-31.575308
 20
22.929533
  0
VERTEX
  8
0
 10
-31.805983
 20
21.949127
  0
VERTEX
  8
0
 10
-31.950180
 20
20.955961
  0
VERTEX
  8
0
 10
-32.000000
 20
19.956415
  0
VERTEX
  8
0
 10
-31.950180
 20
18.956869
  0
VERTEX
  8
0
 10
-31.805983
 20
17.963703
  0
VERTEX
  8
0
 10
-31.575306
 20
16.983297
  0
VERTEX
  8
0
 10
-31.266047
 20
16.022032
  0
VERTEX
  8
0
 10
-30.886097
 20
15.086288
  0
VERTEX
  8
0
 10
-30.443357
 20
14.182446
  0
VERTEX
  8
0
 10
-29.945723
 20
13.316887
  0
SEQEND
  0
POLYLINE
  8
0
 66
     1
  0
VERTEX
  8
0
 10
99.000000
 20
6.766991
  0
VERTEX
  8
0
 10
98.185654
 20
7.002291
  0
VERTEX
  8
0
 10
97.348526
 20
7.149260
  0
VERTEX
  8
0
 10
96.500000
 20
7.200005
  0
VERTEX
  8
0
 10
95.651474
 20
7.149260
  0
VERTEX
  8
0
 10
94.814346
 20
7.002291
  0
VERTEX
  8
0
 10
94.000000
 20
6.766991
  0
SEQEND
  0
POLYLINE
  8
0
 66
     1
  0
VERTEX
  8
0
 10
99.000000
 20
4.033012
  0
VERTEX
  8
0
 10
98.185654
 20
3.797715
  0
VERTEX
  8
0
 10
97.348526
 20
3.650749
  0
VERTEX
  8
0
 10
96.500000
 20
3.600006
  0
VERTEX
  8
0
 10
95.651474
 20
3.650749
  0
VERTEX
  8
0
 10
94.814346
 20
3.797715
  0
VERTEX
  8
0
 10
94.000000
 20
4.033012
  0
SEQEND
  0
POINT
  8
0
 10
-130.000031
 20
40.000000
  0
POINT
  8
0
 10
-107.000000
 20
40.000000
  0
LINE
  8
0
 10
-153.000000
 20
53.279057
 11
-153.000000
 21
26.720943
  0
LINE
  8
0
 10
-107.000000
 20
53.279060
 11
-107.000000
 21
26.720940
  0
LINE
  8
0
 10
-153.000046
 20
53.279102
 11
-130.000015
 21
66.558182
  0
LINE
  8
0
 10
-129.999863
 20
13.441851
 11
-106.999847
 21
26.720898
  0
LINE
  8
0
 10
-129.999969
 20
66.558075
 11
-106.999931
 21
53.279015
  0
LINE
  8
0
 10
-153.000061
 20
26.720942
 11
-130.000046
 21
13.441862
  0
LINE
  8
0
 10
-166.683533
 20
40.000000
 11
-95.035294
 21
40.000000
  0
LINE
  8
0
 10
-130.000000
 20
79.143753
 11
-130.000000
 21
0.174698
  0
LINE
  8
0
 10
-139.500000
 20
45.484829
 11
-139.500000
 21
34.515171
  0
LINE
  8
0
 10
-120.500000
 20
45.484825
 11
-120.500000
 21
34.515175
  0
LINE
  8
0
 10
-139.499924
 20
45.484810
 11
-129.999954
 21
50.969627
  0
LINE
  8
0
 10
-129.999954
 20
29.030338
 11
-120.499954
 21
34.515156
  0
LINE
  8
0
 10
-129.999954
 20
50.969639
 11
-120.499985
 21
45.484829
  0
LINE
  8
0
 10
-139.499908
 20
34.515163
 11
-129.999908
 21
29.030334
  0
LINE
  8
0
 10
-127.899994
 20
3.580757
 11
-127.899994
 21
2.980766
  0
LINE
  8
0
 10
-123.750000
 20
7.902843
 11
-123.750000
 21
7.180767
  0
LINE
  8
0
 10
-132.099991
 20
3.580757
 11
-132.099991
 21
2.980751
  0
LINE
  8
0
 10
-130.500000
 20
1.380760
 11
-132.000000
 21
1.380760
  0
LINE
  8
0
 10
-130.500000
 20
2.880760
 11
-130.500000
 21
1.380760
  0
LINE
  8
0
 10
-129.500000
 20
2.880760
 11
-129.500000
 21
1.380760
  0
LINE
  8
0
 10
-136.250000
 20
7.902843
 11
-136.250000
 21
7.180763
  0
LINE
  8
0
 10
-128.000000
 20
2.880760
 11
-132.000000
 21
2.880760
  0
LINE
  8
0
 10
-124.250000
 20
6.747753
 11
-124.250000
 21
4.013775
  0
LINE
  8
0
 10
-127.500000
 20
3.580757
 11
-127.500000
 21
3.380760
  0
LINE
  8
0
 10
-132.500000
 20
3.580757
 11
-132.500000
 21
3.380760
  0
LINE
  8
0
 10
-135.750000
 20
6.747749
 11
-135.750000
 21
4.013771
  0
LINE
  8
0
 10
-123.750000
 20
7.180763
 11
-136.250000
 21
7.180763
  0
LINE
  8
0
 10
-128.000000
 20
1.380760
 11
-129.500000
 21
1.380760
  0
LINE
  8
0
 10
-135.000153
 20
7.180775
 11
-135.750137
 21
6.747776
  0
LINE
  8
0
 10
-124.249962
 20
4.013775
 11
-124.999947
 21
3.580761
  0
LINE
  8
0
 10
-135.750061
 20
4.013767
 11
-135.000046
 21
3.580746
  0
LINE
  8
0
 10
-125.000038
 20
7.180782
 11
-124.250008
 21
6.747757
  0
LINE
  8
0
 10
-125.000000
 20
3.580811
 11
-135.000000
 21
3.580811
  0
LINE
  8
0
 10
-127.125000
 20
6.747749
 11
-127.125000
 21
4.013771
  0
LINE
  8
0
 10
-132.875000
 20
6.747749
 11
-132.875000
 21
4.013771
  0
LINE
  8
0
 10
-116.999992
 20
75.499985
 11
-114.999985
 21
73.499985
  0
LINE
  8
0
 10
-145.000000
 20
73.499992
 11
-145.000000
 21
69.056671
  0
LINE
  8
0
 10
-115.000000
 20
73.500000
 11
-115.000000
 21
69.056671
  0
LINE
  8
0
 10
-143.000000
 20
75.500000
 11
-117.000000
 21
75.500000
  0
LINE
  8
0
 10
-138.259995
 20
73.500000
 11
-121.740005
 21
73.500000
  0
LINE
  8
0
 10
-121.740005
 20
75.500000
 11
-121.740005
 21
71.639572
  0
LINE
  8
0
 10
-138.259995
 20
75.500000
 11
-138.259995
 21
71.639572
  0
LINE
  8
0
 10
-119.593750
 20
71.000000
 11
-115.000000
 21
71.000000
  0
LINE
  8
0
 10
-140.406250
 20
71.000000
 11
-145.000000
 21
71.000000
  0
LINE
  8
0
 10
-142.999969
 20
75.499947
 11
-144.999969
 21
73.499939
  0
LINE
  8
0
 10
-132.000000
 20
2.880760
 11
-132.000000
 21
1.380760
  0
LINE
  8
0
 10
-128.000000
 20
2.880760
 11
-128.000000
 21
1.380760
  0
LINE
  8
0
 10
-127.500000
 20
3.380760
 11
-132.500000
 21
3.380760
  0
LINE
  8
0
 10
-131.999969
 20
2.880779
 11
-132.499969
 21
3.380779
  0
LINE
  8
0
 10
-127.999939
 20
2.880699
 11
-127.499939
 21
3.380703
  0
CIRCLE
  8
0
 10
-130.000000
 20
40.000000
 40
16.917500
  0
CIRCLE
  8
0
 10
-130.000000
 20
40.000000
 40
23.000000
  0
CIRCLE
  8
0
 10
-130.000000
 20
40.000000
 40
18.000000
  0
CIRCLE
  8
0
 10
-130.000000
 20
40.000000
 40
6.000000
  0
CIRCLE
  8
0
 10
-130.000000
 20
40.000000
 40
7.000000
  0
CIRCLE
  8
0
 10
-130.000000
 20
40.000000
 40
9.500000
  0
CIRCLE
  8
0
 10
-130.000000
 20
40.000000
 40
32.700001
  0
POLYLINE
  8
0
 66
     1
  0
VERTEX
  8
0
 10
-124.250000
 20
4.013775
  0
VERTEX
  8
0
 10
-124.940338
 20
3.700424
  0
VERTEX
  8
0
 10
-125.687500
 20
3.580757
  0
VERTEX
  8
0
 10
-126.434662
 20
3.700423
  0
VERTEX
  8
0
 10
-127.125000
 20
4.013771
  0
SEQEND
  0
POLYLINE
  8
0
 66
     1
  0
VERTEX
  8
0
 10
-132.875000
 20
4.013771
  0
VERTEX
  8
0
 10
-133.565338
 20
3.700423
  0
VERTEX
  8
0
 10
-134.312500
 20
3.580757
  0
VERTEX
  8
0
 10
-135.059662
 20
3.700423
  0
VERTEX
  8
0
 10
-135.750000
 20
4.013771
  0
SEQEND
  0
POLYLINE
  8
0
 66
     1
  0
VERTEX
  8
0
 10
-124.250000
 20
6.747753
  0
VERTEX
  8
0
 10
-124.940338
 20
7.061100
  0
VERTEX
  8
0
 10
-125.687500
 20
7.180763
  0
VERTEX
  8
0
 10
-126.434662
 20
7.061098
  0
VERTEX
  8
0
 10
-127.125000
 20
6.747749
  0
SEQEND
  0
POLYLINE
  8
0
 66
     1
  0
VERTEX
  8
0
 10
-127.125000
 20
6.747749
  0
VERTEX
  8
0
 10
-128.066452
 20
6.984246
  0
VERTEX
  8
0
 10
-129.028168
 20
7.130617
  0
VERTEX
  8
0
 10
-130.000000
 20
7.180763
  0
VERTEX
  8
0
 10
-130.971832
 20
7.130617
  0
VERTEX
  8
0
 10
-131.933548
 20
6.984246
  0
VERTEX
  8
0
 10
-132.875000
 20
6.747749
  0
SEQEND
  0
POLYLINE
  8
0
 66
     1
  0
VERTEX
  8
0
 10
-132.875000
 20
6.747749
  0
VERTEX
  8
0
 10
-133.565338
 20
7.061098
  0
VERTEX
  8
0
 10
-134.312500
 20
7.180763
  0
VERTEX
  8
0
 10
-135.059662
 20
7.061098
  0
VERTEX
  8
0
 10
-135.750000
 20
6.747749
  0
SEQEND
  0
POLYLINE
  8
0
 66
     1
  0
VERTEX
  8
0
 10
-127.125000
 20
4.013771
  0
VERTEX
  8
0
 10
-128.066452
 20
3.777275
  0
VERTEX
  8
0
 10
-129.028168
 20
3.630903
  0
VERTEX
  8
0
 10
-130.000000
 20
3.580757
  0
VERTEX
  8
0
 10
-130.971832
 20
3.630903
  0
VERTEX
  8
0
 10
-131.933548
 20
3.777275
  0
VERTEX
  8
0
 10
-132.875000
 20
4.013771
  0
SEQEND
  0
POINT
  8
0
 10
135.999985
 20
-59.249275
  0
POINT
  8
0
 10
-15.000000
 20
-59.249275
  0
LINE
  8
0
 10
-20.999998
 20
-36.374260
 11
-21.000002
 21
-82.374252
  0
LINE
  8
0
 10
-31.999998
 20
-36.374260
 11
-32.000000
 21
-82.374252
  0
LINE
  8
0
 10
-29.945721
 20
-32.816147
 11
-21.499996
 21
-32.816147
  0
LINE
  8
0
 10
-29.945728
 20
-85.932373
 11
-21.500004
 21
-85.932373
  0
LINE
  8
0
 10
-21.499998
 20
-36.374260
 11
-20.999998
 21
-36.374260
  0
LINE
  8
0
 10
-21.500002
 20
-82.374252
 11
-21.000002
 21
-82.374252
  0
LINE
  8
0
 10
-21.499996
 20
-32.816147
 11
-21.500004
 21
-85.932373
  0
LINE
  8
0
 10
-31.999975
 20
-36.374252
 11
-29.945705
 21
-32.816120
  0
LINE
  8
0
 10
-31.999859
 20
-82.374176
 11
-29.945581
 21
-85.932297
  0
LINE
  8
0
 10
-70.000000
 20
-59.249256
 11
142.328629
 21
-59.249275
  0
LINE
  8
0
 10
-35.000000
 20
-59.249256
 11
-35.000000
 21
-42.249306
  0
LINE
  8
0
 10
-15.000003
 20
-91.949265
 11
-14.999997
 21
-26.549263
  0
LINE
  8
0
 10
-67.000000
 20
-53.249260
 11
-67.000000
 21
-59.249260
  0
LINE
  8
0
 10
-66.999893
 20
-53.249470
 11
-65.999908
 21
-52.249470
  0
LINE
  8
0
 10
-66.000000
 20
-52.249245
 11
-66.000000
 21
-59.249260
  0
LINE
  8
0
 10
-67.000000
 20
-53.249256
 11
-44.000000
 21
-53.249256
  0
LINE
  8
0
 10
-37.999985
 20
-52.249241
 11
-66.000000
 21
-52.249241
  0
LINE
  8
0
 10
-14.999997
 20
-26.549263
 11
116.000000
 21
-26.549274
  0
LINE
  8
0
 10
-35.000015
 20
-42.249306
 11
-31.999998
 21
-42.249306
  0
LINE
  8
0
 10
-15.000021
 20
-41.249306
 11
-20.999998
 21
-41.249306
  0
LINE
  8
0
 10
-35.000000
 20
-42.249382
 11
-34.000023
 21
-41.249382
  0
LINE
  8
0
 10
-34.000015
 20
-41.249306
 11
-34.000015
 21
-59.249256
  0
LINE
  8
0
 10
116.000000
 20
-41.249275
 11
134.500000
 21
-41.249275
  0
LINE
  8
0
 10
136.000000
 20
-59.249268
 11
136.000000
 21
-42.749283
  0
LINE
  8
0
 10
121.000000
 20
-42.249275
 11
135.500015
 21
-42.249275
  0
LINE
  8
0
 10
116.000000
 20
-26.549274
 11
116.000000
 21
-91.949280
  0
LINE
  8
0
 10
99.000000
 20
-49.669262
 11
99.000000
 21
-68.829269
  0
LINE
  8
0
 10
-20.000000
 20
-59.249260
 11
-19.999998
 21
-41.249306
  0
LINE
  8
0
 10
-44.000000
 20
-52.249241
 11
-44.000000
 21
-59.249256
  0
LINE
  8
0
 10
-37.000000
 20
-51.249260
 11
-35.000000
 21
-51.249260
  0
LINE
  8
0
 10
-37.000008
 20
-51.249264
 11
-37.999985
 21
-52.249249
  0
LINE
  8
0
 10
-35.000000
 20
-76.249222
 11
-35.000000
 21
-59.249256
  0
LINE
  8
0
 10
-67.000000
 20
-59.249260
 11
-67.000000
 21
-65.249260
  0
LINE
  8
0
 10
-65.999924
 20
-66.249130
 11
-66.999908
 21
-65.249161
  0
LINE
  8
0
 10
-66.000000
 20
-59.249260
 11
-66.000000
 21
-66.249275
  0
LINE
  8
0
 10
-44.000000
 20
-65.249260
 11
-67.000000
 21
-65.249252
  0
LINE
  8
0
 10
-66.000000
 20
-66.249260
 11
-37.999985
 21
-66.249268
  0
LINE
  8
0
 10
-20.000010
 20
-76.249222
 11
-21.000002
 21
-76.249222
  0
LINE
  8
0
 10
-34.000061
 20
-77.249222
 11
-32.000000
 21
-77.249222
  0
LINE
  8
0
 10
-33.999969
 20
-77.249107
 11
-34.999954
 21
-76.249107
  0
LINE
  8
0
 10
-34.000015
 20
-59.249256
 11
-34.000015
 21
-77.249222
  0
LINE
  8
0
 10
134.499985
 20
-77.249283
 11
116.000000
 21
-77.249283
  0
LINE
  8
0
 10
136.000000
 20
-75.749268
 11
136.000000
 21
-59.249268
  0
LINE
  8
0
 10
135.499985
 20
-76.249283
 11
121.000000
 21
-76.249283
  0
LINE
  8
0
 10
121.000000
 20
-77.249268
 11
121.000000
 21
-41.249275
  0
LINE
  8
0
 10
-20.000002
 20
-77.249222
 11
-20.000000
 21
-59.249260
  0
LINE
  8
0
 10
-44.000000
 20
-59.249256
 11
-44.000000
 21
-66.249268
  0
LINE
  8
0
 10
-35.000000
 20
-67.249252
 11
-37.000000
 21
-67.249252
  0
LINE
  8
0
 10
-37.999977
 20
-66.249245
 11
-36.999985
 21
-67.249245
  0
LINE
  8
0
 10
134.500198
 20
-41.249081
 11
136.000198
 21
-42.749084
  0
LINE
  8
0
 10
135.999924
 20
-75.749222
 11
134.499954
 21
-77.249191
  0
LINE
  8
0
 10
134.500000
 20
-41.249268
 11
134.500000
 21
-77.249268
  0
LINE
  8
0
 10
-3.000001
 20
-68.829269
 11
-2.999999
 21
-49.669258
  0
LINE
  8
0
 10
116.000000
 20
-91.949280
 11
-15.000003
 21
-91.949265
  0
LINE
  8
0
 10
-3.000004
 20
-53.499287
 11
-7.979674
 21
-56.374275
  0
LINE
  8
0
 10
-7.979663
 20
-56.374245
 11
-7.979664
 21
-62.124245
  0
LINE
  8
0
 10
-7.979656
 20
-62.124222
 11
-3.000005
 21
-64.999237
  0
LINE
  8
0
 10
-3.000039
 20
-64.999268
 11
1.979630
 21
-62.124268
  0
LINE
  8
0
 10
1.979641
 20
-62.124260
 11
1.979641
 21
-56.374260
  0
LINE
  8
0
 10
1.979630
 20
-56.374222
 11
-3.000013
 21
-53.499218
  0
LINE
  8
0
 10
-5.958057
 20
-58.749260
 11
-0.041965
 21
-58.749260
  0
LINE
  8
0
 10
-5.958057
 20
-59.749260
 11
-0.041965
 21
-59.749260
  0
LINE
  8
0
 10
103.979675
 20
-56.374268
 11
99.000023
 21
-53.499283
  0
LINE
  8
0
 10
103.979660
 20
-62.124256
 11
103.979660
 21
-56.374256
  0
LINE
  8
0
 10
99.000000
 20
-64.999252
 11
103.979652
 21
-62.124237
  0
LINE
  8
0
 10
94.020340
 20
-62.124268
 11
99.000008
 21
-64.999268
  0
LINE
  8
0
 10
94.020355
 20
-56.374271
 11
94.020355
 21
-62.124271
  0
LINE
  8
0
 10
99.000000
 20
-53.499256
 11
94.020355
 21
-56.374256
  0
LINE
  8
0
 10
96.041962
 20
-58.749271
 11
101.958054
 21
-58.749271
  0
LINE
  8
0
 10
96.041962
 20
-59.749271
 11
101.958054
 21
-59.749271
  0
LINE
  8
0
 10
-31.999998
 20
-41.249306
 11
-34.000053
 21
-41.249306
  0
LINE
  8
0
 10
-20.999998
 20
-42.249306
 11
-19.999983
 21
-42.249306
  0
LINE
  8
0
 10
-32.000000
 20
-76.249222
 11
-35.000031
 21
-76.249222
  0
LINE
  8
0
 10
-21.000002
 20
-77.249222
 11
-15.000032
 21
-77.249222
  0
LINE
  8
0
 10
8.000004
 20
-26.549267
 11
7.999996
 21
-91.949265
  0
LINE
  8
0
 10
82.000000
 20
-26.549274
 11
82.000000
 21
-91.949280
  0
CIRCLE
  8
0
 10
-3.000019
 20
-59.249260
 40
4.979652
  0
ARC
  8
0
 10
11.945757
 20
-72.653320
 40
43.945759
 50
162.412018
 51
197.587845
  0
ARC
  8
0
 10
11.945761
 20
-46.095207
 40
43.945763
 50
162.412064
 51
197.587891
  0
CIRCLE
  8
0
 10
-3.000004
 20
-59.249260
 40
3.000000
  0
CIRCLE
  8
0
 10
99.000000
 20
-59.249271
 40
3.000000
  0
CIRCLE
  8
0
 10
99.000015
 20
-59.249271
 40
4.979652
  0
CIRCLE
  8
0
 10
99.000000
 20
-59.249271
 40
7.000000
  0
CIRCLE
  8
0
 10
-3.000004
 20
-59.249260
 40
7.000000
  0
ENDSEC
  0
EOF
