  0
SECTION
  2
HEADER
  9
$ACADVER
  1
AC1009
  9
$INSBASE
 10
0.0
 20
0.0
 30
0.0
  9
$EXTMIN
 10
-399.52490234
 20
-276.5
 30
0.0
  9
$EXTMAX
 10
399.52490234
 20
276.5
 30
0.0
  9
$LIMMIN
 10
-399.52490234
 20
-276.5
  9
$LIMMAX
 10
399.52490234
 20
276.5
  9
$ORTHOMODE
 70
       0
  9
$REGENMODE
 70
       1
  9
$FILLMODE
 70
       1
  9
$QTEXTMODE
 70
       0
  9
$MIRRTEXT
 70
       1
  9
$DRAGMODE
 70
       2
  9
$LTSCALE
 40
1.0
  9
$OSMODE
 70
       0
  9
$ATTMODE
 70
       1
  9
$TEXTSIZE
 40
3.20000005
  9
$TRACEWID
 40
0.05
  9
$TEXTSTYLE
  7
MX_NOTE_STANDARD
  9
$CLAYER
  8
0
  9
$CELTYPE
  6
CONTINUOUS
  9
$CECOLOR
 62
     256
  9
$DIMSCALE
 40
1.0
  9
$DIMASZ
 40
2.5
  9
$DIMEXO
 40
1.5
  9
$DIMDLI
 40
3.75
  9
$DIMRND
 40
0.0
  9
$DIMDLE
 40
0.0
  9
$DIMEXE
 40
1.5
  9
$DIMTP
 40
0.0
  9
$DIMTM
 40
0.0
  9
$DIMTXT
 40
3.20000005
  9
$DIMCEN
 40
2.5
  9
$DIMTSZ
 40
0.0
  9
$DIMTOL
 70
       0
  9
$DIMLIM
 70
       0
  9
$DIMTIH
 70
       0
  9
$DIMTOH
 70
       0
  9
$DIMSE1
 70
       0
  9
$DIMSE2
 70
       0
  9
$DIMTAD
 70
       1
  9
$DIMZIN
 70
       8
  9
$DIMBLK
  1

  9
$DIMASO
 70
       1
  9
$DIMSHO
 70
       1
  9
$DIMPOST
  1

  9
$DIMAPOST
  1

  9
$DIMALT
 70
       0
  9
$DIMALTD
 70
       4
  9
$DIMALTF
 40
0.0394
  9
$DIMLFAC
 40
1.0
  9
$DIMTOFL
 70
       1
  9
$DIMTVP
 40
0.0
  9
$DIMTIX
 70
       0
  9
$DIMSOXD
 70
       0
  9
$DIMSAH
 70
       0
  9
$DIMBLK1
  1

  9
$DIMBLK2
  1

  9
$DIMSTYLE
  2
MXDIMSTYLE
  9
$DIMCLRD
 70
       0
  9
$DIMCLRE
 70
       0
  9
$DIMCLRT
 70
       0
  9
$DIMTFAC
 40
1.0
  9
$DIMGAP
 40
1.0
  9
$LUNITS
 70
       2
  9
$LUPREC
 70
       4
  9
$AXISMODE
 70
       0
  9
$AXISUNIT
 10
0.0
 20
0.0
  9
$SKETCHINC
 40
0.1
  9
$FILLETRAD
 40
0.0
  9
$AUNITS
 70
       0
  9
$AUPREC
 70
       0
  9
$MENU
  1
acad
  9
$ELEVATION
 40
0.0
  9
$PELEVATION
 40
0.0
  9
$THICKNESS
 40
0.0
  9
$LIMCHECK
 70
       0
  9
$BLIPMODE
 70
       1
  9
$CHAMFERA
 40
0.0
  9
$CHAMFERB
 40
0.0
  9
$SKPOLY
 70
       0
  9
$TDCREATE
 40
2452766.446388889
  9
$TDUPDATE
 40
2452766.446388889
  9
$TDINDWG
 40
0.0000000000
  9
$TDUSRTIMER
 40
0.0000000000
  9
$USRTIMER
 70
       1
  9
$ANGBASE
 50
0.0
  9
$ANGDIR
 70
       0
  9
$PDMODE
 70
       0
  9
$PDSIZE
 40
0.0
  9
$PLINEWID
 40
0.0
  9
$COORDS
 70
       1
  9
$SPLFRAME
 70
       0
  9
$SPLINETYPE
 70
       6
  9
$SPLINESEGS
 70
       8
  9
$ATTDIA
 70
       0
  9
$ATTREQ
 70
       1
  9
$HANDLING
 70
       1
  9
$HANDSEED
  5
4F2
  9
$SURFTAB1
 70
       6
  9
$SURFTAB2
 70
       6
  9
$SURFTYPE
 70
       6
  9
$SURFU
 70
       6
  9
$SURFV
 70
       6
  9
$UCSNAME
  2

  9
$UCSORG
 10
0.0
 20
0.0
 30
0.0
  9
$UCSXDIR
 10
1.0
 20
0.0
 30
0.0
  9
$UCSYDIR
 10
0.0
 20
1.0
 30
0.0
  9
$PUCSNAME
  2

  9
$PUCSORG
 10
0.0
 20
0.0
 30
0.0
  9
$PUCSXDIR
 10
1.0
 20
0.0
 30
0.0
  9
$PUCSYDIR
 10
0.0
 20
1.0
 30
0.0
  9
$USERI1
 70
       0
  9
$USERI2
 70
       0
  9
$USERI3
 70
       0
  9
$USERI4
 70
       0
  9
$USERI5
 70
       0
  9
$USERR1
 40
0.0
  9
$USERR2
 40
0.0
  9
$USERR3
 40
0.0
  9
$USERR4
 40
0.0
  9
$USERR5
 40
0.0
  9
$WORLDVIEW
 70
       1
  9
$SHADEDGE
 70
       3
  9
$SHADEDIF
 70
      70
  9
$TILEMODE
 70
       1
  9
$MAXACTVP
 70
      16
  9
$PINSBASE
 10
0.0
 20
0.0
 30
0.0
  9
$PLIMCHECK
 70
       0
  9
$PEXTMIN
 10
1.00000000E+20
 20
1.00000000E+20
 30
1.00000000E+20
  9
$PEXTMAX
 10
-1.00000000E+20
 20
-1.00000000E+20
 30
-1.00000000E+20
  9
$PLIMMIN
 10
0.0
 20
0.0
  9
$PLIMMAX
 10
12.0
 20
9.0
  9
$UNITMODE
 70
       0
  9
$VISRETAIN
 70
       0
  9
$PLINEGEN
 70
       1
  9
$PSLTSCALE
 70
       0
  9
$TREEDEPTH
 70
    3020
  9
$DWGCODEPAGE
  3
dos932
  0
ENDSEC
  0
SECTION
  2
TABLES
  0
TABLE
  2
VPORT
 70
       1
  0
VPORT
  2
*ACTIVE
 70
       0
 10
0.0
 20
0.0
 11
1.0
 21
1.0
 12
0.0
 22
0.0
 13
0.0
 23
0.0
 14
1.0
 24
1.0
 15
0.0
 25
0.0
 16
0.0
 26
0.0
 36
1.0
 17
0.0
 27
0.0
 37
0.0
 40
558.53
 41
1.73205081
 42
50.0
 43
0.0
 44
0.0
 50
0.0
 51
0.0
 71
       0
 72
     100
 73
       1
 74
       1
 75
       0
 76
       0
 77
       0
 78
       0
  0
ENDTAB
  0
TABLE
  2
LTYPE
 70
       3
  0
LTYPE
  2
CONTINUOUS
 70
      64
  3
Solid line
 72
      65
 73
       0
 40
0.0
  0
LTYPE
  2
CENTER
 70
      64
  3
Center ____ _ ____ _ ____ _ ____ _ ____ _ ____
 72
      65
 73
       4
 40
50.8
 49
31.75
 49
-6.35
 49
6.35
 49
-6.35
  0
LTYPE
  2
DASHED
 70
      64
  3
Dashed __ __ __ __ __ __ __ __ __ __ __ __ __ _
 72
      65
 73
       2
 40
19.05
 49
12.7
 49
-6.35
  0
ENDTAB
  0
TABLE
  2
LAYER
 70
       2
  0
LAYER
  2
0
 70
       0
 62
       7
  6
CONTINUOUS
  0
LAYER
  2
DEFPOINTS
 70
       0
 62
       7
  6
CONTINUOUS
  0
ENDTAB
  0
TABLE
  2
STYLE
 70
       1
  0
STYLE
  2
MX_NOTE_STANDARD
 70
       0
 40
3.20000005
 41
1.0
 50
0.0
 71
       0
 42
3.20000005
  3
txt.shx
  4
extfont.shx
  0
ENDTAB
  0
TABLE
  2
VIEW
 70
       0
  0
ENDTAB
  0
TABLE
  2
UCS
 70
       0
  0
ENDTAB
  0
TABLE
  2
APPID
 70
       1
  0
APPID
  2
ACAD
 70
       0
  0
ENDTAB
  0
TABLE
  2
DIMSTYLE
 70
       1
  0
DIMSTYLE
  2
MXDIMSTYLE
 70
       0
  3

  4

  5

  6

  7

 40
1.0
 41
2.5
 42
1.5
 43
3.75
 44
1.5
 45
0.0
 46
0.0
 47
0.0
 48
0.0
 71
       0
 72
       0
 73
       0
 74
       0
 75
       0
 76
       0
 77
       1
 78
       8
140
3.20000005
141
2.5
142
0.0
143
0.0394
144
1.0
145
0.0
146
1.0
147
1.0
170
       0
171
       4
172
       1
173
       0
174
       0
175
       0
176
       0
177
       0
178
       0
  0
ENDTAB
  0
ENDSEC
  0
SECTION
  2
BLOCKS
  0
ENDSEC
  0
SECTION
  2
ENTITIES
  0
LINE
  8
0
  6
CONTINUOUS
 62
       7
  5
1E
 10
-303.30947428
 20
-89.2
 30
0.0
 11
-321.32280268
 21
-99.6
 31
0.0
  0
LINE
  8
0
  6
CONTINUOUS
 62
       7
  5
1F
 10
-321.32280268
 20
-99.6
 30
0.0
 11
-321.32280268
 21
-120.4
 31
0.0
  0
LINE
  8
0
  6
CONTINUOUS
 62
       7
  5
20
 10
-321.32280268
 20
-120.4
 30
0.0
 11
-303.30947428
 21
-130.8
 31
0.0
  0
LINE
  8
0
  6
CONTINUOUS
 62
       7
  5
21
 10
-303.30947428
 20
-130.8
 30
0.0
 11
-285.29614588
 21
-120.4
 31
0.0
  0
LINE
  8
0
  6
CONTINUOUS
 62
       7
  5
22
 10
-285.29614588
 20
-120.4
 30
0.0
 11
-285.29614588
 21
-99.6
 31
0.0
  0
LINE
  8
0
  6
CONTINUOUS
 62
       7
  5
23
 10
-285.29614588
 20
-99.6
 30
0.0
 11
-303.30947428
 21
-89.2
 31
0.0
  0
LINE
  8
0
  6
CENTER
 62
       2
  5
25
 10
-303.30947428
 20
-82.64
 30
0.0
 11
-303.30947428
 21
-136.4
 31
0.0
  0
LINE
  8
0
  6
CENTER
 62
       2
  5
26
 10
-329.68947428
 20
-110.0
 30
0.0
 11
-277.65947428
 21
-110.0
 31
0.0
  0
CIRCLE
  8
0
  6
CONTINUOUS
 62
       7
  5
27
 10
-303.30947428
 20
-110.0
 30
0.0
 40
18.0133284
  0
LINE
  8
0
  6
CONTINUOUS
 62
       7
  5
28
 10
-296.30947428
 20
-105.95854812
 30
0.0
 11
-296.30947428
 21
-114.04145188
 31
0.0
  0
LINE
  8
0
  6
CONTINUOUS
 62
       7
  5
29
 10
-303.30444481
 20
-101.92
 30
0.0
 11
-296.30947428
 21
-105.95854812
 31
0.0
  0
LINE
  8
0
  6
CONTINUOUS
 62
       7
  5
2A
 10
-310.30947428
 20
-105.95854812
 30
0.0
 11
-303.30947428
 21
-101.91709623
 31
0.0
  0
LINE
  8
0
  6
CONTINUOUS
 62
       7
  5
2B
 10
-310.30947428
 20
-114.04145188
 30
0.0
 11
-310.30947428
 21
-105.95854812
 31
0.0
  0
LINE
  8
0
  6
CONTINUOUS
 62
       7
  5
2C
 10
-303.30947428
 20
-118.08290377
 30
0.0
 11
-310.30947428
 21
-114.04145188
 31
0.0
  0
LINE
  8
0
  6
CONTINUOUS
 62
       7
  5
2D
 10
-296.30947428
 20
-114.04145188
 30
0.0
 11
-303.30947428
 21
-118.08290377
 31
0.0
  0
CIRCLE
  8
0
  6
CONTINUOUS
 62
       7
  5
2E
 10
-303.30947428
 20
-110.0
 30
0.0
 40
5.0
  0
CIRCLE
  8
0
  6
CONTINUOUS
 62
       2
  5
2F
 10
-303.30947428
 20
-110.0
 30
0.0
 40
4.0
  0
CIRCLE
  8
0
  6
CONTINUOUS
 62
       7
  5
30
 10
-303.30947428
 20
-110.0
 30
0.0
 40
7.0
  0
CIRCLE
  8
0
  6
CONTINUOUS
 62
       7
  5
31
 10
-303.30947428
 20
-110.0
 30
0.0
 40
13.5
  0
CIRCLE
  8
0
  6
CONTINUOUS
 62
       7
  5
32
 10
-303.30947428
 20
-110.0
 30
0.0
 40
12.0
  0
CIRCLE
  8
0
  6
CONTINUOUS
 62
       7
  5
33
 10
290.03259277
 20
-110.0
 30
0.0
 40
13.5
  0
CIRCLE
  8
0
  6
CONTINUOUS
 62
       7
  5
34
 10
290.03259277
 20
-110.0
 30
0.0
 40
17.5
  0
LINE
  8
0
  6
CENTER
 62
       2
  5
35
 10
290.03
 20
-87.64
 30
0.0
 11
290.03
 21
-131.4
 31
0.0
  0
LINE
  8
0
  6
CENTER
 62
       2
  5
36
 10
268.65
 20
-110.0
 30
0.0
 11
310.68
 21
-110.0
 31
0.0
  0
POLYLINE
  8
0
  6
CONTINUOUS
 62
       7
  5
37
 66
       1
 10
0.0
 20
0.0
 30
0.0
  0
VERTEX
  8
0
  6
CONTINUOUS
 62
       7
  5
205
 10
-114.3
 20
-89.22
 30
0.0
  0
VERTEX
  8
0
  6
CONTINUOUS
 62
       7
  5
206
 10
-114.47530156
 20
-89.51236165
 30
0.0
  0
VERTEX
  8
0
  6
CONTINUOUS
 62
       7
  5
207
 10
-114.64309275
 20
-89.81101319
 30
0.0
  0
VERTEX
  8
0
  6
CONTINUOUS
 62
       7
  5
208
 10
-114.80284931
 20
-90.1155393
 30
0.0
  0
VERTEX
  8
0
  6
CONTINUOUS
 62
       7
  5
209
 10
-114.95404698
 20
-90.42552468
 30
0.0
  0
VERTEX
  8
0
  6
CONTINUOUS
 62
       7
  5
20A
 10
-115.09616154
 20
-90.74055402
 30
0.0
  0
VERTEX
  8
0
  6
CONTINUOUS
 62
       7
  5
20B
 10
-115.22866871
 20
-91.06021201
 30
0.0
  0
VERTEX
  8
0
  6
CONTINUOUS
 62
       7
  5
20C
 10
-115.35104426
 20
-91.38408334
 30
0.0
  0
VERTEX
  8
0
  6
CONTINUOUS
 62
       7
  5
20D
 10
-115.46276394
 20
-91.71175271
 30
0.0
  0
VERTEX
  8
0
  6
CONTINUOUS
 62
       7
  5
20E
 10
-115.56330349
 20
-92.04280481
 30
0.0
  0
VERTEX
  8
0
  6
CONTINUOUS
 62
       7
  5
20F
 10
-115.65213867
 20
-92.37682433
 30
0.0
  0
VERTEX
  8
0
  6
CONTINUOUS
 62
       7
  5
210
 10
-115.72874523
 20
-92.71339596
 30
0.0
  0
VERTEX
  8
0
  6
CONTINUOUS
 62
       7
  5
211
 10
-115.79259892
 20
-93.05210439
 30
0.0
  0
VERTEX
  8
0
  6
CONTINUOUS
 62
       7
  5
212
 10
-115.84317549
 20
-93.39253432
 30
0.0
  0
VERTEX
  8
0
  6
CONTINUOUS
 62
       7
  5
213
 10
-115.8799507
 20
-93.73427043
 30
0.0
  0
VERTEX
  8
0
  6
CONTINUOUS
 62
       7
  5
214
 10
-115.90240028
 20
-94.07689743
 30
0.0
  0
VERTEX
  8
0
  6
CONTINUOUS
 62
       7
  5
215
 10
-115.91
 20
-94.42
 30
0.0
  0
VERTEX
  8
0
  6
CONTINUOUS
 62
       7
  5
216
 10
-115.90240035
 20
-94.76246096
 30
0.0
  0
VERTEX
  8
0
  6
CONTINUOUS
 62
       7
  5
217
 10
-115.87995082
 20
-95.1043777
 30
0.0
  0
VERTEX
  8
0
  6
CONTINUOUS
 62
       7
  5
218
 10
-115.84317566
 20
-95.44535009
 30
0.0
  0
VERTEX
  8
0
  6
CONTINUOUS
 62
       7
  5
219
 10
-115.79259913
 20
-95.78497801
 30
0.0
  0
VERTEX
  8
0
  6
CONTINUOUS
 62
       7
  5
21A
 10
-115.72874547
 20
-96.12286134
 30
0.0
  0
VERTEX
  8
0
  6
CONTINUOUS
 62
       7
  5
21B
 10
-115.65213893
 20
-96.45859996
 30
0.0
  0
VERTEX
  8
0
  6
CONTINUOUS
 62
       7
  5
21C
 10
-115.56330375
 20
-96.79179375
 30
0.0
  0
VERTEX
  8
0
  6
CONTINUOUS
 62
       7
  5
21D
 10
-115.4627642
 20
-97.12204257
 30
0.0
  0
VERTEX
  8
0
  6
CONTINUOUS
 62
       7
  5
21E
 10
-115.35104452
 20
-97.44894631
 30
0.0
  0
VERTEX
  8
0
  6
CONTINUOUS
 62
       7
  5
21F
 10
-115.22866895
 20
-97.77210485
 30
0.0
  0
VERTEX
  8
0
  6
CONTINUOUS
 62
       7
  5
220
 10
-115.09616176
 20
-98.09111807
 30
0.0
  0
VERTEX
  8
0
  6
CONTINUOUS
 62
       7
  5
221
 10
-114.95404717
 20
-98.40558584
 30
0.0
  0
VERTEX
  8
0
  6
CONTINUOUS
 62
       7
  5
222
 10
-114.80284946
 20
-98.71510804
 30
0.0
  0
VERTEX
  8
0
  6
CONTINUOUS
 62
       7
  5
223
 10
-114.64309286
 20
-99.01928455
 30
0.0
  0
VERTEX
  8
0
  6
CONTINUOUS
 62
       7
  5
224
 10
-114.47530162
 20
-99.31771524
 30
0.0
  0
VERTEX
  8
0
  6
CONTINUOUS
 62
       7
  5
225
 10
-114.3
 20
-99.61
 30
0.0
  0
SEQEND
  8
0
  6
CONTINUOUS
 62
       7
  5
226
  0
POLYLINE
  8
0
  6
CONTINUOUS
 62
       7
  5
38
 66
       1
 10
0.0
 20
0.0
 30
0.0
  0
VERTEX
  8
0
  6
CONTINUOUS
 62
       7
  5
227
 10
-114.3
 20
-99.61
 30
0.0
  0
VERTEX
  8
0
  6
CONTINUOUS
 62
       7
  5
228
 10
-114.48882277
 20
-100.239876
 30
0.0
  0
VERTEX
  8
0
  6
CONTINUOUS
 62
       7
  5
229
 10
-114.6666497
 20
-100.87357168
 30
0.0
  0
VERTEX
  8
0
  6
CONTINUOUS
 62
       7
  5
22A
 10
-114.83331711
 20
-101.51082565
 30
0.0
  0
VERTEX
  8
0
  6
CONTINUOUS
 62
       7
  5
22B
 10
-114.9886613
 20
-102.15137653
 30
0.0
  0
VERTEX
  8
0
  6
CONTINUOUS
 62
       7
  5
22C
 10
-115.1325186
 20
-102.79496292
 30
0.0
  0
VERTEX
  8
0
  6
CONTINUOUS
 62
       7
  5
22D
 10
-115.26472531
 20
-103.44132343
 30
0.0
  0
VERTEX
  8
0
  6
CONTINUOUS
 62
       7
  5
22E
 10
-115.38511776
 20
-104.09019668
 30
0.0
  0
VERTEX
  8
0
  6
CONTINUOUS
 62
       7
  5
22F
 10
-115.49353227
 20
-104.74132128
 30
0.0
  0
VERTEX
  8
0
  6
CONTINUOUS
 62
       7
  5
230
 10
-115.58980514
 20
-105.39443584
 30
0.0
  0
VERTEX
  8
0
  6
CONTINUOUS
 62
       7
  5
231
 10
-115.67377269
 20
-106.04927897
 30
0.0
  0
VERTEX
  8
0
  6
CONTINUOUS
 62
       7
  5
232
 10
-115.74527124
 20
-106.70558928
 30
0.0
  0
VERTEX
  8
0
  6
CONTINUOUS
 62
       7
  5
233
 10
-115.8041371
 20
-107.36310539
 30
0.0
  0
VERTEX
  8
0
  6
CONTINUOUS
 62
       7
  5
234
 10
-115.8502066
 20
-108.0215659
 30
0.0
  0
VERTEX
  8
0
  6
CONTINUOUS
 62
       7
  5
235
 10
-115.88331603
 20
-108.68070944
 30
0.0
  0
VERTEX
  8
0
  6
CONTINUOUS
 62
       7
  5
236
 10
-115.90330173
 20
-109.3402746
 30
0.0
  0
VERTEX
  8
0
  6
CONTINUOUS
 62
       7
  5
237
 10
-115.91
 20
-110.0
 30
0.0
  0
VERTEX
  8
0
  6
CONTINUOUS
 62
       7
  5
238
 10
-115.90330172
 20
-110.66038269
 30
0.0
  0
VERTEX
  8
0
  6
CONTINUOUS
 62
       7
  5
239
 10
-115.88331603
 20
-111.32066974
 30
0.0
  0
VERTEX
  8
0
  6
CONTINUOUS
 62
       7
  5
23A
 10
-115.85020659
 20
-111.98058498
 30
0.0
  0
VERTEX
  8
0
  6
CONTINUOUS
 62
       7
  5
23B
 10
-115.8041371
 20
-112.63985227
 30
0.0
  0
VERTEX
  8
0
  6
CONTINUOUS
 62
       7
  5
23C
 10
-115.74527123
 20
-113.29819546
 30
0.0
  0
VERTEX
  8
0
  6
CONTINUOUS
 62
       7
  5
23D
 10
-115.67377268
 20
-113.95533839
 30
0.0
  0
VERTEX
  8
0
  6
CONTINUOUS
 62
       7
  5
23E
 10
-115.58980513
 20
-114.61100491
 30
0.0
  0
VERTEX
  8
0
  6
CONTINUOUS
 62
       7
  5
23F
 10
-115.49353226
 20
-115.26491887
 30
0.0
  0
VERTEX
  8
0
  6
CONTINUOUS
 62
       7
  5
240
 10
-115.38511776
 20
-115.91680411
 30
0.0
  0
VERTEX
  8
0
  6
CONTINUOUS
 62
       7
  5
241
 10
-115.26472531
 20
-116.56638449
 30
0.0
  0
VERTEX
  8
0
  6
CONTINUOUS
 62
       7
  5
242
 10
-115.13251859
 20
-117.21338384
 30
0.0
  0
VERTEX
  8
0
  6
CONTINUOUS
 62
       7
  5
243
 10
-114.9886613
 20
-117.85752603
 30
0.0
  0
VERTEX
  8
0
  6
CONTINUOUS
 62
       7
  5
244
 10
-114.8333171
 20
-118.49853489
 30
0.0
  0
VERTEX
  8
0
  6
CONTINUOUS
 62
       7
  5
245
 10
-114.6666497
 20
-119.13613427
 30
0.0
  0
VERTEX
  8
0
  6
CONTINUOUS
 62
       7
  5
246
 10
-114.48882277
 20
-119.77004803
 30
0.0
  0
VERTEX
  8
0
  6
CONTINUOUS
 62
       7
  5
247
 10
-114.3
 20
-120.4
 30
0.0
  0
SEQEND
  8
0
  6
CONTINUOUS
 62
       7
  5
248
  0
POLYLINE
  8
0
  6
CONTINUOUS
 62
       7
  5
39
 66
       1
 10
0.0
 20
0.0
 30
0.0
  0
VERTEX
  8
0
  6
CONTINUOUS
 62
       7
  5
249
 10
-114.3
 20
-120.4
 30
0.0
  0
VERTEX
  8
0
  6
CONTINUOUS
 62
       7
  5
24A
 10
-114.47530163
 20
-120.69232001
 30
0.0
  0
VERTEX
  8
0
  6
CONTINUOUS
 62
       7
  5
24B
 10
-114.64309286
 20
-120.99084704
 30
0.0
  0
VERTEX
  8
0
  6
CONTINUOUS
 62
       7
  5
24C
 10
-114.80284947
 20
-121.29516686
 30
0.0
  0
VERTEX
  8
0
  6
CONTINUOUS
 62
       7
  5
24D
 10
-114.95404718
 20
-121.60486526
 30
0.0
  0
VERTEX
  8
0
  6
CONTINUOUS
 62
       7
  5
24E
 10
-115.09616177
 20
-121.91952801
 30
0.0
  0
VERTEX
  8
0
  6
CONTINUOUS
 62
       7
  5
24F
 10
-115.22866896
 20
-122.23874091
 30
0.0
  0
VERTEX
  8
0
  6
CONTINUOUS
 62
       7
  5
250
 10
-115.35104453
 20
-122.56208974
 30
0.0
  0
VERTEX
  8
0
  6
CONTINUOUS
 62
       7
  5
251
 10
-115.46276421
 20
-122.88916027
 30
0.0
  0
VERTEX
  8
0
  6
CONTINUOUS
 62
       7
  5
252
 10
-115.56330376
 20
-123.2195383
 30
0.0
  0
VERTEX
  8
0
  6
CONTINUOUS
 62
       7
  5
253
 10
-115.65213893
 20
-123.5528096
 30
0.0
  0
VERTEX
  8
0
  6
CONTINUOUS
 62
       7
  5
254
 10
-115.72874547
 20
-123.88855996
 30
0.0
  0
VERTEX
  8
0
  6
CONTINUOUS
 62
       7
  5
255
 10
-115.79259913
 20
-124.22637516
 30
0.0
  0
VERTEX
  8
0
  6
CONTINUOUS
 62
       7
  5
256
 10
-115.84317567
 20
-124.56584098
 30
0.0
  0
VERTEX
  8
0
  6
CONTINUOUS
 62
       7
  5
257
 10
-115.87995082
 20
-124.9065432
 30
0.0
  0
VERTEX
  8
0
  6
CONTINUOUS
 62
       7
  5
258
 10
-115.90240035
 20
-125.24806761
 30
0.0
  0
VERTEX
  8
0
  6
CONTINUOUS
 62
       7
  5
259
 10
-115.91
 20
-125.59
 30
0.0
  0
VERTEX
  8
0
  6
CONTINUOUS
 62
       7
  5
25A
 10
-115.90240028
 20
-125.93257306
 30
0.0
  0
VERTEX
  8
0
  6
CONTINUOUS
 62
       7
  5
25B
 10
-115.8799507
 20
-126.27480705
 30
0.0
  0
VERTEX
  8
0
  6
CONTINUOUS
 62
       7
  5
25C
 10
-115.84317549
 20
-126.61627253
 30
0.0
  0
VERTEX
  8
0
  6
CONTINUOUS
 62
       7
  5
25D
 10
-115.79259892
 20
-126.95654008
 30
0.0
  0
VERTEX
  8
0
  6
CONTINUOUS
 62
       7
  5
25E
 10
-115.72874523
 20
-127.29518027
 30
0.0
  0
VERTEX
  8
0
  6
CONTINUOUS
 62
       7
  5
25F
 10
-115.65213867
 20
-127.63176366
 30
0.0
  0
VERTEX
  8
0
  6
CONTINUOUS
 62
       7
  5
260
 10
-115.56330348
 20
-127.96586084
 30
0.0
  0
VERTEX
  8
0
  6
CONTINUOUS
 62
       7
  5
261
 10
-115.46276393
 20
-128.29704237
 30
0.0
  0
VERTEX
  8
0
  6
CONTINUOUS
 62
       7
  5
262
 10
-115.35104425
 20
-128.62487883
 30
0.0
  0
VERTEX
  8
0
  6
CONTINUOUS
 62
       7
  5
263
 10
-115.2286687
 20
-128.94894079
 30
0.0
  0
VERTEX
  8
0
  6
CONTINUOUS
 62
       7
  5
264
 10
-115.09616153
 20
-129.26879881
 30
0.0
  0
VERTEX
  8
0
  6
CONTINUOUS
 62
       7
  5
265
 10
-114.95404698
 20
-129.58402348
 30
0.0
  0
VERTEX
  8
0
  6
CONTINUOUS
 62
       7
  5
266
 10
-114.8028493
 20
-129.89418536
 30
0.0
  0
VERTEX
  8
0
  6
CONTINUOUS
 62
       7
  5
267
 10
-114.64309274
 20
-130.19885503
 30
0.0
  0
VERTEX
  8
0
  6
CONTINUOUS
 62
       7
  5
268
 10
-114.47530156
 20
-130.49760305
 30
0.0
  0
VERTEX
  8
0
  6
CONTINUOUS
 62
       7
  5
269
 10
-114.3
 20
-130.79
 30
0.0
  0
SEQEND
  8
0
  6
CONTINUOUS
 62
       7
  5
26A
  0
POLYLINE
  8
0
  6
CONTINUOUS
 62
       7
  5
3A
 66
       1
 10
0.0
 20
0.0
 30
0.0
  0
VERTEX
  8
0
  6
CONTINUOUS
 62
       7
  5
26B
 10
-122.7
 20
-106.69
 30
0.0
  0
VERTEX
  8
0
  6
CONTINUOUS
 62
       7
  5
26C
 10
-122.80949463
 20
-106.87737485
 30
0.0
  0
VERTEX
  8
0
  6
CONTINUOUS
 62
       7
  5
26D
 10
-122.91416677
 20
-107.06852188
 30
0.0
  0
VERTEX
  8
0
  6
CONTINUOUS
 62
       7
  5
26E
 10
-123.01370712
 20
-107.26318989
 30
0.0
  0
VERTEX
  8
0
  6
CONTINUOUS
 62
       7
  5
26F
 10
-123.10780636
 20
-107.46112773
 30
0.0
  0
VERTEX
  8
0
  6
CONTINUOUS
 62
       7
  5
270
 10
-123.19615518
 20
-107.66208421
 30
0.0
  0
VERTEX
  8
0
  6
CONTINUOUS
 62
       7
  5
271
 10
-123.27844425
 20
-107.86580816
 30
0.0
  0
VERTEX
  8
0
  6
CONTINUOUS
 62
       7
  5
272
 10
-123.35436427
 20
-108.0720484
 30
0.0
  0
VERTEX
  8
0
  6
CONTINUOUS
 62
       7
  5
273
 10
-123.42360592
 20
-108.28055376
 30
0.0
  0
VERTEX
  8
0
  6
CONTINUOUS
 62
       7
  5
274
 10
-123.48585989
 20
-108.49107307
 30
0.0
  0
VERTEX
  8
0
  6
CONTINUOUS
 62
       7
  5
275
 10
-123.54081685
 20
-108.70335515
 30
0.0
  0
VERTEX
  8
0
  6
CONTINUOUS
 62
       7
  5
276
 10
-123.5881675
 20
-108.91714882
 30
0.0
  0
VERTEX
  8
0
  6
CONTINUOUS
 62
       7
  5
277
 10
-123.62760252
 20
-109.13220292
 30
0.0
  0
VERTEX
  8
0
  6
CONTINUOUS
 62
       7
  5
278
 10
-123.6588126
 20
-109.34826626
 30
0.0
  0
VERTEX
  8
0
  6
CONTINUOUS
 62
       7
  5
279
 10
-123.68148841
 20
-109.56508767
 30
0.0
  0
VERTEX
  8
0
  6
CONTINUOUS
 62
       7
  5
27A
 10
-123.69532065
 20
-109.78241597
 30
0.0
  0
VERTEX
  8
0
  6
CONTINUOUS
 62
       7
  5
27B
 10
-123.7
 20
-110.0
 30
0.0
  0
VERTEX
  8
0
  6
CONTINUOUS
 62
       7
  5
27C
 10
-123.69532033
 20
-110.21822594
 30
0.0
  0
VERTEX
  8
0
  6
CONTINUOUS
 62
       7
  5
27D
 10
-123.68148791
 20
-110.43626474
 30
0.0
  0
VERTEX
  8
0
  6
CONTINUOUS
 62
       7
  5
27E
 10
-123.65881204
 20
-110.65385003
 30
0.0
  0
VERTEX
  8
0
  6
CONTINUOUS
 62
       7
  5
27F
 10
-123.62760201
 20
-110.87071547
 30
0.0
  0
VERTEX
  8
0
  6
CONTINUOUS
 62
       7
  5
280
 10
-123.58816711
 20
-111.08659471
 30
0.0
  0
VERTEX
  8
0
  6
CONTINUOUS
 62
       7
  5
281
 10
-123.54081664
 20
-111.30122139
 30
0.0
  0
VERTEX
  8
0
  6
CONTINUOUS
 62
       7
  5
282
 10
-123.48585989
 20
-111.51432916
 30
0.0
  0
VERTEX
  8
0
  6
CONTINUOUS
 62
       7
  5
283
 10
-123.42360615
 20
-111.72565166
 30
0.0
  0
VERTEX
  8
0
  6
CONTINUOUS
 62
       7
  5
284
 10
-123.35436473
 20
-111.93492255
 30
0.0
  0
VERTEX
  8
0
  6
CONTINUOUS
 62
       7
  5
285
 10
-123.2784449
 20
-112.14187548
 30
0.0
  0
VERTEX
  8
0
  6
CONTINUOUS
 62
       7
  5
286
 10
-123.19615597
 20
-112.34624409
 30
0.0
  0
VERTEX
  8
0
  6
CONTINUOUS
 62
       7
  5
287
 10
-123.10780722
 20
-112.54776202
 30
0.0
  0
VERTEX
  8
0
  6
CONTINUOUS
 62
       7
  5
288
 10
-123.01370796
 20
-112.74616293
 30
0.0
  0
VERTEX
  8
0
  6
CONTINUOUS
 62
       7
  5
289
 10
-122.91416747
 20
-112.94118047
 30
0.0
  0
VERTEX
  8
0
  6
CONTINUOUS
 62
       7
  5
28A
 10
-122.80949506
 20
-113.13254827
 30
0.0
  0
VERTEX
  8
0
  6
CONTINUOUS
 62
       7
  5
28B
 10
-122.7
 20
-113.32
 30
0.0
  0
SEQEND
  8
0
  6
CONTINUOUS
 62
       7
  5
28C
  0
POLYLINE
  8
0
  6
CONTINUOUS
 62
       7
  5
3B
 66
       1
 10
0.0
 20
0.0
 30
0.0
  0
VERTEX
  8
0
  6
CONTINUOUS
 62
       7
  5
28D
 10
-118.7
 20
-106.69
 30
0.0
  0
VERTEX
  8
0
  6
CONTINUOUS
 62
       7
  5
28E
 10
-118.59050484
 20
-106.87737467
 30
0.0
  0
VERTEX
  8
0
  6
CONTINUOUS
 62
       7
  5
28F
 10
-118.48583232
 20
-107.06852153
 30
0.0
  0
VERTEX
  8
0
  6
CONTINUOUS
 62
       7
  5
290
 10
-118.38629174
 20
-107.26318942
 30
0.0
  0
VERTEX
  8
0
  6
CONTINUOUS
 62
       7
  5
291
 10
-118.29219239
 20
-107.46112714
 30
0.0
  0
VERTEX
  8
0
  6
CONTINUOUS
 62
       7
  5
292
 10
-118.20384357
 20
-107.66208353
 30
0.0
  0
VERTEX
  8
0
  6
CONTINUOUS
 62
       7
  5
293
 10
-118.12155458
 20
-107.86580741
 30
0.0
  0
VERTEX
  8
0
  6
CONTINUOUS
 62
       7
  5
294
 10
-118.0456347
 20
-108.07204762
 30
0.0
  0
VERTEX
  8
0
  6
CONTINUOUS
 62
       7
  5
295
 10
-117.97639324
 20
-108.28055296
 30
0.0
  0
VERTEX
  8
0
  6
CONTINUOUS
 62
       7
  5
296
 10
-117.91413949
 20
-108.49107228
 30
0.0
  0
VERTEX
  8
0
  6
CONTINUOUS
 62
       7
  5
297
 10
-117.85918275
 20
-108.70335439
 30
0.0
  0
VERTEX
  8
0
  6
CONTINUOUS
 62
       7
  5
298
 10
-117.81183231
 20
-108.91714813
 30
0.0
  0
VERTEX
  8
0
  6
CONTINUOUS
 62
       7
  5
299
 10
-117.77239747
 20
-109.13220231
 30
0.0
  0
VERTEX
  8
0
  6
CONTINUOUS
 62
       7
  5
29A
 10
-117.74118752
 20
-109.34826576
 30
0.0
  0
VERTEX
  8
0
  6
CONTINUOUS
 62
       7
  5
29B
 10
-117.71851176
 20
-109.56508731
 30
0.0
  0
VERTEX
  8
0
  6
CONTINUOUS
 62
       7
  5
29C
 10
-117.70467949
 20
-109.78241578
 30
0.0
  0
VERTEX
  8
0
  6
CONTINUOUS
 62
       7
  5
29D
 10
-117.7
 20
-110.0
 30
0.0
  0
VERTEX
  8
0
  6
CONTINUOUS
 62
       7
  5
29E
 10
-117.70467949
 20
-110.21822613
 30
0.0
  0
VERTEX
  8
0
  6
CONTINUOUS
 62
       7
  5
29F
 10
-117.71851176
 20
-110.43626507
 30
0.0
  0
VERTEX
  8
0
  6
CONTINUOUS
 62
       7
  5
2A0
 10
-117.74118752
 20
-110.65385047
 30
0.0
  0
VERTEX
  8
0
  6
CONTINUOUS
 62
       7
  5
2A1
 10
-117.77239746
 20
-110.87071598
 30
0.0
  0
VERTEX
  8
0
  6
CONTINUOUS
 62
       7
  5
2A2
 10
-117.81183231
 20
-111.08659525
 30
0.0
  0
VERTEX
  8
0
  6
CONTINUOUS
 62
       7
  5
2A3
 10
-117.85918275
 20
-111.30122195
 30
0.0
  0
VERTEX
  8
0
  6
CONTINUOUS
 62
       7
  5
2A4
 10
-117.91413949
 20
-111.5143297
 30
0.0
  0
VERTEX
  8
0
  6
CONTINUOUS
 62
       7
  5
2A5
 10
-117.97639324
 20
-111.72565218
 30
0.0
  0
VERTEX
  8
0
  6
CONTINUOUS
 62
       7
  5
2A6
 10
-118.0456347
 20
-111.93492302
 30
0.0
  0
VERTEX
  8
0
  6
CONTINUOUS
 62
       7
  5
2A7
 10
-118.12155458
 20
-112.14187589
 30
0.0
  0
VERTEX
  8
0
  6
CONTINUOUS
 62
       7
  5
2A8
 10
-118.20384357
 20
-112.34624443
 30
0.0
  0
VERTEX
  8
0
  6
CONTINUOUS
 62
       7
  5
2A9
 10
-118.29219239
 20
-112.54776229
 30
0.0
  0
VERTEX
  8
0
  6
CONTINUOUS
 62
       7
  5
2AA
 10
-118.38629174
 20
-112.74616313
 30
0.0
  0
VERTEX
  8
0
  6
CONTINUOUS
 62
       7
  5
2AB
 10
-118.48583232
 20
-112.94118059
 30
0.0
  0
VERTEX
  8
0
  6
CONTINUOUS
 62
       7
  5
2AC
 10
-118.59050484
 20
-113.13254833
 30
0.0
  0
VERTEX
  8
0
  6
CONTINUOUS
 62
       7
  5
2AD
 10
-118.7
 20
-113.32
 30
0.0
  0
SEQEND
  8
0
  6
CONTINUOUS
 62
       7
  5
2AE
  0
POLYLINE
  8
0
  6
CONTINUOUS
 62
       7
  5
3C
 66
       1
 10
0.0
 20
0.0
 30
0.0
  0
VERTEX
  8
0
  6
CONTINUOUS
 62
       7
  5
2AF
 10
-134.82
 20
-114.05
 30
0.0
  0
VERTEX
  8
0
  6
CONTINUOUS
 62
       7
  5
2B0
 10
-134.7518958
 20
-114.16368498
 30
0.0
  0
VERTEX
  8
0
  6
CONTINUOUS
 62
       7
  5
2B1
 10
-134.68683763
 20
-114.27979422
 30
0.0
  0
VERTEX
  8
0
  6
CONTINUOUS
 62
       7
  5
2B2
 10
-134.62501146
 20
-114.39816725
 30
0.0
  0
VERTEX
  8
0
  6
CONTINUOUS
 62
       7
  5
2B3
 10
-134.56660326
 20
-114.51864358
 30
0.0
  0
VERTEX
  8
0
  6
CONTINUOUS
 62
       7
  5
2B4
 10
-134.51179899
 20
-114.64106272
 30
0.0
  0
VERTEX
  8
0
  6
CONTINUOUS
 62
       7
  5
2B5
 10
-134.46078464
 20
-114.76526418
 30
0.0
  0
VERTEX
  8
0
  6
CONTINUOUS
 62
       7
  5
2B6
 10
-134.41374618
 20
-114.89108749
 30
0.0
  0
VERTEX
  8
0
  6
CONTINUOUS
 62
       7
  5
2B7
 10
-134.37086956
 20
-115.01837215
 30
0.0
  0
VERTEX
  8
0
  6
CONTINUOUS
 62
       7
  5
2B8
 10
-134.33234078
 20
-115.14695768
 30
0.0
  0
VERTEX
  8
0
  6
CONTINUOUS
 62
       7
  5
2B9
 10
-134.29834579
 20
-115.2766836
 30
0.0
  0
VERTEX
  8
0
  6
CONTINUOUS
 62
       7
  5
2BA
 10
-134.26907057
 20
-115.40738942
 30
0.0
  0
VERTEX
  8
0
  6
CONTINUOUS
 62
       7
  5
2BB
 10
-134.24470109
 20
-115.53891465
 30
0.0
  0
VERTEX
  8
0
  6
CONTINUOUS
 62
       7
  5
2BC
 10
-134.22542332
 20
-115.67109881
 30
0.0
  0
VERTEX
  8
0
  6
CONTINUOUS
 62
       7
  5
2BD
 10
-134.21142323
 20
-115.80378141
 30
0.0
  0
VERTEX
  8
0
  6
CONTINUOUS
 62
       7
  5
2BE
 10
-134.2028868
 20
-115.93680197
 30
0.0
  0
VERTEX
  8
0
  6
CONTINUOUS
 62
       7
  5
2BF
 10
-134.2
 20
-116.07
 30
0.0
  0
VERTEX
  8
0
  6
CONTINUOUS
 62
       7
  5
2C0
 10
-134.2028868
 20
-116.20319803
 30
0.0
  0
VERTEX
  8
0
  6
CONTINUOUS
 62
       7
  5
2C1
 10
-134.21142323
 20
-116.33621859
 30
0.0
  0
VERTEX
  8
0
  6
CONTINUOUS
 62
       7
  5
2C2
 10
-134.22542332
 20
-116.46890119
 30
0.0
  0
VERTEX
  8
0
  6
CONTINUOUS
 62
       7
  5
2C3
 10
-134.24470108
 20
-116.60108535
 30
0.0
  0
VERTEX
  8
0
  6
CONTINUOUS
 62
       7
  5
2C4
 10
-134.26907056
 20
-116.73261058
 30
0.0
  0
VERTEX
  8
0
  6
CONTINUOUS
 62
       7
  5
2C5
 10
-134.29834578
 20
-116.8633164
 30
0.0
  0
VERTEX
  8
0
  6
CONTINUOUS
 62
       7
  5
2C6
 10
-134.33234077
 20
-116.99304232
 30
0.0
  0
VERTEX
  8
0
  6
CONTINUOUS
 62
       7
  5
2C7
 10
-134.37086956
 20
-117.12162785
 30
0.0
  0
VERTEX
  8
0
  6
CONTINUOUS
 62
       7
  5
2C8
 10
-134.41374617
 20
-117.24891251
 30
0.0
  0
VERTEX
  8
0
  6
CONTINUOUS
 62
       7
  5
2C9
 10
-134.46078464
 20
-117.37473582
 30
0.0
  0
VERTEX
  8
0
  6
CONTINUOUS
 62
       7
  5
2CA
 10
-134.51179899
 20
-117.49893728
 30
0.0
  0
VERTEX
  8
0
  6
CONTINUOUS
 62
       7
  5
2CB
 10
-134.56660326
 20
-117.62135642
 30
0.0
  0
VERTEX
  8
0
  6
CONTINUOUS
 62
       7
  5
2CC
 10
-134.62501146
 20
-117.74183275
 30
0.0
  0
VERTEX
  8
0
  6
CONTINUOUS
 62
       7
  5
2CD
 10
-134.68683763
 20
-117.86020578
 30
0.0
  0
VERTEX
  8
0
  6
CONTINUOUS
 62
       7
  5
2CE
 10
-134.7518958
 20
-117.97631502
 30
0.0
  0
VERTEX
  8
0
  6
CONTINUOUS
 62
       7
  5
2CF
 10
-134.82
 20
-118.09
 30
0.0
  0
SEQEND
  8
0
  6
CONTINUOUS
 62
       7
  5
2D0
  0
POLYLINE
  8
0
  6
CONTINUOUS
 62
       7
  5
3D
 66
       1
 10
0.0
 20
0.0
 30
0.0
  0
VERTEX
  8
0
  6
CONTINUOUS
 62
       7
  5
2D1
 10
-139.57
 20
-114.05
 30
0.0
  0
VERTEX
  8
0
  6
CONTINUOUS
 62
       7
  5
2D2
 10
-139.6382165
 20
-114.16368498
 30
0.0
  0
VERTEX
  8
0
  6
CONTINUOUS
 62
       7
  5
2D3
 10
-139.70359205
 20
-114.27979422
 30
0.0
  0
VERTEX
  8
0
  6
CONTINUOUS
 62
       7
  5
2D4
 10
-139.76591139
 20
-114.39816725
 30
0.0
  0
VERTEX
  8
0
  6
CONTINUOUS
 62
       7
  5
2D5
 10
-139.82495924
 20
-114.51864358
 30
0.0
  0
VERTEX
  8
0
  6
CONTINUOUS
 62
       7
  5
2D6
 10
-139.88052034
 20
-114.64106272
 30
0.0
  0
VERTEX
  8
0
  6
CONTINUOUS
 62
       7
  5
2D7
 10
-139.93237942
 20
-114.76526418
 30
0.0
  0
VERTEX
  8
0
  6
CONTINUOUS
 62
       7
  5
2D8
 10
-139.98032121
 20
-114.89108749
 30
0.0
  0
VERTEX
  8
0
  6
CONTINUOUS
 62
       7
  5
2D9
 10
-140.02413044
 20
-115.01837215
 30
0.0
  0
VERTEX
  8
0
  6
CONTINUOUS
 62
       7
  5
2DA
 10
-140.06359184
 20
-115.14695768
 30
0.0
  0
VERTEX
  8
0
  6
CONTINUOUS
 62
       7
  5
2DB
 10
-140.09849015
 20
-115.2766836
 30
0.0
  0
VERTEX
  8
0
  6
CONTINUOUS
 62
       7
  5
2DC
 10
-140.1286101
 20
-115.40738942
 30
0.0
  0
VERTEX
  8
0
  6
CONTINUOUS
 62
       7
  5
2DD
 10
-140.15373641
 20
-115.53891465
 30
0.0
  0
VERTEX
  8
0
  6
CONTINUOUS
 62
       7
  5
2DE
 10
-140.17365383
 20
-115.67109881
 30
0.0
  0
VERTEX
  8
0
  6
CONTINUOUS
 62
       7
  5
2DF
 10
-140.18814708
 20
-115.80378141
 30
0.0
  0
VERTEX
  8
0
  6
CONTINUOUS
 62
       7
  5
2E0
 10
-140.19700089
 20
-115.93680197
 30
0.0
  0
VERTEX
  8
0
  6
CONTINUOUS
 62
       7
  5
2E1
 10
-140.2
 20
-116.07
 30
0.0
  0
VERTEX
  8
0
  6
CONTINUOUS
 62
       7
  5
2E2
 10
-140.19700089
 20
-116.20319803
 30
0.0
  0
VERTEX
  8
0
  6
CONTINUOUS
 62
       7
  5
2E3
 10
-140.18814708
 20
-116.33621859
 30
0.0
  0
VERTEX
  8
0
  6
CONTINUOUS
 62
       7
  5
2E4
 10
-140.17365383
 20
-116.46890119
 30
0.0
  0
VERTEX
  8
0
  6
CONTINUOUS
 62
       7
  5
2E5
 10
-140.15373642
 20
-116.60108535
 30
0.0
  0
VERTEX
  8
0
  6
CONTINUOUS
 62
       7
  5
2E6
 10
-140.1286101
 20
-116.73261058
 30
0.0
  0
VERTEX
  8
0
  6
CONTINUOUS
 62
       7
  5
2E7
 10
-140.09849015
 20
-116.8633164
 30
0.0
  0
VERTEX
  8
0
  6
CONTINUOUS
 62
       7
  5
2E8
 10
-140.06359184
 20
-116.99304232
 30
0.0
  0
VERTEX
  8
0
  6
CONTINUOUS
 62
       7
  5
2E9
 10
-140.02413044
 20
-117.12162785
 30
0.0
  0
VERTEX
  8
0
  6
CONTINUOUS
 62
       7
  5
2EA
 10
-139.98032121
 20
-117.24891251
 30
0.0
  0
VERTEX
  8
0
  6
CONTINUOUS
 62
       7
  5
2EB
 10
-139.93237942
 20
-117.37473582
 30
0.0
  0
VERTEX
  8
0
  6
CONTINUOUS
 62
       7
  5
2EC
 10
-139.88052034
 20
-117.49893728
 30
0.0
  0
VERTEX
  8
0
  6
CONTINUOUS
 62
       7
  5
2ED
 10
-139.82495924
 20
-117.62135642
 30
0.0
  0
VERTEX
  8
0
  6
CONTINUOUS
 62
       7
  5
2EE
 10
-139.76591139
 20
-117.74183275
 30
0.0
  0
VERTEX
  8
0
  6
CONTINUOUS
 62
       7
  5
2EF
 10
-139.70359205
 20
-117.86020578
 30
0.0
  0
VERTEX
  8
0
  6
CONTINUOUS
 62
       7
  5
2F0
 10
-139.6382165
 20
-117.97631502
 30
0.0
  0
VERTEX
  8
0
  6
CONTINUOUS
 62
       7
  5
2F1
 10
-139.57
 20
-118.09
 30
0.0
  0
SEQEND
  8
0
  6
CONTINUOUS
 62
       7
  5
2F2
  0
POLYLINE
  8
0
  6
CONTINUOUS
 62
       7
  5
3E
 66
       1
 10
0.0
 20
0.0
 30
0.0
  0
VERTEX
  8
0
  6
CONTINUOUS
 62
       7
  5
2F3
 10
-139.57
 20
-105.96
 30
0.0
  0
VERTEX
  8
0
  6
CONTINUOUS
 62
       7
  5
2F4
 10
-139.64347471
 20
-106.20496759
 30
0.0
  0
VERTEX
  8
0
  6
CONTINUOUS
 62
       7
  5
2F5
 10
-139.71275303
 20
-106.45144762
 30
0.0
  0
VERTEX
  8
0
  6
CONTINUOUS
 62
       7
  5
2F6
 10
-139.7777599
 20
-106.69933119
 30
0.0
  0
VERTEX
  8
0
  6
CONTINUOUS
 62
       7
  5
2F7
 10
-139.83842027
 20
-106.94850942
 30
0.0
  0
VERTEX
  8
0
  6
CONTINUOUS
 62
       7
  5
2F8
 10
-139.89465909
 20
-107.19887344
 30
0.0
  0
VERTEX
  8
0
  6
CONTINUOUS
 62
       7
  5
2F9
 10
-139.94640132
 20
-107.45031438
 30
0.0
  0
VERTEX
  8
0
  6
CONTINUOUS
 62
       7
  5
2FA
 10
-139.9935719
 20
-107.70272333
 30
0.0
  0
VERTEX
  8
0
  6
CONTINUOUS
 62
       7
  5
2FB
 10
-140.03609579
 20
-107.95599144
 30
0.0
  0
VERTEX
  8
0
  6
CONTINUOUS
 62
       7
  5
2FC
 10
-140.07389794
 20
-108.21000981
 30
0.0
  0
VERTEX
  8
0
  6
CONTINUOUS
 62
       7
  5
2FD
 10
-140.10690329
 20
-108.46466957
 30
0.0
  0
VERTEX
  8
0
  6
CONTINUOUS
 62
       7
  5
2FE
 10
-140.1350368
 20
-108.71986184
 30
0.0
  0
VERTEX
  8
0
  6
CONTINUOUS
 62
       7
  5
2FF
 10
-140.15822342
 20
-108.97547774
 30
0.0
  0
VERTEX
  8
0
  6
CONTINUOUS
 62
       7
  5
300
 10
-140.1763881
 20
-109.23140838
 30
0.0
  0
VERTEX
  8
0
  6
CONTINUOUS
 62
       7
  5
301
 10
-140.18945579
 20
-109.48754489
 30
0.0
  0
VERTEX
  8
0
  6
CONTINUOUS
 62
       7
  5
302
 10
-140.19735144
 20
-109.74377839
 30
0.0
  0
VERTEX
  8
0
  6
CONTINUOUS
 62
       7
  5
303
 10
-140.2
 20
-110.0
 30
0.0
  0
VERTEX
  8
0
  6
CONTINUOUS
 62
       7
  5
304
 10
-140.19735144
 20
-110.25687802
 30
0.0
  0
VERTEX
  8
0
  6
CONTINUOUS
 62
       7
  5
305
 10
-140.18945579
 20
-110.51383275
 30
0.0
  0
VERTEX
  8
0
  6
CONTINUOUS
 62
       7
  5
306
 10
-140.1763881
 20
-110.77074052
 30
0.0
  0
VERTEX
  8
0
  6
CONTINUOUS
 62
       7
  5
307
 10
-140.15822342
 20
-111.02747767
 30
0.0
  0
VERTEX
  8
0
  6
CONTINUOUS
 62
       7
  5
308
 10
-140.1350368
 20
-111.28392053
 30
0.0
  0
VERTEX
  8
0
  6
CONTINUOUS
 62
       7
  5
309
 10
-140.10690329
 20
-111.53994544
 30
0.0
  0
VERTEX
  8
0
  6
CONTINUOUS
 62
       7
  5
30A
 10
-140.07389794
 20
-111.79542872
 30
0.0
  0
VERTEX
  8
0
  6
CONTINUOUS
 62
       7
  5
30B
 10
-140.0360958
 20
-112.0502467
 30
0.0
  0
VERTEX
  8
0
  6
CONTINUOUS
 62
       7
  5
30C
 10
-139.99357191
 20
-112.30427573
 30
0.0
  0
VERTEX
  8
0
  6
CONTINUOUS
 62
       7
  5
30D
 10
-139.94640132
 20
-112.55739213
 30
0.0
  0
VERTEX
  8
0
  6
CONTINUOUS
 62
       7
  5
30E
 10
-139.89465909
 20
-112.80947224
 30
0.0
  0
VERTEX
  8
0
  6
CONTINUOUS
 62
       7
  5
30F
 10
-139.83842027
 20
-113.06039238
 30
0.0
  0
VERTEX
  8
0
  6
CONTINUOUS
 62
       7
  5
310
 10
-139.7777599
 20
-113.3100289
 30
0.0
  0
VERTEX
  8
0
  6
CONTINUOUS
 62
       7
  5
311
 10
-139.71275303
 20
-113.55825812
 30
0.0
  0
VERTEX
  8
0
  6
CONTINUOUS
 62
       7
  5
312
 10
-139.64347471
 20
-113.80495637
 30
0.0
  0
VERTEX
  8
0
  6
CONTINUOUS
 62
       7
  5
313
 10
-139.57
 20
-114.05
 30
0.0
  0
SEQEND
  8
0
  6
CONTINUOUS
 62
       7
  5
314
  0
POLYLINE
  8
0
  6
CONTINUOUS
 62
       7
  5
3F
 66
       1
 10
0.0
 20
0.0
 30
0.0
  0
VERTEX
  8
0
  6
CONTINUOUS
 62
       7
  5
315
 10
-134.82
 20
-105.96
 30
0.0
  0
VERTEX
  8
0
  6
CONTINUOUS
 62
       7
  5
316
 10
-134.74663759
 20
-106.20496762
 30
0.0
  0
VERTEX
  8
0
  6
CONTINUOUS
 62
       7
  5
317
 10
-134.67767666
 20
-106.45144772
 30
0.0
  0
VERTEX
  8
0
  6
CONTINUOUS
 62
       7
  5
318
 10
-134.61316295
 20
-106.6993314
 30
0.0
  0
VERTEX
  8
0
  6
CONTINUOUS
 62
       7
  5
319
 10
-134.55314223
 20
-106.94850977
 30
0.0
  0
VERTEX
  8
0
  6
CONTINUOUS
 62
       7
  5
31A
 10
-134.49766024
 20
-107.19887394
 30
0.0
  0
VERTEX
  8
0
  6
CONTINUOUS
 62
       7
  5
31B
 10
-134.44676274
 20
-107.45031502
 30
0.0
  0
VERTEX
  8
0
  6
CONTINUOUS
 62
       7
  5
31C
 10
-134.40049548
 20
-107.70272413
 30
0.0
  0
VERTEX
  8
0
  6
CONTINUOUS
 62
       7
  5
31D
 10
-134.35890421
 20
-107.95599236
 30
0.0
  0
VERTEX
  8
0
  6
CONTINUOUS
 62
       7
  5
31E
 10
-134.32203468
 20
-108.21001083
 30
0.0
  0
VERTEX
  8
0
  6
CONTINUOUS
 62
       7
  5
31F
 10
-134.28993265
 20
-108.46467065
 30
0.0
  0
VERTEX
  8
0
  6
CONTINUOUS
 62
       7
  5
320
 10
-134.26264386
 20
-108.71986293
 30
0.0
  0
VERTEX
  8
0
  6
CONTINUOUS
 62
       7
  5
321
 10
-134.24021408
 20
-108.97547878
 30
0.0
  0
VERTEX
  8
0
  6
CONTINUOUS
 62
       7
  5
322
 10
-134.22268905
 20
-109.2314093
 30
0.0
  0
VERTEX
  8
0
  6
CONTINUOUS
 62
       7
  5
323
 10
-134.21011452
 20
-109.4875456
 30
0.0
  0
VERTEX
  8
0
  6
CONTINUOUS
 62
       7
  5
324
 10
-134.20253626
 20
-109.7437788
 30
0.0
  0
VERTEX
  8
0
  6
CONTINUOUS
 62
       7
  5
325
 10
-134.2
 20
-110.0
 30
0.0
  0
VERTEX
  8
0
  6
CONTINUOUS
 62
       7
  5
326
 10
-134.20253626
 20
-110.25687802
 30
0.0
  0
VERTEX
  8
0
  6
CONTINUOUS
 62
       7
  5
327
 10
-134.21011452
 20
-110.51383275
 30
0.0
  0
VERTEX
  8
0
  6
CONTINUOUS
 62
       7
  5
328
 10
-134.22268905
 20
-110.77074052
 30
0.0
  0
VERTEX
  8
0
  6
CONTINUOUS
 62
       7
  5
329
 10
-134.24021408
 20
-111.02747767
 30
0.0
  0
VERTEX
  8
0
  6
CONTINUOUS
 62
       7
  5
32A
 10
-134.26264386
 20
-111.28392053
 30
0.0
  0
VERTEX
  8
0
  6
CONTINUOUS
 62
       7
  5
32B
 10
-134.28993264
 20
-111.53994544
 30
0.0
  0
VERTEX
  8
0
  6
CONTINUOUS
 62
       7
  5
32C
 10
-134.32203468
 20
-111.79542872
 30
0.0
  0
VERTEX
  8
0
  6
CONTINUOUS
 62
       7
  5
32D
 10
-134.3589042
 20
-112.0502467
 30
0.0
  0
VERTEX
  8
0
  6
CONTINUOUS
 62
       7
  5
32E
 10
-134.40049548
 20
-112.30427573
 30
0.0
  0
VERTEX
  8
0
  6
CONTINUOUS
 62
       7
  5
32F
 10
-134.44676274
 20
-112.55739213
 30
0.0
  0
VERTEX
  8
0
  6
CONTINUOUS
 62
       7
  5
330
 10
-134.49766024
 20
-112.80947224
 30
0.0
  0
VERTEX
  8
0
  6
CONTINUOUS
 62
       7
  5
331
 10
-134.55314223
 20
-113.06039238
 30
0.0
  0
VERTEX
  8
0
  6
CONTINUOUS
 62
       7
  5
332
 10
-134.61316295
 20
-113.3100289
 30
0.0
  0
VERTEX
  8
0
  6
CONTINUOUS
 62
       7
  5
333
 10
-134.67767666
 20
-113.55825812
 30
0.0
  0
VERTEX
  8
0
  6
CONTINUOUS
 62
       7
  5
334
 10
-134.74663759
 20
-113.80495637
 30
0.0
  0
VERTEX
  8
0
  6
CONTINUOUS
 62
       7
  5
335
 10
-134.82
 20
-114.05
 30
0.0
  0
SEQEND
  8
0
  6
CONTINUOUS
 62
       7
  5
336
  0
POLYLINE
  8
0
  6
CONTINUOUS
 62
       7
  5
40
 66
       1
 10
0.0
 20
0.0
 30
0.0
  0
VERTEX
  8
0
  6
CONTINUOUS
 62
       7
  5
337
 10
-134.82
 20
-101.92
 30
0.0
  0
VERTEX
  8
0
  6
CONTINUOUS
 62
       7
  5
338
 10
-134.7518958
 20
-102.03368498
 30
0.0
  0
VERTEX
  8
0
  6
CONTINUOUS
 62
       7
  5
339
 10
-134.68683763
 20
-102.14979422
 30
0.0
  0
VERTEX
  8
0
  6
CONTINUOUS
 62
       7
  5
33A
 10
-134.62501146
 20
-102.26816725
 30
0.0
  0
VERTEX
  8
0
  6
CONTINUOUS
 62
       7
  5
33B
 10
-134.56660326
 20
-102.38864358
 30
0.0
  0
VERTEX
  8
0
  6
CONTINUOUS
 62
       7
  5
33C
 10
-134.51179899
 20
-102.51106272
 30
0.0
  0
VERTEX
  8
0
  6
CONTINUOUS
 62
       7
  5
33D
 10
-134.46078464
 20
-102.63526418
 30
0.0
  0
VERTEX
  8
0
  6
CONTINUOUS
 62
       7
  5
33E
 10
-134.41374618
 20
-102.76108749
 30
0.0
  0
VERTEX
  8
0
  6
CONTINUOUS
 62
       7
  5
33F
 10
-134.37086956
 20
-102.88837215
 30
0.0
  0
VERTEX
  8
0
  6
CONTINUOUS
 62
       7
  5
340
 10
-134.33234078
 20
-103.01695768
 30
0.0
  0
VERTEX
  8
0
  6
CONTINUOUS
 62
       7
  5
341
 10
-134.29834579
 20
-103.1466836
 30
0.0
  0
VERTEX
  8
0
  6
CONTINUOUS
 62
       7
  5
342
 10
-134.26907057
 20
-103.27738942
 30
0.0
  0
VERTEX
  8
0
  6
CONTINUOUS
 62
       7
  5
343
 10
-134.24470109
 20
-103.40891465
 30
0.0
  0
VERTEX
  8
0
  6
CONTINUOUS
 62
       7
  5
344
 10
-134.22542332
 20
-103.54109881
 30
0.0
  0
VERTEX
  8
0
  6
CONTINUOUS
 62
       7
  5
345
 10
-134.21142323
 20
-103.67378141
 30
0.0
  0
VERTEX
  8
0
  6
CONTINUOUS
 62
       7
  5
346
 10
-134.2028868
 20
-103.80680197
 30
0.0
  0
VERTEX
  8
0
  6
CONTINUOUS
 62
       7
  5
347
 10
-134.2
 20
-103.94
 30
0.0
  0
VERTEX
  8
0
  6
CONTINUOUS
 62
       7
  5
348
 10
-134.2028868
 20
-104.07319803
 30
0.0
  0
VERTEX
  8
0
  6
CONTINUOUS
 62
       7
  5
349
 10
-134.21142323
 20
-104.20621859
 30
0.0
  0
VERTEX
  8
0
  6
CONTINUOUS
 62
       7
  5
34A
 10
-134.22542332
 20
-104.33890119
 30
0.0
  0
VERTEX
  8
0
  6
CONTINUOUS
 62
       7
  5
34B
 10
-134.24470108
 20
-104.47108535
 30
0.0
  0
VERTEX
  8
0
  6
CONTINUOUS
 62
       7
  5
34C
 10
-134.26907056
 20
-104.60261058
 30
0.0
  0
VERTEX
  8
0
  6
CONTINUOUS
 62
       7
  5
34D
 10
-134.29834578
 20
-104.7333164
 30
0.0
  0
VERTEX
  8
0
  6
CONTINUOUS
 62
       7
  5
34E
 10
-134.33234077
 20
-104.86304232
 30
0.0
  0
VERTEX
  8
0
  6
CONTINUOUS
 62
       7
  5
34F
 10
-134.37086956
 20
-104.99162785
 30
0.0
  0
VERTEX
  8
0
  6
CONTINUOUS
 62
       7
  5
350
 10
-134.41374617
 20
-105.11891251
 30
0.0
  0
VERTEX
  8
0
  6
CONTINUOUS
 62
       7
  5
351
 10
-134.46078464
 20
-105.24473582
 30
0.0
  0
VERTEX
  8
0
  6
CONTINUOUS
 62
       7
  5
352
 10
-134.51179899
 20
-105.36893728
 30
0.0
  0
VERTEX
  8
0
  6
CONTINUOUS
 62
       7
  5
353
 10
-134.56660326
 20
-105.49135642
 30
0.0
  0
VERTEX
  8
0
  6
CONTINUOUS
 62
       7
  5
354
 10
-134.62501146
 20
-105.61183275
 30
0.0
  0
VERTEX
  8
0
  6
CONTINUOUS
 62
       7
  5
355
 10
-134.68683763
 20
-105.73020578
 30
0.0
  0
VERTEX
  8
0
  6
CONTINUOUS
 62
       7
  5
356
 10
-134.7518958
 20
-105.84631502
 30
0.0
  0
VERTEX
  8
0
  6
CONTINUOUS
 62
       7
  5
357
 10
-134.82
 20
-105.96
 30
0.0
  0
SEQEND
  8
0
  6
CONTINUOUS
 62
       7
  5
358
  0
POLYLINE
  8
0
  6
CONTINUOUS
 62
       7
  5
41
 66
       1
 10
0.0
 20
0.0
 30
0.0
  0
VERTEX
  8
0
  6
CONTINUOUS
 62
       7
  5
359
 10
-139.57
 20
-101.92
 30
0.0
  0
VERTEX
  8
0
  6
CONTINUOUS
 62
       7
  5
35A
 10
-139.6382165
 20
-102.03368498
 30
0.0
  0
VERTEX
  8
0
  6
CONTINUOUS
 62
       7
  5
35B
 10
-139.70359205
 20
-102.14979422
 30
0.0
  0
VERTEX
  8
0
  6
CONTINUOUS
 62
       7
  5
35C
 10
-139.76591139
 20
-102.26816725
 30
0.0
  0
VERTEX
  8
0
  6
CONTINUOUS
 62
       7
  5
35D
 10
-139.82495924
 20
-102.38864358
 30
0.0
  0
VERTEX
  8
0
  6
CONTINUOUS
 62
       7
  5
35E
 10
-139.88052034
 20
-102.51106272
 30
0.0
  0
VERTEX
  8
0
  6
CONTINUOUS
 62
       7
  5
35F
 10
-139.93237942
 20
-102.63526418
 30
0.0
  0
VERTEX
  8
0
  6
CONTINUOUS
 62
       7
  5
360
 10
-139.98032121
 20
-102.76108749
 30
0.0
  0
VERTEX
  8
0
  6
CONTINUOUS
 62
       7
  5
361
 10
-140.02413044
 20
-102.88837215
 30
0.0
  0
VERTEX
  8
0
  6
CONTINUOUS
 62
       7
  5
362
 10
-140.06359184
 20
-103.01695768
 30
0.0
  0
VERTEX
  8
0
  6
CONTINUOUS
 62
       7
  5
363
 10
-140.09849015
 20
-103.1466836
 30
0.0
  0
VERTEX
  8
0
  6
CONTINUOUS
 62
       7
  5
364
 10
-140.1286101
 20
-103.27738942
 30
0.0
  0
VERTEX
  8
0
  6
CONTINUOUS
 62
       7
  5
365
 10
-140.15373641
 20
-103.40891465
 30
0.0
  0
VERTEX
  8
0
  6
CONTINUOUS
 62
       7
  5
366
 10
-140.17365383
 20
-103.54109881
 30
0.0
  0
VERTEX
  8
0
  6
CONTINUOUS
 62
       7
  5
367
 10
-140.18814708
 20
-103.67378141
 30
0.0
  0
VERTEX
  8
0
  6
CONTINUOUS
 62
       7
  5
368
 10
-140.19700089
 20
-103.80680197
 30
0.0
  0
VERTEX
  8
0
  6
CONTINUOUS
 62
       7
  5
369
 10
-140.2
 20
-103.94
 30
0.0
  0
VERTEX
  8
0
  6
CONTINUOUS
 62
       7
  5
36A
 10
-140.19700089
 20
-104.07319803
 30
0.0
  0
VERTEX
  8
0
  6
CONTINUOUS
 62
       7
  5
36B
 10
-140.18814708
 20
-104.20621859
 30
0.0
  0
VERTEX
  8
0
  6
CONTINUOUS
 62
       7
  5
36C
 10
-140.17365383
 20
-104.33890119
 30
0.0
  0
VERTEX
  8
0
  6
CONTINUOUS
 62
       7
  5
36D
 10
-140.15373642
 20
-104.47108535
 30
0.0
  0
VERTEX
  8
0
  6
CONTINUOUS
 62
       7
  5
36E
 10
-140.1286101
 20
-104.60261058
 30
0.0
  0
VERTEX
  8
0
  6
CONTINUOUS
 62
       7
  5
36F
 10
-140.09849015
 20
-104.7333164
 30
0.0
  0
VERTEX
  8
0
  6
CONTINUOUS
 62
       7
  5
370
 10
-140.06359184
 20
-104.86304232
 30
0.0
  0
VERTEX
  8
0
  6
CONTINUOUS
 62
       7
  5
371
 10
-140.02413044
 20
-104.99162785
 30
0.0
  0
VERTEX
  8
0
  6
CONTINUOUS
 62
       7
  5
372
 10
-139.98032121
 20
-105.11891251
 30
0.0
  0
VERTEX
  8
0
  6
CONTINUOUS
 62
       7
  5
373
 10
-139.93237942
 20
-105.24473582
 30
0.0
  0
VERTEX
  8
0
  6
CONTINUOUS
 62
       7
  5
374
 10
-139.88052034
 20
-105.36893728
 30
0.0
  0
VERTEX
  8
0
  6
CONTINUOUS
 62
       7
  5
375
 10
-139.82495924
 20
-105.49135642
 30
0.0
  0
VERTEX
  8
0
  6
CONTINUOUS
 62
       7
  5
376
 10
-139.76591139
 20
-105.61183275
 30
0.0
  0
VERTEX
  8
0
  6
CONTINUOUS
 62
       7
  5
377
 10
-139.70359205
 20
-105.73020578
 30
0.0
  0
VERTEX
  8
0
  6
CONTINUOUS
 62
       7
  5
378
 10
-139.6382165
 20
-105.84631502
 30
0.0
  0
VERTEX
  8
0
  6
CONTINUOUS
 62
       7
  5
379
 10
-139.57
 20
-105.96
 30
0.0
  0
SEQEND
  8
0
  6
CONTINUOUS
 62
       7
  5
37A
  0
LINE
  8
0
  6
DASHED
 62
       2
  5
43
 10
78.65
 20
-126.5
 30
0.0
 11
87.95
 21
-126.5
 31
0.0
  0
LINE
  8
0
  6
DASHED
 62
       2
  5
44
 10
78.65
 20
-123.5
 30
0.0
 11
87.95
 21
-123.5
 31
0.0
  0
LINE
  8
0
  6
DASHED
 62
       2
  5
45
 10
87.95
 20
-123.5
 30
0.0
 11
87.95
 21
-127.5
 31
0.0
  0
LINE
  8
0
  6
DASHED
 62
       2
  5
46
 10
78.65
 20
-123.5
 30
0.0
 11
78.65
 21
-127.5
 31
0.0
  0
LINE
  8
0
  6
CENTER
 62
       2
  5
47
 10
83.3
 20
-120.61
 30
0.0
 11
83.3
 21
-132.87
 31
0.0
  0
LINE
  8
0
  6
CONTINUOUS
 62
       7
  5
48
 10
-83.7
 20
-126.8
 30
0.0
 11
52.3
 21
-126.8
 31
0.0
  0
LINE
  8
0
  6
CENTER
 62
       2
  5
49
 10
64.3
 20
-87.53
 30
0.0
 11
64.29
 21
-101.79
 31
0.0
  0
LINE
  8
0
  6
CENTER
 62
       2
  5
4A
 10
-197.7
 20
-115.0
 30
0.0
 11
-190.2
 21
-115.0
 31
0.0
  0
LINE
  8
0
  6
CENTER
 62
       2
  5
4B
 10
-198.7
 20
-114.0
 30
0.0
 11
-190.2
 21
-114.0
 31
0.0
  0
LINE
  8
0
  6
CENTER
 62
       2
  5
4C
 10
-197.7
 20
-115.0
 30
0.0
 11
-198.7
 21
-114.0
 31
0.0
  0
LINE
  8
0
  6
CENTER
 62
       2
  5
4D
 10
-198.7
 20
-106.0
 30
0.0
 11
-197.7
 21
-105.0
 31
0.0
  0
LINE
  8
0
  6
CENTER
 62
       2
  5
4E
 10
-198.7
 20
-106.0
 30
0.0
 11
-190.2
 21
-106.0
 31
0.0
  0
LINE
  8
0
  6
CENTER
 62
       2
  5
4F
 10
-197.7
 20
-105.0
 30
0.0
 11
-190.2
 21
-105.0
 31
0.0
  0
LINE
  8
0
  6
CENTER
 62
       2
  5
50
 10
-197.7
 20
-105.0
 30
0.0
 11
-197.7
 21
-115.0
 31
0.0
  0
LINE
  8
0
  6
CENTER
 62
       2
  5
51
 10
-198.7
 20
-114.0
 30
0.0
 11
-198.7
 21
-106.0
 31
0.0
  0
LINE
  8
0
  6
CONTINUOUS
 62
       7
  5
52
 10
-147.7
 20
-115.0
 30
0.0
 11
-140.2
 21
-115.0
 31
0.0
  0
LINE
  8
0
  6
CONTINUOUS
 62
       2
  5
53
 10
-148.7
 20
-114.0
 30
0.0
 11
-140.2
 21
-114.0
 31
0.0
  0
LINE
  8
0
  6
CONTINUOUS
 62
       7
  5
54
 10
-147.7
 20
-115.0
 30
0.0
 11
-148.7
 21
-114.0
 31
0.0
  0
LINE
  8
0
  6
CONTINUOUS
 62
       7
  5
55
 10
-148.7
 20
-106.0
 30
0.0
 11
-147.7
 21
-105.0
 31
0.0
  0
LINE
  8
0
  6
CONTINUOUS
 62
       2
  5
56
 10
-148.7
 20
-106.0
 30
0.0
 11
-140.2
 21
-106.0
 31
0.0
  0
LINE
  8
0
  6
CONTINUOUS
 62
       7
  5
57
 10
-147.7
 20
-105.0
 30
0.0
 11
-140.2
 21
-105.0
 31
0.0
  0
LINE
  8
0
  6
CONTINUOUS
 62
       7
  5
58
 10
-148.7
 20
-114.0
 30
0.0
 11
-148.7
 21
-106.0
 31
0.0
  0
LINE
  8
0
  6
CONTINUOUS
 62
       7
  5
59
 10
-122.7
 20
-116.0
 30
0.0
 11
-117.7
 21
-116.0
 31
0.0
  0
LINE
  8
0
  6
CONTINUOUS
 62
       7
  5
5A
 10
-122.7
 20
-104.0
 30
0.0
 11
-117.7
 21
-104.0
 31
0.0
  0
LINE
  8
0
  6
CONTINUOUS
 62
       7
  5
5B
 10
-117.7
 20
-122.0
 30
0.0
 11
-117.7
 21
-98.0
 31
0.0
  0
LINE
  8
0
  6
CONTINUOUS
 62
       7
  5
5C
 10
-106.41
 20
-92.0
 30
0.0
 11
-106.41
 21
-128.0
 31
0.0
  0
LINE
  8
0
  6
CONTINUOUS
 62
       7
  5
5D
 10
-106.91
 20
-89.22
 30
0.0
 11
-106.91
 21
-130.79
 31
0.0
  0
LINE
  8
0
  6
CONTINUOUS
 62
       7
  5
5E
 10
-114.3
 20
-89.22
 30
0.0
 11
-106.91
 21
-89.22
 31
0.0
  0
LINE
  8
0
  6
CONTINUOUS
 62
       7
  5
5F
 10
-114.3
 20
-120.4
 30
0.0
 11
-106.91
 21
-120.4
 31
0.0
  0
LINE
  8
0
  6
CONTINUOUS
 62
       7
  5
60
 10
-114.3
 20
-99.61
 30
0.0
 11
-106.91
 21
-99.61
 31
0.0
  0
LINE
  8
0
  6
CONTINUOUS
 62
       7
  5
61
 10
-115.91
 20
-128.0
 30
0.0
 11
-114.3
 21
-130.79
 31
0.0
  0
LINE
  8
0
  6
CONTINUOUS
 62
       7
  5
62
 10
-115.91
 20
-92.0
 30
0.0
 11
-114.3
 21
-89.22
 31
0.0
  0
LINE
  8
0
  6
CONTINUOUS
 62
       7
  5
63
 10
-115.91
 20
-92.0
 30
0.0
 11
-115.91
 21
-128.0
 31
0.0
  0
LINE
  8
0
  6
CONTINUOUS
 62
       7
  5
64
 10
-114.3
 20
-130.79
 30
0.0
 11
-106.91
 21
-130.79
 31
0.0
  0
LINE
  8
0
  6
CONTINUOUS
 62
       7
  5
65
 10
-106.41
 20
-96.5
 30
0.0
 11
-103.7
 21
-96.5
 31
0.0
  0
LINE
  8
0
  6
CONTINUOUS
 62
       7
  5
66
 10
-85.7
 20
-126.8
 30
0.0
 11
-85.7
 21
-93.2
 31
0.0
  0
LINE
  8
0
  6
CONTINUOUS
 62
       7
  5
67
 10
-83.7
 20
-126.8
 30
0.0
 11
-83.7
 21
-93.2
 31
0.0
  0
LINE
  8
0
  6
CONTINUOUS
 62
       7
  5
68
 10
52.29
 20
-93.2
 30
0.0
 11
52.29
 21
-126.8
 31
0.0
  0
LINE
  8
0
  6
CONTINUOUS
 62
       7
  5
69
 10
54.3
 20
-126.8
 30
0.0
 11
54.3
 21
-93.2
 31
0.0
  0
LINE
  8
0
  6
CONTINUOUS
 62
       7
  5
6A
 10
93.3
 20
-93.2
 30
0.0
 11
93.3
 21
-126.8
 31
0.0
  0
LINE
  8
0
  6
CONTINUOUS
 62
       7
  5
6B
 10
95.3
 20
-126.8
 30
0.0
 11
95.3
 21
-93.2
 31
0.0
  0
LINE
  8
0
  6
CONTINUOUS
 62
       7
  5
6C
 10
94.41
 20
-94.0
 30
0.0
 11
95.3
 21
-93.2
 31
0.0
  0
LINE
  8
0
  6
CENTER
 62
       2
  5
6D
 10
-95.7
 20
-89.02
 30
0.0
 11
-95.7
 21
-101.83
 31
0.0
  0
LINE
  8
0
  6
CONTINUOUS
 62
       7
  5
6E
 10
-84.7
 20
-126.0
 30
0.0
 11
-84.5
 21
-126.0
 31
0.0
  0
LINE
  8
0
  6
CONTINUOUS
 62
       7
  5
6F
 10
-84.7
 20
-94.0
 30
0.0
 11
-84.51
 21
-94.0
 31
0.0
  0
LINE
  8
0
  6
CONTINUOUS
 62
       7
  5
70
 10
-103.7
 20
-92.5
 30
0.0
 11
-103.7
 21
-127.5
 31
0.0
  0
LINE
  8
0
  6
CONTINUOUS
 62
       7
  5
71
 10
-105.7
 20
-97.6
 30
0.0
 11
-105.7
 21
-96.5
 31
0.0
  0
LINE
  8
0
  6
DASHED
 62
       2
  5
72
 10
-100.71
 20
-92.5
 30
0.0
 11
-100.34
 21
-99.5
 31
0.0
  0
LINE
  8
0
  6
DASHED
 62
       2
  5
73
 10
-99.7
 20
-93.5
 30
0.0
 11
-99.7
 21
-101.0
 31
0.0
  0
LINE
  8
0
  6
DASHED
 62
       2
  5
74
 10
-99.7
 20
-93.5
 30
0.0
 11
-91.7
 21
-93.5
 31
0.0
  0
LINE
  8
0
  6
DASHED
 62
       2
  5
75
 10
-90.7
 20
-92.5
 30
0.0
 11
-91.07
 21
-99.5
 31
0.0
  0
LINE
  8
0
  6
DASHED
 62
       2
  5
76
 10
-91.7
 20
-93.5
 30
0.0
 11
-91.7
 21
-101.0
 31
0.0
  0
LINE
  8
0
  6
DASHED
 62
       2
  5
77
 10
-90.7
 20
-92.5
 30
0.0
 11
-91.7
 21
-93.5
 31
0.0
  0
LINE
  8
0
  6
DASHED
 62
       2
  5
78
 10
-100.71
 20
-92.5
 30
0.0
 11
-99.71
 21
-93.5
 31
0.0
  0
LINE
  8
0
  6
CONTINUOUS
 62
       2
  5
79
 10
-118.7
 20
-106.69
 30
0.0
 11
-122.7
 21
-113.32
 31
0.0
  0
LINE
  8
0
  6
CONTINUOUS
 62
       2
  5
7A
 10
-122.7
 20
-106.69
 30
0.0
 11
-118.7
 21
-113.32
 31
0.0
  0
LINE
  8
0
  6
CONTINUOUS
 62
       7
  5
7B
 10
-122.7
 20
-113.32
 30
0.0
 11
-118.7
 21
-113.32
 31
0.0
  0
LINE
  8
0
  6
CONTINUOUS
 62
       7
  5
7C
 10
-122.7
 20
-106.69
 30
0.0
 11
-118.7
 21
-106.69
 31
0.0
  0
LINE
  8
0
  6
CONTINUOUS
 62
       2
  5
7D
 10
-125.7
 20
-114.0
 30
0.0
 11
-123.96
 21
-115.0
 31
0.0
  0
LINE
  8
0
  6
CONTINUOUS
 62
       2
  5
7E
 10
-125.7
 20
-106.0
 30
0.0
 11
-123.96
 21
-105.0
 31
0.0
  0
LINE
  8
0
  6
CONTINUOUS
 62
       2
  5
7F
 10
-125.7
 20
-114.0
 30
0.0
 11
-134.2
 21
-114.0
 31
0.0
  0
LINE
  8
0
  6
CONTINUOUS
 62
       2
  5
80
 10
-134.2
 20
-106.0
 30
0.0
 11
-125.7
 21
-106.0
 31
0.0
  0
LINE
  8
0
  6
CONTINUOUS
 62
       2
  5
81
 10
-105.7
 20
-97.6
 30
0.0
 11
-103.79652174
 21
-96.5
 31
0.0
  0
LINE
  8
0
  6
CONTINUOUS
 62
       2
  5
82
 10
-105.7
 20
-122.4
 30
0.0
 11
-103.81293103
 21
-123.5
 31
0.0
  0
LINE
  8
0
  6
CONTINUOUS
 62
       2
  5
83
 10
-106.41
 20
-97.6
 30
0.0
 11
-105.7
 21
-97.6
 31
0.0
  0
LINE
  8
0
  6
CONTINUOUS
 62
       2
  5
84
 10
-106.41
 20
-122.4
 30
0.0
 11
-105.7
 21
-122.4
 31
0.0
  0
LINE
  8
0
  6
CONTINUOUS
 62
       7
  5
85
 10
-105.7
 20
-123.5
 30
0.0
 11
-105.7
 21
-122.4
 31
0.0
  0
LINE
  8
0
  6
CONTINUOUS
 62
       7
  5
86
 10
-103.7
 20
-123.5
 30
0.0
 11
-106.41
 21
-123.5
 31
0.0
  0
LINE
  8
0
  6
CONTINUOUS
 62
       7
  5
87
 10
-122.7
 20
-113.32
 30
0.0
 11
-122.7
 21
-116.0
 31
0.0
  0
LINE
  8
0
  6
CONTINUOUS
 62
       7
  5
88
 10
-122.7
 20
-104.0
 30
0.0
 11
-122.7
 21
-106.69
 31
0.0
  0
LINE
  8
0
  6
CONTINUOUS
 62
       7
  5
89
 10
-139.57
 20
-118.09
 30
0.0
 11
-134.82
 21
-118.09
 31
0.0
  0
LINE
  8
0
  6
CONTINUOUS
 62
       7
  5
8A
 10
-140.2
 20
-117.0
 30
0.0
 11
-139.57
 21
-118.09
 31
0.0
  0
LINE
  8
0
  6
CONTINUOUS
 62
       7
  5
8B
 10
-134.82
 20
-101.92
 30
0.0
 11
-134.2
 21
-103.0
 31
0.0
  0
LINE
  8
0
  6
CONTINUOUS
 62
       7
  5
8C
 10
-134.82
 20
-118.09
 30
0.0
 11
-134.2
 21
-117.0
 31
0.0
  0
LINE
  8
0
  6
CONTINUOUS
 62
       7
  5
8D
 10
-140.2
 20
-103.0
 30
0.0
 11
-139.57
 21
-101.92
 31
0.0
  0
LINE
  8
0
  6
CONTINUOUS
 62
       7
  5
8E
 10
-134.2
 20
-103.0
 30
0.0
 11
-134.2
 21
-117.0
 31
0.0
  0
LINE
  8
0
  6
CONTINUOUS
 62
       7
  5
8F
 10
-140.2
 20
-103.0
 30
0.0
 11
-140.2
 21
-117.0
 31
0.0
  0
LINE
  8
0
  6
CONTINUOUS
 62
       7
  5
90
 10
-139.57
 20
-105.96
 30
0.0
 11
-134.82
 21
-105.96
 31
0.0
  0
LINE
  8
0
  6
CONTINUOUS
 62
       7
  5
91
 10
-139.57
 20
-114.05
 30
0.0
 11
-134.82
 21
-114.05
 31
0.0
  0
LINE
  8
0
  6
CONTINUOUS
 62
       7
  5
92
 10
-139.57
 20
-101.92
 30
0.0
 11
-134.82
 21
-101.92
 31
0.0
  0
LINE
  8
0
  6
CONTINUOUS
 62
       7
  5
93
 10
-83.71
 20
-93.2
 30
0.0
 11
52.3
 21
-93.2
 31
0.0
  0
LINE
  8
0
  6
CONTINUOUS
 62
       7
  5
94
 10
-85.7
 20
-126.8
 30
0.0
 11
-84.7
 21
-126.8
 31
0.0
  0
LINE
  8
0
  6
CONTINUOUS
 62
       7
  5
95
 10
-87.7
 20
-126.8
 30
0.0
 11
-86.7
 21
-126.8
 31
0.0
  0
LINE
  8
0
  6
CONTINUOUS
 62
       7
  5
96
 10
-85.7
 20
-93.2
 30
0.0
 11
-84.7
 21
-93.2
 31
0.0
  0
LINE
  8
0
  6
CONTINUOUS
 62
       7
  5
97
 10
-87.7
 20
-93.2
 30
0.0
 11
-86.7
 21
-93.2
 31
0.0
  0
LINE
  8
0
  6
CONTINUOUS
 62
       7
  5
98
 10
-84.5
 20
-126.0
 30
0.0
 11
-83.7
 21
-126.8
 31
0.0
  0
LINE
  8
0
  6
CONTINUOUS
 62
       7
  5
99
 10
-86.7
 20
-125.8
 30
0.0
 11
-85.7
 21
-126.8
 31
0.0
  0
LINE
  8
0
  6
CONTINUOUS
 62
       7
  5
9A
 10
-86.7
 20
-94.2
 30
0.0
 11
-85.7
 21
-93.2
 31
0.0
  0
LINE
  8
0
  6
CONTINUOUS
 62
       7
  5
9B
 10
-84.51
 20
-94.0
 30
0.0
 11
-83.71
 21
-93.2
 31
0.0
  0
LINE
  8
0
  6
CONTINUOUS
 62
       7
  5
9C
 10
-103.7
 20
-127.5
 30
0.0
 11
-87.7
 21
-127.5
 31
0.0
  0
LINE
  8
0
  6
CONTINUOUS
 62
       7
  5
9D
 10
-103.7
 20
-92.5
 30
0.0
 11
-87.7
 21
-92.5
 31
0.0
  0
LINE
  8
0
  6
CONTINUOUS
 62
       7
  5
9E
 10
-84.7
 20
-93.2
 30
0.0
 11
-84.7
 21
-126.8
 31
0.0
  0
LINE
  8
0
  6
CONTINUOUS
 62
       7
  5
9F
 10
-86.7
 20
-93.2
 30
0.0
 11
-86.7
 21
-126.8
 31
0.0
  0
LINE
  8
0
  6
CONTINUOUS
 62
       7
  5
A0
 10
-87.7
 20
-92.5
 30
0.0
 11
-87.7
 21
-127.5
 31
0.0
  0
LINE
  8
0
  6
CONTINUOUS
 62
       7
  5
A1
 10
-117.7
 20
-122.0
 30
0.0
 11
-115.91
 21
-123.5
 31
0.0
  0
LINE
  8
0
  6
CONTINUOUS
 62
       7
  5
A2
 10
-117.7
 20
-98.0
 30
0.0
 11
-115.91
 21
-96.5
 31
0.0
  0
LINE
  8
0
  6
CONTINUOUS
 62
       2
  5
A3
 10
-117.22
 20
-122.4
 30
0.0
 11
-115.91
 21
-122.4
 31
0.0
  0
LINE
  8
0
  6
CONTINUOUS
 62
       2
  5
A4
 10
-117.22
 20
-97.6
 30
0.0
 11
-115.91
 21
-97.6
 31
0.0
  0
LINE
  8
0
  6
CONTINUOUS
 62
       7
  5
A5
 10
-123.7
 20
-115.0
 30
0.0
 11
-134.2
 21
-115.0
 31
0.0
  0
LINE
  8
0
  6
CONTINUOUS
 62
       7
  5
A6
 10
-134.2
 20
-105.0
 30
0.0
 11
-123.7
 21
-105.0
 31
0.0
  0
LINE
  8
0
  6
CONTINUOUS
 62
       7
  5
A7
 10
-118.7
 20
-106.69
 30
0.0
 11
-118.7
 21
-113.32
 31
0.0
  0
LINE
  8
0
  6
CONTINUOUS
 62
       7
  5
A8
 10
-123.7
 20
-115.0
 30
0.0
 11
-122.7
 21
-116.0
 31
0.0
  0
LINE
  8
0
  6
CONTINUOUS
 62
       7
  5
A9
 10
-123.7
 20
-105.0
 30
0.0
 11
-122.7
 21
-104.0
 31
0.0
  0
LINE
  8
0
  6
CONTINUOUS
 62
       7
  5
AA
 10
-123.7
 20
-105.0
 30
0.0
 11
-123.7
 21
-115.0
 31
0.0
  0
LINE
  8
0
  6
CONTINUOUS
 62
       7
  5
AB
 10
-125.7
 20
-105.0
 30
0.0
 11
-125.7
 21
-115.0
 31
0.0
  0
LINE
  8
0
  6
CONTINUOUS
 62
       7
  5
AC
 10
-147.7
 20
-105.0
 30
0.0
 11
-147.7
 21
-115.0
 31
0.0
  0
LINE
  8
0
  6
CONTINUOUS
 62
       7
  5
AD
 10
-106.91
 20
-128.0
 30
0.0
 11
-106.41
 21
-128.0
 31
0.0
  0
LINE
  8
0
  6
CONTINUOUS
 62
       7
  5
AE
 10
-106.91
 20
-92.0
 30
0.0
 11
-106.41
 21
-92.0
 31
0.0
  0
LINE
  8
0
  6
DASHED
 62
       2
  5
AF
 10
59.29
 20
-92.5
 30
0.0
 11
60.29
 21
-93.5
 31
0.0
  0
LINE
  8
0
  6
DASHED
 62
       2
  5
B0
 10
60.3
 20
-93.5
 30
0.0
 11
60.3
 21
-101.0
 31
0.0
  0
LINE
  8
0
  6
DASHED
 62
       2
  5
B1
 10
68.3
 20
-93.5
 30
0.0
 11
60.29
 21
-93.5
 31
0.0
  0
LINE
  8
0
  6
DASHED
 62
       2
  5
B2
 10
68.3
 20
-93.5
 30
0.0
 11
68.3
 21
-101.0
 31
0.0
  0
LINE
  8
0
  6
DASHED
 62
       2
  5
B3
 10
69.29
 20
-92.5
 30
0.0
 11
68.3
 21
-93.5
 31
0.0
  0
LINE
  8
0
  6
DASHED
 62
       2
  5
B4
 10
69.29
 20
-92.5
 30
0.0
 11
68.93
 21
-99.5
 31
0.0
  0
LINE
  8
0
  6
CONTINUOUS
 62
       7
  5
B5
 10
73.8
 20
-94.5
 30
0.0
 11
70.3
 21
-94.5
 31
0.0
  0
LINE
  8
0
  6
CONTINUOUS
 62
       7
  5
B6
 10
70.3
 20
-92.5
 30
0.0
 11
56.3
 21
-92.5
 31
0.0
  0
LINE
  8
0
  6
DASHED
 62
       2
  5
B7
 10
59.29
 20
-92.5
 30
0.0
 11
59.66
 21
-99.5
 31
0.0
  0
LINE
  8
0
  6
CONTINUOUS
 62
       7
  5
B8
 10
56.3
 20
-92.5
 30
0.0
 11
56.3
 21
-127.5
 31
0.0
  0
LINE
  8
0
  6
CONTINUOUS
 62
       7
  5
B9
 10
56.3
 20
-93.2
 30
0.0
 11
55.3
 21
-93.2
 31
0.0
  0
LINE
  8
0
  6
CONTINUOUS
 62
       7
  5
BA
 10
55.3
 20
-93.2
 30
0.0
 11
55.3
 21
-126.8
 31
0.0
  0
LINE
  8
0
  6
CONTINUOUS
 62
       7
  5
BB
 10
55.3
 20
-94.2
 30
0.0
 11
54.3
 21
-93.2
 31
0.0
  0
LINE
  8
0
  6
CONTINUOUS
 62
       7
  5
BC
 10
54.3
 20
-93.2
 30
0.0
 11
53.3
 21
-93.2
 31
0.0
  0
LINE
  8
0
  6
CONTINUOUS
 62
       7
  5
BD
 10
53.1
 20
-94.0
 30
0.0
 11
52.3
 21
-93.2
 31
0.0
  0
LINE
  8
0
  6
CONTINUOUS
 62
       7
  5
BE
 10
53.3
 20
-94.0
 30
0.0
 11
53.1
 21
-94.0
 31
0.0
  0
LINE
  8
0
  6
CONTINUOUS
 62
       7
  5
BF
 10
53.1
 20
-126.0
 30
0.0
 11
52.29
 21
-126.8
 31
0.0
  0
LINE
  8
0
  6
CONTINUOUS
 62
       7
  5
C0
 10
56.3
 20
-126.8
 30
0.0
 11
55.3
 21
-126.8
 31
0.0
  0
LINE
  8
0
  6
CONTINUOUS
 62
       7
  5
C1
 10
54.3
 20
-126.8
 30
0.0
 11
53.3
 21
-126.8
 31
0.0
  0
LINE
  8
0
  6
CONTINUOUS
 62
       7
  5
C2
 10
55.29
 20
-125.8
 30
0.0
 11
54.29
 21
-126.8
 31
0.0
  0
LINE
  8
0
  6
CONTINUOUS
 62
       7
  5
C3
 10
53.3
 20
-93.2
 30
0.0
 11
53.3
 21
-126.8
 31
0.0
  0
LINE
  8
0
  6
CONTINUOUS
 62
       7
  5
C4
 10
53.3
 20
-126.0
 30
0.0
 11
53.1
 21
-126.0
 31
0.0
  0
LINE
  8
0
  6
CONTINUOUS
 62
       7
  5
C5
 10
70.3
 20
-127.5
 30
0.0
 11
56.3
 21
-127.5
 31
0.0
  0
LINE
  8
0
  6
CONTINUOUS
 62
       7
  5
C6
 10
70.3
 20
-92.5
 30
0.0
 11
70.3
 21
-127.5
 31
0.0
  0
LINE
  8
0
  6
CONTINUOUS
 62
       7
  5
C7
 10
73.8
 20
-125.5
 30
0.0
 11
70.3
 21
-125.5
 31
0.0
  0
LINE
  8
0
  6
CONTINUOUS
 62
       7
  5
C8
 10
77.3
 20
-92.5
 30
0.0
 11
77.3
 21
-127.5
 31
0.0
  0
LINE
  8
0
  6
CONTINUOUS
 62
       7
  5
C9
 10
73.8
 20
-94.5
 30
0.0
 11
77.3
 21
-94.5
 31
0.0
  0
LINE
  8
0
  6
CONTINUOUS
 62
       7
  5
CA
 10
73.8
 20
-125.5
 30
0.0
 11
77.3
 21
-125.5
 31
0.0
  0
LINE
  8
0
  6
CONTINUOUS
 62
       7
  5
CB
 10
94.3
 20
-126.0
 30
0.0
 11
94.5
 21
-126.0
 31
0.0
  0
LINE
  8
0
  6
CONTINUOUS
 62
       7
  5
CC
 10
94.3
 20
-94.0
 30
0.0
 11
94.41
 21
-94.0
 31
0.0
  0
LINE
  8
0
  6
CONTINUOUS
 62
       7
  5
CD
 10
93.3
 20
-126.8
 30
0.0
 11
94.3
 21
-126.8
 31
0.0
  0
LINE
  8
0
  6
CONTINUOUS
 62
       7
  5
CE
 10
91.3
 20
-126.8
 30
0.0
 11
92.3
 21
-126.8
 31
0.0
  0
LINE
  8
0
  6
CONTINUOUS
 62
       7
  5
CF
 10
93.3
 20
-93.2
 30
0.0
 11
94.3
 21
-93.2
 31
0.0
  0
LINE
  8
0
  6
CONTINUOUS
 62
       7
  5
D0
 10
91.3
 20
-93.2
 30
0.0
 11
92.3
 21
-93.2
 31
0.0
  0
LINE
  8
0
  6
CONTINUOUS
 62
       7
  5
D1
 10
94.5
 20
-126.0
 30
0.0
 11
95.3
 21
-126.8
 31
0.0
  0
LINE
  8
0
  6
CONTINUOUS
 62
       7
  5
D2
 10
92.3
 20
-125.8
 30
0.0
 11
93.3
 21
-126.8
 31
0.0
  0
LINE
  8
0
  6
CONTINUOUS
 62
       7
  5
D3
 10
92.3
 20
-94.2
 30
0.0
 11
93.3
 21
-93.2
 31
0.0
  0
LINE
  8
0
  6
CONTINUOUS
 62
       7
  5
D4
 10
77.3
 20
-127.5
 30
0.0
 11
91.3
 21
-127.5
 31
0.0
  0
LINE
  8
0
  6
CONTINUOUS
 62
       7
  5
D5
 10
77.3
 20
-92.5
 30
0.0
 11
91.3
 21
-92.5
 31
0.0
  0
LINE
  8
0
  6
CONTINUOUS
 62
       7
  5
D6
 10
94.3
 20
-93.2
 30
0.0
 11
94.3
 21
-126.8
 31
0.0
  0
LINE
  8
0
  6
CONTINUOUS
 62
       7
  5
D7
 10
92.3
 20
-93.2
 30
0.0
 11
92.3
 21
-126.8
 31
0.0
  0
LINE
  8
0
  6
CONTINUOUS
 62
       7
  5
D8
 10
91.3
 20
-92.5
 30
0.0
 11
91.3
 21
-127.5
 31
0.0
  0
LINE
  8
0
  6
CENTER
 62
       2
  5
D9
 10
-247.7
 20
-105.0
 30
0.0
 11
-240.2
 21
-105.0
 31
0.0
  0
LINE
  8
0
  6
CENTER
 62
       2
  5
DA
 10
-247.7
 20
-115.0
 30
0.0
 11
-240.2
 21
-115.0
 31
0.0
  0
LINE
  8
0
  6
CENTER
 62
       2
  5
DB
 10
-248.7
 20
-114.0
 30
0.0
 11
-240.2
 21
-114.0
 31
0.0
  0
LINE
  8
0
  6
CENTER
 62
       2
  5
DC
 10
-248.7
 20
-106.0
 30
0.0
 11
-240.2
 21
-106.0
 31
0.0
  0
LINE
  8
0
  6
CENTER
 62
       2
  5
DD
 10
-247.7
 20
-105.0
 30
0.0
 11
-247.7
 21
-115.0
 31
0.0
  0
LINE
  8
0
  6
CENTER
 62
       2
  5
DE
 10
-248.7
 20
-114.0
 30
0.0
 11
-248.7
 21
-106.0
 31
0.0
  0
LINE
  8
0
  6
CENTER
 62
       2
  5
DF
 10
-248.7
 20
-106.0
 30
0.0
 11
-247.7
 21
-105.0
 31
0.0
  0
LINE
  8
0
  6
CENTER
 62
       2
  5
E0
 10
-247.7
 20
-115.0
 30
0.0
 11
-248.7
 21
-114.0
 31
0.0
  0
LINE
  8
0
  6
CENTER
 62
       2
  5
E1
 10
-254.30947428
 20
-110.0
 30
0.0
 11
208.86911349
 21
-110.0
 31
0.0
  0
LINE
  8
0
  6
CONTINUOUS
 62
       7
  5
E2
 10
95.3
 20
-126.8
 30
0.0
 11
174.3
 21
-126.8
 31
0.0
  0
LINE
  8
0
  6
CONTINUOUS
 62
       7
  5
E3
 10
95.3
 20
-93.2
 30
0.0
 11
174.3
 21
-93.2
 31
0.0
  0
CIRCLE
  8
0
  6
CONTINUOUS
 62
       7
  5
E4
 10
-303.30947428
 20
100.0
 30
0.0
 40
12.0
  0
CIRCLE
  8
0
  6
CONTINUOUS
 62
       7
  5
E5
 10
-303.30947428
 20
100.0
 30
0.0
 40
13.5
  0
CIRCLE
  8
0
  6
CONTINUOUS
 62
       7
  5
E6
 10
-303.30947428
 20
100.0
 30
0.0
 40
7.0
  0
CIRCLE
  8
0
  6
CONTINUOUS
 62
       2
  5
E7
 10
-303.30947428
 20
100.0
 30
0.0
 40
4.0
  0
CIRCLE
  8
0
  6
CONTINUOUS
 62
       7
  5
E8
 10
-303.30947428
 20
100.0
 30
0.0
 40
5.0
  0
LINE
  8
0
  6
CONTINUOUS
 62
       7
  5
E9
 10
-296.30947428
 20
95.95854812
 30
0.0
 11
-303.30947428
 21
91.91709623
 31
0.0
  0
LINE
  8
0
  6
CONTINUOUS
 62
       7
  5
EA
 10
-303.30947428
 20
91.91709623
 30
0.0
 11
-310.30947428
 21
95.95854812
 31
0.0
  0
LINE
  8
0
  6
CONTINUOUS
 62
       7
  5
EB
 10
-310.30947428
 20
95.95854812
 30
0.0
 11
-310.30947428
 21
104.04145188
 31
0.0
  0
LINE
  8
0
  6
CONTINUOUS
 62
       7
  5
EC
 10
-310.30947428
 20
104.04145188
 30
0.0
 11
-303.30947428
 21
108.08290377
 31
0.0
  0
LINE
  8
0
  6
CONTINUOUS
 62
       7
  5
ED
 10
-303.30444481
 20
108.08
 30
0.0
 11
-296.30947428
 21
104.04145188
 31
0.0
  0
LINE
  8
0
  6
CONTINUOUS
 62
       7
  5
EE
 10
-296.30947428
 20
104.04145188
 30
0.0
 11
-296.30947428
 21
95.95854812
 31
0.0
  0
CIRCLE
  8
0
  6
CONTINUOUS
 62
       7
  5
EF
 10
-303.30947428
 20
100.0
 30
0.0
 40
18.0133284
  0
LINE
  8
0
  6
CENTER
 62
       2
  5
F0
 10
-329.68947428
 20
100.0
 30
0.0
 11
-277.65947428
 21
100.0
 31
0.0
  0
LINE
  8
0
  6
CENTER
 62
       2
  5
F1
 10
-303.30947428
 20
127.36
 30
0.0
 11
-303.30947428
 21
73.6
 31
0.0
  0
LINE
  8
0
  6
CONTINUOUS
 62
       7
  5
F2
 10
-285.29614588
 20
110.4
 30
0.0
 11
-303.30947428
 21
120.8
 31
0.0
  0
LINE
  8
0
  6
CONTINUOUS
 62
       7
  5
F3
 10
-285.29614588
 20
89.6
 30
0.0
 11
-285.29614588
 21
110.4
 31
0.0
  0
LINE
  8
0
  6
CONTINUOUS
 62
       7
  5
F4
 10
-303.30947428
 20
79.2
 30
0.0
 11
-285.29614588
 21
89.6
 31
0.0
  0
LINE
  8
0
  6
CONTINUOUS
 62
       7
  5
F5
 10
-321.32280268
 20
89.6
 30
0.0
 11
-303.30947428
 21
79.2
 31
0.0
  0
LINE
  8
0
  6
CONTINUOUS
 62
       7
  5
F6
 10
-321.32280268
 20
110.4
 30
0.0
 11
-321.32280268
 21
89.6
 31
0.0
  0
LINE
  8
0
  6
CONTINUOUS
 62
       7
  5
F7
 10
-303.30947428
 20
120.8
 30
0.0
 11
-321.32280268
 21
110.4
 31
0.0
  0
LINE
  8
0
  6
CENTER
 62
       2
  5
F8
 10
-246.7
 20
95.0
 30
0.0
 11
-247.7
 21
96.0
 31
0.0
  0
LINE
  8
0
  6
CENTER
 62
       2
  5
F9
 10
-247.7
 20
104.0
 30
0.0
 11
-246.7
 21
105.0
 31
0.0
  0
LINE
  8
0
  6
CENTER
 62
       2
  5
FA
 10
-247.7
 20
96.0
 30
0.0
 11
-247.7
 21
104.0
 31
0.0
  0
LINE
  8
0
  6
CENTER
 62
       2
  5
FB
 10
-246.7
 20
105.0
 30
0.0
 11
-246.7
 21
95.0
 31
0.0
  0
TEXT
  8
0
  6
CONTINUOUS
 62
       7
  5
FC
 10
-386.59066328
 20
-23.1500001
 30
0.0
 40
6.30000019
  1
MODEL:DAT32×50×50-A
 41
1.03260869
  7
MX_NOTE_STANDARD
 11
-386.59066328
 21
-20.0
 31
0.0
 73
       2
  0
LINE
  8
0
  6
CONTINUOUS
 62
       7
  5
FD
 10
175.3
 20
-93.2
 30
0.0
 11
175.3
 21
-126.8
 31
0.0
  0
LINE
  8
0
  6
CONTINUOUS
 62
       7
  5
FE
 10
177.3
 20
-93.2
 30
0.0
 11
177.3
 21
-126.8
 31
0.0
  0
LINE
  8
0
  6
CONTINUOUS
 62
       7
  5
FF
 10
174.3
 20
-93.2
 30
0.0
 11
175.1
 21
-94.0
 31
0.0
  0
LINE
  8
0
  6
CONTINUOUS
 62
       7
  5
100
 10
176.3
 20
-93.2
 30
0.0
 11
177.3
 21
-94.2
 31
0.0
  0
LINE
  8
0
  6
CONTINUOUS
 62
       7
  5
101
 10
174.3
 20
-126.8
 30
0.0
 11
175.1
 21
-126.0
 31
0.0
  0
LINE
  8
0
  6
CONTINUOUS
 62
       7
  5
102
 10
176.3
 20
-126.8
 30
0.0
 11
177.3
 21
-125.8
 31
0.0
  0
LINE
  8
0
  6
CONTINUOUS
 62
       7
  5
103
 10
175.3
 20
-93.2
 30
0.0
 11
176.3
 21
-93.2
 31
0.0
  0
LINE
  8
0
  6
CONTINUOUS
 62
       7
  5
104
 10
177.3
 20
-93.2
 30
0.0
 11
178.3
 21
-93.2
 31
0.0
  0
LINE
  8
0
  6
CONTINUOUS
 62
       7
  5
105
 10
175.3
 20
-126.8
 30
0.0
 11
176.3
 21
-126.8
 31
0.0
  0
LINE
  8
0
  6
CONTINUOUS
 62
       7
  5
106
 10
177.3
 20
-126.8
 30
0.0
 11
178.3
 21
-126.8
 31
0.0
  0
LINE
  8
0
  6
CONTINUOUS
 62
       7
  5
107
 10
178.3
 20
-92.5
 30
0.0
 11
178.3
 21
-127.5
 31
0.0
  0
LINE
  8
0
  6
CONTINUOUS
 62
       7
  5
108
 10
194.3
 20
-92.5
 30
0.0
 11
194.3
 21
-127.5
 31
0.0
  0
LINE
  8
0
  6
CONTINUOUS
 62
       7
  5
109
 10
178.3
 20
-92.5
 30
0.0
 11
194.3
 21
-92.5
 31
0.0
  0
LINE
  8
0
  6
CONTINUOUS
 62
       7
  5
10A
 10
178.3
 20
-127.5
 30
0.0
 11
194.3
 21
-127.5
 31
0.0
  0
LINE
  8
0
  6
CONTINUOUS
 62
       7
  5
10B
 10
175.1
 20
-94.0
 30
0.0
 11
175.3
 21
-94.0
 31
0.0
  0
LINE
  8
0
  6
CONTINUOUS
 62
       7
  5
10C
 10
175.1
 20
-126.0
 30
0.0
 11
175.3
 21
-126.0
 31
0.0
  0
LINE
  8
0
  6
DASHED
 62
       2
  5
10D
 10
181.3
 20
-92.5
 30
0.0
 11
182.3
 21
-93.5
 31
0.0
  0
LINE
  8
0
  6
DASHED
 62
       2
  5
10E
 10
191.3
 20
-92.5
 30
0.0
 11
190.3
 21
-93.5
 31
0.0
  0
LINE
  8
0
  6
DASHED
 62
       2
  5
10F
 10
190.3
 20
-93.5
 30
0.0
 11
190.3
 21
-101.0
 31
0.0
  0
LINE
  8
0
  6
DASHED
 62
       2
  5
110
 10
191.3
 20
-92.5
 30
0.0
 11
190.93
 21
-99.5
 31
0.0
  0
LINE
  8
0
  6
DASHED
 62
       2
  5
111
 10
182.3
 20
-93.5
 30
0.0
 11
190.3
 21
-93.5
 31
0.0
  0
LINE
  8
0
  6
DASHED
 62
       2
  5
112
 10
182.3
 20
-93.5
 30
0.0
 11
182.3
 21
-101.0
 31
0.0
  0
LINE
  8
0
  6
DASHED
 62
       2
  5
113
 10
181.3
 20
-92.5
 30
0.0
 11
181.66
 21
-99.5
 31
0.0
  0
LINE
  8
0
  6
CONTINUOUS
 62
       7
  5
114
 10
176.3
 20
-126.8
 30
0.0
 11
176.3
 21
-93.2
 31
0.0
  0
LINE
  8
0
  6
CONTINUOUS
 62
       7
  5
115
 10
174.3
 20
-93.2
 30
0.0
 11
174.3
 21
-126.8
 31
0.0
  0
LINE
  8
0
  6
CENTER
 62
       2
  5
116
 10
186.3
 20
-88.46
 30
0.0
 11
186.3
 21
-101.83
 31
0.0
  0
LINE
  8
0
  6
CONTINUOUS
 62
       7
  5
117
 10
195.3
 20
-123.5
 30
0.0
 11
194.3
 21
-123.5
 31
0.0
  0
LINE
  8
0
  6
CONTINUOUS
 62
       7
  5
118
 10
195.3
 20
-123.5
 30
0.0
 11
195.3
 21
-96.5
 31
0.0
  0
LINE
  8
0
  6
CONTINUOUS
 62
       7
  5
119
 10
195.3
 20
-96.5
 30
0.0
 11
194.3
 21
-96.5
 31
0.0
  0
LINE
  8
0
  6
CONTINUOUS
 62
       7
  5
11A
 10
-399.52490234
 20
0.25
 30
0.0
 11
399.52490234
 21
0.25
 31
0.0
  0
LINE
  8
0
  6
CENTER
 62
       2
  5
11B
 10
-253.30947428
 20
100.0
 30
0.0
 11
226.55
 21
100.0
 31
0.0
  0
LINE
  8
0
  6
CENTER
 62
       2
  5
11C
 10
-247.7
 20
104.0
 30
0.0
 11
-239.2
 21
104.0
 31
0.0
  0
LINE
  8
0
  6
CENTER
 62
       2
  5
11D
 10
-247.7
 20
96.0
 30
0.0
 11
-239.2
 21
96.0
 31
0.0
  0
LINE
  8
0
  6
CENTER
 62
       2
  5
11E
 10
-246.7
 20
95.0
 30
0.0
 11
-239.2
 21
95.0
 31
0.0
  0
LINE
  8
0
  6
CENTER
 62
       2
  5
11F
 10
-246.7
 20
105.0
 30
0.0
 11
-239.2
 21
105.0
 31
0.0
  0
LINE
  8
0
  6
CONTINUOUS
 62
       7
  5
120
 10
92.3
 20
117.5
 30
0.0
 11
92.3
 21
82.5
 31
0.0
  0
LINE
  8
0
  6
CONTINUOUS
 62
       7
  5
121
 10
93.3
 20
116.8
 30
0.0
 11
93.3
 21
83.2
 31
0.0
  0
LINE
  8
0
  6
CONTINUOUS
 62
       7
  5
122
 10
95.3
 20
116.8
 30
0.0
 11
95.3
 21
83.2
 31
0.0
  0
LINE
  8
0
  6
CONTINUOUS
 62
       7
  5
123
 10
78.3
 20
117.5
 30
0.0
 11
92.3
 21
117.5
 31
0.0
  0
LINE
  8
0
  6
CONTINUOUS
 62
       7
  5
124
 10
78.3
 20
82.5
 30
0.0
 11
92.3
 21
82.5
 31
0.0
  0
LINE
  8
0
  6
CONTINUOUS
 62
       7
  5
125
 10
93.3
 20
115.8
 30
0.0
 11
94.3
 21
116.8
 31
0.0
  0
LINE
  8
0
  6
CONTINUOUS
 62
       7
  5
126
 10
93.3
 20
84.2
 30
0.0
 11
94.3
 21
83.2
 31
0.0
  0
LINE
  8
0
  6
CONTINUOUS
 62
       7
  5
127
 10
95.5
 20
84.0
 30
0.0
 11
96.3
 21
83.2
 31
0.0
  0
LINE
  8
0
  6
CONTINUOUS
 62
       7
  5
128
 10
92.3
 20
116.8
 30
0.0
 11
93.3
 21
116.8
 31
0.0
  0
LINE
  8
0
  6
CONTINUOUS
 62
       7
  5
129
 10
94.3
 20
116.8
 30
0.0
 11
95.3
 21
116.8
 31
0.0
  0
LINE
  8
0
  6
CONTINUOUS
 62
       7
  5
12A
 10
92.3
 20
83.2
 30
0.0
 11
93.3
 21
83.2
 31
0.0
  0
LINE
  8
0
  6
CONTINUOUS
 62
       7
  5
12B
 10
94.3
 20
83.2
 30
0.0
 11
95.3
 21
83.2
 31
0.0
  0
LINE
  8
0
  6
CONTINUOUS
 62
       7
  5
12C
 10
95.3
 20
116.0
 30
0.0
 11
95.41
 21
116.0
 31
0.0
  0
LINE
  8
0
  6
CONTINUOUS
 62
       7
  5
12D
 10
95.3
 20
84.0
 30
0.0
 11
95.5
 21
84.0
 31
0.0
  0
LINE
  8
0
  6
CONTINUOUS
 62
       7
  5
12E
 10
74.8
 20
84.5
 30
0.0
 11
78.3
 21
84.5
 31
0.0
  0
LINE
  8
0
  6
CONTINUOUS
 62
       7
  5
12F
 10
74.8
 20
115.5
 30
0.0
 11
78.3
 21
115.5
 31
0.0
  0
LINE
  8
0
  6
CONTINUOUS
 62
       7
  5
130
 10
78.3
 20
117.5
 30
0.0
 11
78.3
 21
82.5
 31
0.0
  0
LINE
  8
0
  6
CONTINUOUS
 62
       7
  5
131
 10
74.8
 20
84.5
 30
0.0
 11
71.3
 21
84.5
 31
0.0
  0
LINE
  8
0
  6
CONTINUOUS
 62
       7
  5
132
 10
71.3
 20
117.5
 30
0.0
 11
71.3
 21
82.5
 31
0.0
  0
LINE
  8
0
  6
CONTINUOUS
 62
       7
  5
133
 10
71.3
 20
82.5
 30
0.0
 11
57.3
 21
82.5
 31
0.0
  0
LINE
  8
0
  6
CONTINUOUS
 62
       7
  5
134
 10
54.3
 20
84.0
 30
0.0
 11
54.1
 21
84.0
 31
0.0
  0
LINE
  8
0
  6
CONTINUOUS
 62
       7
  5
135
 10
54.3
 20
116.8
 30
0.0
 11
54.3
 21
83.2
 31
0.0
  0
LINE
  8
0
  6
CONTINUOUS
 62
       7
  5
136
 10
56.29
 20
84.2
 30
0.0
 11
55.29
 21
83.2
 31
0.0
  0
LINE
  8
0
  6
CONTINUOUS
 62
       7
  5
137
 10
55.3
 20
83.2
 30
0.0
 11
54.3
 21
83.2
 31
0.0
  0
LINE
  8
0
  6
CONTINUOUS
 62
       7
  5
138
 10
57.3
 20
83.2
 30
0.0
 11
56.3
 21
83.2
 31
0.0
  0
LINE
  8
0
  6
CONTINUOUS
 62
       7
  5
139
 10
54.1
 20
84.0
 30
0.0
 11
53.29
 21
83.2
 31
0.0
  0
LINE
  8
0
  6
CONTINUOUS
 62
       7
  5
13A
 10
54.3
 20
116.0
 30
0.0
 11
54.1
 21
116.0
 31
0.0
  0
LINE
  8
0
  6
CONTINUOUS
 62
       7
  5
13B
 10
54.1
 20
116.0
 30
0.0
 11
53.3
 21
116.8
 31
0.0
  0
LINE
  8
0
  6
CONTINUOUS
 62
       7
  5
13C
 10
55.3
 20
116.8
 30
0.0
 11
54.3
 21
116.8
 31
0.0
  0
LINE
  8
0
  6
CONTINUOUS
 62
       7
  5
13D
 10
56.3
 20
115.8
 30
0.0
 11
55.3
 21
116.8
 31
0.0
  0
LINE
  8
0
  6
CONTINUOUS
 62
       7
  5
13E
 10
56.3
 20
116.8
 30
0.0
 11
56.3
 21
83.2
 31
0.0
  0
LINE
  8
0
  6
CONTINUOUS
 62
       7
  5
13F
 10
57.3
 20
116.8
 30
0.0
 11
56.3
 21
116.8
 31
0.0
  0
LINE
  8
0
  6
CONTINUOUS
 62
       7
  5
140
 10
57.3
 20
117.5
 30
0.0
 11
57.3
 21
82.5
 31
0.0
  0
LINE
  8
0
  6
DASHED
 62
       2
  5
141
 10
60.29
 20
117.5
 30
0.0
 11
60.66
 21
110.5
 31
0.0
  0
LINE
  8
0
  6
CONTINUOUS
 62
       7
  5
142
 10
71.3
 20
117.5
 30
0.0
 11
57.3
 21
117.5
 31
0.0
  0
LINE
  8
0
  6
CONTINUOUS
 62
       7
  5
143
 10
74.8
 20
115.5
 30
0.0
 11
71.3
 21
115.5
 31
0.0
  0
LINE
  8
0
  6
DASHED
 62
       2
  5
144
 10
70.29
 20
117.5
 30
0.0
 11
69.93
 21
110.5
 31
0.0
  0
LINE
  8
0
  6
DASHED
 62
       2
  5
145
 10
70.29
 20
117.5
 30
0.0
 11
69.3
 21
116.5
 31
0.0
  0
LINE
  8
0
  6
DASHED
 62
       2
  5
146
 10
69.3
 20
116.5
 30
0.0
 11
69.3
 21
109.0
 31
0.0
  0
LINE
  8
0
  6
DASHED
 62
       2
  5
147
 10
69.3
 20
116.5
 30
0.0
 11
61.29
 21
116.5
 31
0.0
  0
LINE
  8
0
  6
DASHED
 62
       2
  5
148
 10
61.3
 20
116.5
 30
0.0
 11
61.3
 21
109.0
 31
0.0
  0
LINE
  8
0
  6
DASHED
 62
       2
  5
149
 10
60.29
 20
117.5
 30
0.0
 11
61.29
 21
116.5
 31
0.0
  0
LINE
  8
0
  6
CONTINUOUS
 62
       7
  5
14A
 10
-105.91
 20
118.0
 30
0.0
 11
-105.41
 21
118.0
 31
0.0
  0
LINE
  8
0
  6
CONTINUOUS
 62
       7
  5
14B
 10
-105.91
 20
82.0
 30
0.0
 11
-105.41
 21
82.0
 31
0.0
  0
LINE
  8
0
  6
CONTINUOUS
 62
       7
  5
14C
 10
-146.7
 20
105.0
 30
0.0
 11
-146.7
 21
95.0
 31
0.0
  0
LINE
  8
0
  6
CONTINUOUS
 62
       7
  5
14D
 10
-124.7
 20
105.0
 30
0.0
 11
-124.7
 21
95.0
 31
0.0
  0
LINE
  8
0
  6
CONTINUOUS
 62
       7
  5
14E
 10
-122.7
 20
105.0
 30
0.0
 11
-122.7
 21
95.0
 31
0.0
  0
LINE
  8
0
  6
CONTINUOUS
 62
       7
  5
14F
 10
-122.7
 20
105.0
 30
0.0
 11
-121.7
 21
106.0
 31
0.0
  0
LINE
  8
0
  6
CONTINUOUS
 62
       7
  5
150
 10
-122.7
 20
95.0
 30
0.0
 11
-121.7
 21
94.0
 31
0.0
  0
LINE
  8
0
  6
CONTINUOUS
 62
       7
  5
151
 10
-117.7
 20
103.31
 30
0.0
 11
-117.7
 21
96.68
 31
0.0
  0
LINE
  8
0
  6
CONTINUOUS
 62
       7
  5
152
 10
-133.2
 20
105.0
 30
0.0
 11
-122.7
 21
105.0
 31
0.0
  0
LINE
  8
0
  6
CONTINUOUS
 62
       7
  5
153
 10
-122.7
 20
95.0
 30
0.0
 11
-133.2
 21
95.0
 31
0.0
  0
LINE
  8
0
  6
CONTINUOUS
 62
       2
  5
154
 10
-116.22
 20
112.4
 30
0.0
 11
-114.91
 21
112.4
 31
0.0
  0
LINE
  8
0
  6
CONTINUOUS
 62
       2
  5
155
 10
-116.22
 20
87.6
 30
0.0
 11
-114.91
 21
87.6
 31
0.0
  0
LINE
  8
0
  6
CONTINUOUS
 62
       7
  5
156
 10
-116.7
 20
112.0
 30
0.0
 11
-114.91
 21
113.5
 31
0.0
  0
LINE
  8
0
  6
CONTINUOUS
 62
       7
  5
157
 10
-116.7
 20
88.0
 30
0.0
 11
-114.91
 21
86.5
 31
0.0
  0
LINE
  8
0
  6
CONTINUOUS
 62
       7
  5
158
 10
-86.7
 20
117.5
 30
0.0
 11
-86.7
 21
82.5
 31
0.0
  0
LINE
  8
0
  6
CONTINUOUS
 62
       7
  5
159
 10
-85.7
 20
116.8
 30
0.0
 11
-85.7
 21
83.2
 31
0.0
  0
LINE
  8
0
  6
CONTINUOUS
 62
       7
  5
15A
 10
-83.7
 20
116.8
 30
0.0
 11
-83.7
 21
83.2
 31
0.0
  0
LINE
  8
0
  6
CONTINUOUS
 62
       7
  5
15B
 10
-102.7
 20
117.5
 30
0.0
 11
-86.7
 21
117.5
 31
0.0
  0
LINE
  8
0
  6
CONTINUOUS
 62
       7
  5
15C
 10
-102.7
 20
82.5
 30
0.0
 11
-86.7
 21
82.5
 31
0.0
  0
LINE
  8
0
  6
CONTINUOUS
 62
       7
  5
15D
 10
-83.51
 20
116.0
 30
0.0
 11
-82.71
 21
116.8
 31
0.0
  0
LINE
  8
0
  6
CONTINUOUS
 62
       7
  5
15E
 10
-85.7
 20
115.8
 30
0.0
 11
-84.7
 21
116.8
 31
0.0
  0
LINE
  8
0
  6
CONTINUOUS
 62
       7
  5
15F
 10
-85.7
 20
84.2
 30
0.0
 11
-84.7
 21
83.2
 31
0.0
  0
LINE
  8
0
  6
CONTINUOUS
 62
       7
  5
160
 10
-83.5
 20
84.0
 30
0.0
 11
-82.7
 21
83.2
 31
0.0
  0
LINE
  8
0
  6
CONTINUOUS
 62
       7
  5
161
 10
-86.7
 20
116.8
 30
0.0
 11
-85.7
 21
116.8
 31
0.0
  0
LINE
  8
0
  6
CONTINUOUS
 62
       7
  5
162
 10
-84.7
 20
116.8
 30
0.0
 11
-83.7
 21
116.8
 31
0.0
  0
LINE
  8
0
  6
CONTINUOUS
 62
       7
  5
163
 10
-86.7
 20
83.2
 30
0.0
 11
-85.7
 21
83.2
 31
0.0
  0
LINE
  8
0
  6
CONTINUOUS
 62
       7
  5
164
 10
-84.7
 20
83.2
 30
0.0
 11
-83.7
 21
83.2
 31
0.0
  0
LINE
  8
0
  6
CONTINUOUS
 62
       7
  5
165
 10
-82.71
 20
116.8
 30
0.0
 11
53.3
 21
116.8
 31
0.0
  0
LINE
  8
0
  6
CONTINUOUS
 62
       7
  5
166
 10
-138.57
 20
108.08
 30
0.0
 11
-133.82
 21
108.08
 31
0.0
  0
LINE
  8
0
  6
CONTINUOUS
 62
       7
  5
167
 10
-138.57
 20
95.95
 30
0.0
 11
-133.82
 21
95.95
 31
0.0
  0
LINE
  8
0
  6
CONTINUOUS
 62
       7
  5
168
 10
-138.57
 20
104.04
 30
0.0
 11
-133.82
 21
104.04
 31
0.0
  0
LINE
  8
0
  6
CONTINUOUS
 62
       7
  5
169
 10
-139.2
 20
107.0
 30
0.0
 11
-139.2
 21
93.0
 31
0.0
  0
LINE
  8
0
  6
CONTINUOUS
 62
       7
  5
16A
 10
-133.2
 20
107.0
 30
0.0
 11
-133.2
 21
93.0
 31
0.0
  0
LINE
  8
0
  6
CONTINUOUS
 62
       7
  5
16B
 10
-139.2
 20
107.0
 30
0.0
 11
-138.57
 21
108.08
 31
0.0
  0
LINE
  8
0
  6
CONTINUOUS
 62
       7
  5
16C
 10
-133.82
 20
91.91
 30
0.0
 11
-133.2
 21
93.0
 31
0.0
  0
LINE
  8
0
  6
CONTINUOUS
 62
       7
  5
16D
 10
-133.82
 20
108.08
 30
0.0
 11
-133.2
 21
107.0
 31
0.0
  0
LINE
  8
0
  6
CONTINUOUS
 62
       7
  5
16E
 10
-139.2
 20
93.0
 30
0.0
 11
-138.57
 21
91.91
 31
0.0
  0
LINE
  8
0
  6
CONTINUOUS
 62
       7
  5
16F
 10
-138.57
 20
91.91
 30
0.0
 11
-133.82
 21
91.91
 31
0.0
  0
LINE
  8
0
  6
CONTINUOUS
 62
       7
  5
170
 10
-121.7
 20
106.0
 30
0.0
 11
-121.7
 21
103.31
 31
0.0
  0
LINE
  8
0
  6
CONTINUOUS
 62
       7
  5
171
 10
-121.7
 20
96.68
 30
0.0
 11
-121.7
 21
94.0
 31
0.0
  0
LINE
  8
0
  6
CONTINUOUS
 62
       7
  5
172
 10
-102.7
 20
86.5
 30
0.0
 11
-105.41
 21
86.5
 31
0.0
  0
LINE
  8
0
  6
CONTINUOUS
 62
       7
  5
173
 10
-104.7
 20
86.5
 30
0.0
 11
-104.7
 21
87.6
 31
0.0
  0
LINE
  8
0
  6
CONTINUOUS
 62
       2
  5
174
 10
-105.41
 20
87.6
 30
0.0
 11
-104.7
 21
87.6
 31
0.0
  0
LINE
  8
0
  6
CONTINUOUS
 62
       2
  5
175
 10
-105.41
 20
112.4
 30
0.0
 11
-104.7
 21
112.4
 31
0.0
  0
LINE
  8
0
  6
CONTINUOUS
 62
       2
  5
176
 10
-104.7
 20
87.6
 30
0.0
 11
-102.81293103
 21
86.5
 31
0.0
  0
LINE
  8
0
  6
CONTINUOUS
 62
       2
  5
177
 10
-104.7
 20
112.4
 30
0.0
 11
-102.79652174
 21
113.5
 31
0.0
  0
LINE
  8
0
  6
CONTINUOUS
 62
       2
  5
178
 10
-133.2
 20
104.0
 30
0.0
 11
-124.7
 21
104.0
 31
0.0
  0
LINE
  8
0
  6
CONTINUOUS
 62
       2
  5
179
 10
-124.7
 20
96.0
 30
0.0
 11
-133.2
 21
96.0
 31
0.0
  0
LINE
  8
0
  6
CONTINUOUS
 62
       2
  5
17A
 10
-124.7
 20
104.0
 30
0.0
 11
-122.96
 21
105.0
 31
0.0
  0
LINE
  8
0
  6
CONTINUOUS
 62
       2
  5
17B
 10
-124.7
 20
96.0
 30
0.0
 11
-122.96
 21
95.0
 31
0.0
  0
LINE
  8
0
  6
CONTINUOUS
 62
       7
  5
17C
 10
-121.7
 20
103.31
 30
0.0
 11
-117.7
 21
103.31
 31
0.0
  0
LINE
  8
0
  6
CONTINUOUS
 62
       7
  5
17D
 10
-121.7
 20
96.68
 30
0.0
 11
-117.7
 21
96.68
 31
0.0
  0
LINE
  8
0
  6
CONTINUOUS
 62
       2
  5
17E
 10
-121.7
 20
103.31
 30
0.0
 11
-117.7
 21
96.68
 31
0.0
  0
LINE
  8
0
  6
CONTINUOUS
 62
       2
  5
17F
 10
-117.7
 20
103.31
 30
0.0
 11
-121.7
 21
96.68
 31
0.0
  0
LINE
  8
0
  6
DASHED
 62
       2
  5
180
 10
-99.71
 20
117.5
 30
0.0
 11
-98.71
 21
116.5
 31
0.0
  0
LINE
  8
0
  6
DASHED
 62
       2
  5
181
 10
-89.7
 20
117.5
 30
0.0
 11
-90.7
 21
116.5
 31
0.0
  0
LINE
  8
0
  6
DASHED
 62
       2
  5
182
 10
-90.7
 20
116.5
 30
0.0
 11
-90.7
 21
109.0
 31
0.0
  0
LINE
  8
0
  6
DASHED
 62
       2
  5
183
 10
-89.7
 20
117.5
 30
0.0
 11
-90.07
 21
110.5
 31
0.0
  0
LINE
  8
0
  6
DASHED
 62
       2
  5
184
 10
-98.7
 20
116.5
 30
0.0
 11
-90.7
 21
116.5
 31
0.0
  0
LINE
  8
0
  6
DASHED
 62
       2
  5
185
 10
-98.7
 20
116.5
 30
0.0
 11
-98.7
 21
109.0
 31
0.0
  0
LINE
  8
0
  6
DASHED
 62
       2
  5
186
 10
-99.71
 20
117.5
 30
0.0
 11
-99.34
 21
110.5
 31
0.0
  0
LINE
  8
0
  6
CONTINUOUS
 62
       7
  5
187
 10
-104.7
 20
112.4
 30
0.0
 11
-104.7
 21
113.5
 31
0.0
  0
LINE
  8
0
  6
CONTINUOUS
 62
       7
  5
188
 10
-102.7
 20
117.5
 30
0.0
 11
-102.7
 21
82.5
 31
0.0
  0
LINE
  8
0
  6
CONTINUOUS
 62
       7
  5
189
 10
-83.7
 20
116.0
 30
0.0
 11
-83.51
 21
116.0
 31
0.0
  0
LINE
  8
0
  6
CONTINUOUS
 62
       7
  5
18A
 10
-83.7
 20
84.0
 30
0.0
 11
-83.5
 21
84.0
 31
0.0
  0
LINE
  8
0
  6
CENTER
 62
       2
  5
18B
 10
-94.7
 20
120.98
 30
0.0
 11
-94.7
 21
108.17
 31
0.0
  0
LINE
  8
0
  6
CONTINUOUS
 62
       7
  5
18C
 10
95.41
 20
116.0
 30
0.0
 11
96.3
 21
116.8
 31
0.0
  0
LINE
  8
0
  6
CONTINUOUS
 62
       7
  5
18D
 10
96.3
 20
83.2
 30
0.0
 11
96.3
 21
116.8
 31
0.0
  0
LINE
  8
0
  6
CONTINUOUS
 62
       7
  5
18E
 10
94.3
 20
116.8
 30
0.0
 11
94.3
 21
83.2
 31
0.0
  0
LINE
  8
0
  6
CONTINUOUS
 62
       7
  5
18F
 10
55.3
 20
83.2
 30
0.0
 11
55.3
 21
116.8
 31
0.0
  0
LINE
  8
0
  6
CONTINUOUS
 62
       7
  5
190
 10
53.29
 20
116.8
 30
0.0
 11
53.29
 21
83.2
 31
0.0
  0
LINE
  8
0
  6
CONTINUOUS
 62
       7
  5
191
 10
-82.7
 20
83.2
 30
0.0
 11
-82.7
 21
116.8
 31
0.0
  0
LINE
  8
0
  6
CONTINUOUS
 62
       7
  5
192
 10
-84.7
 20
83.2
 30
0.0
 11
-84.7
 21
116.8
 31
0.0
  0
LINE
  8
0
  6
CONTINUOUS
 62
       7
  5
193
 10
-105.41
 20
113.5
 30
0.0
 11
-102.7
 21
113.5
 31
0.0
  0
LINE
  8
0
  6
CONTINUOUS
 62
       7
  5
194
 10
-113.3
 20
79.21
 30
0.0
 11
-105.91
 21
79.21
 31
0.0
  0
LINE
  8
0
  6
CONTINUOUS
 62
       7
  5
195
 10
-114.91
 20
118.0
 30
0.0
 11
-114.91
 21
82.0
 31
0.0
  0
LINE
  8
0
  6
CONTINUOUS
 62
       7
  5
196
 10
-114.91
 20
118.0
 30
0.0
 11
-113.3
 21
120.78
 31
0.0
  0
LINE
  8
0
  6
CONTINUOUS
 62
       7
  5
197
 10
-114.91
 20
82.0
 30
0.0
 11
-113.3
 21
79.21
 31
0.0
  0
LINE
  8
0
  6
CONTINUOUS
 62
       7
  5
198
 10
-113.3
 20
110.39
 30
0.0
 11
-105.91
 21
110.39
 31
0.0
  0
LINE
  8
0
  6
CONTINUOUS
 62
       7
  5
199
 10
-113.3
 20
89.6
 30
0.0
 11
-105.91
 21
89.6
 31
0.0
  0
LINE
  8
0
  6
CONTINUOUS
 62
       7
  5
19A
 10
-113.3
 20
120.78
 30
0.0
 11
-105.91
 21
120.78
 31
0.0
  0
LINE
  8
0
  6
CONTINUOUS
 62
       7
  5
19B
 10
-105.91
 20
120.78
 30
0.0
 11
-105.91
 21
79.21
 31
0.0
  0
LINE
  8
0
  6
CONTINUOUS
 62
       7
  5
19C
 10
-105.41
 20
118.0
 30
0.0
 11
-105.41
 21
82.0
 31
0.0
  0
LINE
  8
0
  6
CONTINUOUS
 62
       7
  5
19D
 10
-116.7
 20
88.0
 30
0.0
 11
-116.7
 21
112.0
 31
0.0
  0
LINE
  8
0
  6
CONTINUOUS
 62
       7
  5
19E
 10
-121.7
 20
106.0
 30
0.0
 11
-116.7
 21
106.0
 31
0.0
  0
LINE
  8
0
  6
CONTINUOUS
 62
       7
  5
19F
 10
-121.7
 20
94.0
 30
0.0
 11
-116.7
 21
94.0
 31
0.0
  0
LINE
  8
0
  6
CONTINUOUS
 62
       7
  5
1A0
 10
195.3
 20
113.5
 30
0.0
 11
221.04
 21
113.5
 31
0.0
  0
LINE
  8
0
  6
CONTINUOUS
 62
       7
  5
1A1
 10
195.3
 20
86.5
 30
0.0
 11
221.04
 21
86.5
 31
0.0
  0
LINE
  8
0
  6
CONTINUOUS
 62
       7
  5
1A2
 10
222.3
 20
112.0
 30
0.0
 11
222.3
 21
88.0
 31
0.0
  0
LINE
  8
0
  6
CENTER
 62
       2
  5
1A3
 10
210.3
 20
106.99999997
 30
0.0
 11
210.3
 21
93.00000003
 31
0.0
  0
LINE
  8
0
  6
CONTINUOUS
 62
       7
  5
1A4
 10
221.04
 20
113.5
 30
0.0
 11
222.3
 21
112.0
 31
0.0
  0
LINE
  8
0
  6
CONTINUOUS
 62
       7
  5
1A5
 10
221.04
 20
86.5
 30
0.0
 11
222.3
 21
88.0
 31
0.0
  0
LINE
  8
0
  6
CONTINUOUS
 62
       7
  5
1A6
 10
196.3
 20
109.07
 30
0.0
 11
196.3
 21
90.93
 31
0.0
  0
LINE
  8
0
  6
CONTINUOUS
 62
       7
  5
1A7
 10
196.3
 20
109.07
 30
0.0
 11
221.04
 21
109.07
 31
0.0
  0
LINE
  8
0
  6
CONTINUOUS
 62
       7
  5
1A8
 10
196.3
 20
90.93
 30
0.0
 11
221.04
 21
90.93
 31
0.0
  0
LINE
  8
0
  6
CONTINUOUS
 62
       7
  5
1A9
 10
221.04
 20
113.5
 30
0.0
 11
221.04
 21
109.07
 31
0.0
  0
LINE
  8
0
  6
CONTINUOUS
 62
       7
  5
1AA
 10
221.04
 20
90.93
 30
0.0
 11
221.04
 21
86.5
 31
0.0
  0
LINE
  8
0
  6
CONTINUOUS
 62
       7
  5
1AB
 10
197.3
 20
113.5
 30
0.0
 11
197.3
 21
109.07
 31
0.0
  0
LINE
  8
0
  6
CONTINUOUS
 62
       7
  5
1AC
 10
197.3
 20
90.93
 30
0.0
 11
197.3
 21
86.5
 31
0.0
  0
LINE
  8
0
  6
CONTINUOUS
 62
       2
  5
1AD
 10
197.3
 20
112.5
 30
0.0
 11
221.88
 21
112.5
 31
0.0
  0
LINE
  8
0
  6
CONTINUOUS
 62
       2
  5
1AE
 10
197.3
 20
87.5
 30
0.0
 11
221.88
 21
87.5
 31
0.0
  0
LINE
  8
0
  6
CONTINUOUS
 62
       2
  5
1AF
 10
195.56
 20
113.5
 30
0.0
 11
197.3
 21
112.5
 31
0.0
  0
LINE
  8
0
  6
CONTINUOUS
 62
       2
  5
1B0
 10
195.56
 20
86.5
 30
0.0
 11
197.3
 21
87.5
 31
0.0
  0
LINE
  8
0
  6
CONTINUOUS
 62
       7
  5
1B1
 10
221.04
 20
90.93
 30
0.0
 11
222.3
 21
92.18
 31
0.0
  0
LINE
  8
0
  6
CONTINUOUS
 62
       7
  5
1B2
 10
221.04
 20
109.07
 30
0.0
 11
222.3
 21
107.81
 31
0.0
  0
LINE
  8
0
  6
CONTINUOUS
 62
       2
  5
1B3
 10
196.3
 20
109.07
 30
0.0
 11
206.09
 21
102.7
 31
0.0
  0
LINE
  8
0
  6
CONTINUOUS
 62
       2
  5
1B4
 10
196.3
 20
90.93
 30
0.0
 11
206.09
 21
97.29
 31
0.0
  0
LINE
  8
0
  6
CONTINUOUS
 62
       2
  5
1B5
 10
214.48
 20
97.26
 30
0.0
 11
222.3
 21
92.18
 31
0.0
  0
LINE
  8
0
  6
CONTINUOUS
 62
       2
  5
1B6
 10
214.48
 20
102.73
 30
0.0
 11
222.3
 21
107.81
 31
0.0
  0
LINE
  8
0
  6
CONTINUOUS
 62
       7
  5
1B7
 10
-147.7
 20
96.0
 30
0.0
 11
-147.7
 21
104.0
 31
0.0
  0
LINE
  8
0
  6
CONTINUOUS
 62
       7
  5
1B8
 10
-146.7
 20
105.0
 30
0.0
 11
-139.2
 21
105.0
 31
0.0
  0
LINE
  8
0
  6
CONTINUOUS
 62
       2
  5
1B9
 10
-147.7
 20
104.0
 30
0.0
 11
-139.2
 21
104.0
 31
0.0
  0
LINE
  8
0
  6
CONTINUOUS
 62
       7
  5
1BA
 10
-147.7
 20
104.0
 30
0.0
 11
-146.7
 21
105.0
 31
0.0
  0
LINE
  8
0
  6
CONTINUOUS
 62
       7
  5
1BB
 10
-146.7
 20
95.0
 30
0.0
 11
-147.7
 21
96.0
 31
0.0
  0
LINE
  8
0
  6
CONTINUOUS
 62
       2
  5
1BC
 10
-147.7
 20
96.0
 30
0.0
 11
-139.2
 21
96.0
 31
0.0
  0
LINE
  8
0
  6
CONTINUOUS
 62
       7
  5
1BD
 10
-146.7
 20
95.0
 30
0.0
 11
-139.2
 21
95.0
 31
0.0
  0
LINE
  8
0
  6
CENTER
 62
       2
  5
1BE
 10
-197.7
 20
96.0
 30
0.0
 11
-197.7
 21
104.0
 31
0.0
  0
LINE
  8
0
  6
CENTER
 62
       2
  5
1BF
 10
-196.7
 20
105.0
 30
0.0
 11
-196.7
 21
95.0
 31
0.0
  0
LINE
  8
0
  6
CENTER
 62
       2
  5
1C0
 10
-196.7
 20
105.0
 30
0.0
 11
-189.2
 21
105.0
 31
0.0
  0
LINE
  8
0
  6
CENTER
 62
       2
  5
1C1
 10
-197.7
 20
104.0
 30
0.0
 11
-189.2
 21
104.0
 31
0.0
  0
LINE
  8
0
  6
CENTER
 62
       2
  5
1C2
 10
-197.7
 20
104.0
 30
0.0
 11
-196.7
 21
105.0
 31
0.0
  0
LINE
  8
0
  6
CENTER
 62
       2
  5
1C3
 10
-196.7
 20
95.0
 30
0.0
 11
-197.7
 21
96.0
 31
0.0
  0
LINE
  8
0
  6
CENTER
 62
       2
  5
1C4
 10
-197.7
 20
96.0
 30
0.0
 11
-189.2
 21
96.0
 31
0.0
  0
LINE
  8
0
  6
CENTER
 62
       2
  5
1C5
 10
-196.7
 20
95.0
 30
0.0
 11
-189.2
 21
95.0
 31
0.0
  0
LINE
  8
0
  6
CENTER
 62
       2
  5
1C6
 10
268.65
 20
100.0
 30
0.0
 11
310.68
 21
100.0
 31
0.0
  0
LINE
  8
0
  6
CENTER
 62
       2
  5
1C7
 10
290.03
 20
122.36
 30
0.0
 11
290.03
 21
78.6
 31
0.0
  0
LINE
  8
0
  6
CONTINUOUS
 62
       7
  5
1C8
 10
300.03
 20
109.06
 30
0.0
 11
300.03
 21
90.93
 31
0.0
  0
LINE
  8
0
  6
CONTINUOUS
 62
       7
  5
1C9
 10
280.03
 20
109.06
 30
0.0
 11
280.03
 21
90.93
 31
0.0
  0
LINE
  8
0
  6
DASHED
 62
       2
  5
1CA
 10
280.03
 20
95.0
 30
0.0
 11
300.03
 21
95.0
 31
0.0
  0
LINE
  8
0
  6
DASHED
 62
       2
  5
1CB
 10
280.03
 20
105.0
 30
0.0
 11
300.03
 21
105.0
 31
0.0
  0
LINE
  8
0
  6
CENTER
 62
       2
  5
1CC
 10
65.3
 20
122.47
 30
0.0
 11
65.29
 21
108.21
 31
0.0
  0
LINE
  8
0
  6
CONTINUOUS
 62
       7
  5
1CD
 10
-82.7
 20
83.2
 30
0.0
 11
53.3
 21
83.2
 31
0.0
  0
LINE
  8
0
  6
CENTER
 62
       2
  5
1CE
 10
84.3
 20
89.39
 30
0.0
 11
84.3
 21
77.13
 31
0.0
  0
LINE
  8
0
  6
DASHED
 62
       2
  5
1CF
 10
79.65
 20
86.5
 30
0.0
 11
79.65
 21
82.5
 31
0.0
  0
LINE
  8
0
  6
DASHED
 62
       2
  5
1D0
 10
88.95
 20
86.5
 30
0.0
 11
88.95
 21
82.5
 31
0.0
  0
LINE
  8
0
  6
DASHED
 62
       2
  5
1D1
 10
79.65
 20
86.5
 30
0.0
 11
88.95
 21
86.5
 31
0.0
  0
LINE
  8
0
  6
DASHED
 62
       2
  5
1D2
 10
79.65
 20
83.5
 30
0.0
 11
88.95
 21
83.5
 31
0.0
  0
LINE
  8
0
  6
CONTINUOUS
 62
       7
  5
1D3
 10
176.3
 20
116.8
 30
0.0
 11
176.3
 21
83.2
 31
0.0
  0
LINE
  8
0
  6
CONTINUOUS
 62
       7
  5
1D4
 10
178.3
 20
116.8
 30
0.0
 11
178.3
 21
83.2
 31
0.0
  0
LINE
  8
0
  6
CONTINUOUS
 62
       7
  5
1D5
 10
175.3
 20
116.8
 30
0.0
 11
176.1
 21
116.0
 31
0.0
  0
LINE
  8
0
  6
CONTINUOUS
 62
       7
  5
1D6
 10
177.3
 20
116.8
 30
0.0
 11
178.3
 21
115.8
 31
0.0
  0
LINE
  8
0
  6
CONTINUOUS
 62
       7
  5
1D7
 10
175.3
 20
83.2
 30
0.0
 11
176.1
 21
84.0
 31
0.0
  0
LINE
  8
0
  6
CONTINUOUS
 62
       7
  5
1D8
 10
177.3
 20
83.2
 30
0.0
 11
178.3
 21
84.2
 31
0.0
  0
LINE
  8
0
  6
CONTINUOUS
 62
       7
  5
1D9
 10
176.3
 20
116.8
 30
0.0
 11
177.3
 21
116.8
 31
0.0
  0
LINE
  8
0
  6
CONTINUOUS
 62
       7
  5
1DA
 10
178.3
 20
116.8
 30
0.0
 11
179.3
 21
116.8
 31
0.0
  0
LINE
  8
0
  6
CONTINUOUS
 62
       7
  5
1DB
 10
176.3
 20
83.2
 30
0.0
 11
177.3
 21
83.2
 31
0.0
  0
LINE
  8
0
  6
CONTINUOUS
 62
       7
  5
1DC
 10
178.3
 20
83.2
 30
0.0
 11
179.3
 21
83.2
 31
0.0
  0
LINE
  8
0
  6
CONTINUOUS
 62
       7
  5
1DD
 10
179.3
 20
117.5
 30
0.0
 11
179.3
 21
82.5
 31
0.0
  0
LINE
  8
0
  6
CONTINUOUS
 62
       7
  5
1DE
 10
195.3
 20
117.5
 30
0.0
 11
195.3
 21
82.5
 31
0.0
  0
LINE
  8
0
  6
CONTINUOUS
 62
       7
  5
1DF
 10
179.3
 20
117.5
 30
0.0
 11
195.3
 21
117.5
 31
0.0
  0
LINE
  8
0
  6
CONTINUOUS
 62
       7
  5
1E0
 10
179.3
 20
82.5
 30
0.0
 11
195.3
 21
82.5
 31
0.0
  0
LINE
  8
0
  6
CONTINUOUS
 62
       7
  5
1E1
 10
176.1
 20
116.0
 30
0.0
 11
176.3
 21
116.0
 31
0.0
  0
LINE
  8
0
  6
CONTINUOUS
 62
       7
  5
1E2
 10
176.1
 20
84.0
 30
0.0
 11
176.3
 21
84.0
 31
0.0
  0
LINE
  8
0
  6
DASHED
 62
       2
  5
1E3
 10
182.3
 20
117.5
 30
0.0
 11
183.3
 21
116.5
 31
0.0
  0
LINE
  8
0
  6
DASHED
 62
       2
  5
1E4
 10
192.3
 20
117.5
 30
0.0
 11
191.3
 21
116.5
 31
0.0
  0
LINE
  8
0
  6
DASHED
 62
       2
  5
1E5
 10
191.3
 20
116.5
 30
0.0
 11
191.3
 21
109.0
 31
0.0
  0
LINE
  8
0
  6
DASHED
 62
       2
  5
1E6
 10
192.3
 20
117.5
 30
0.0
 11
191.93
 21
110.5
 31
0.0
  0
LINE
  8
0
  6
DASHED
 62
       2
  5
1E7
 10
183.3
 20
116.5
 30
0.0
 11
191.3
 21
116.5
 31
0.0
  0
LINE
  8
0
  6
DASHED
 62
       2
  5
1E8
 10
183.3
 20
116.5
 30
0.0
 11
183.3
 21
109.0
 31
0.0
  0
LINE
  8
0
  6
DASHED
 62
       2
  5
1E9
 10
182.3
 20
117.5
 30
0.0
 11
182.66
 21
110.5
 31
0.0
  0
LINE
  8
0
  6
CONTINUOUS
 62
       7
  5
1EA
 10
177.3
 20
83.2
 30
0.0
 11
177.3
 21
116.8
 31
0.0
  0
LINE
  8
0
  6
CONTINUOUS
 62
       7
  5
1EB
 10
175.3
 20
116.8
 30
0.0
 11
175.3
 21
83.2
 31
0.0
  0
LINE
  8
0
  6
CONTINUOUS
 62
       7
  5
1EC
 10
96.3
 20
83.2
 30
0.0
 11
175.3
 21
83.2
 31
0.0
  0
LINE
  8
0
  6
CONTINUOUS
 62
       7
  5
1ED
 10
96.3
 20
116.8
 30
0.0
 11
175.3
 21
116.8
 31
0.0
  0
LINE
  8
0
  6
CENTER
 62
       2
  5
1EE
 10
187.3
 20
121.53
 30
0.0
 11
187.3
 21
108.16
 31
0.0
  0
CIRCLE
  8
0
  6
CONTINUOUS
 62
       7
  5
1EF
 10
210.30050659
 20
100.0
 30
0.0
 40
5.0
  0
CIRCLE
  8
0
  6
CONTINUOUS
 62
       7
  5
1F0
 10
290.03259277
 20
100.0
 30
0.0
 40
17.5
  0
ARC
  8
0
  6
CONTINUOUS
 62
       2
  5
1F1
 10
290.03
 20
99.99999984
 30
0.0
 40
12.5000001
 50
36.86989824
 51
143.13010176
  0
CIRCLE
  8
0
  6
CONTINUOUS
 62
       7
  5
1F2
 10
290.03259277
 20
100.0
 30
0.0
 40
13.5
  0
ARC
  8
0
  6
CONTINUOUS
 62
       2
  5
1F3
 10
290.03
 20
100.00000016
 30
0.0
 40
12.5000001
 50
216.86989824
 51
323.13010176
  0
POLYLINE
  8
0
  6
CONTINUOUS
 62
       7
  5
1F4
 66
       1
 10
0.0
 20
0.0
 30
0.0
  0
VERTEX
  8
0
  6
CONTINUOUS
 62
       7
  5
37B
 10
-138.57
 20
108.08
 30
0.0
  0
VERTEX
  8
0
  6
CONTINUOUS
 62
       7
  5
37C
 10
-138.6382165
 20
107.96631502
 30
0.0
  0
VERTEX
  8
0
  6
CONTINUOUS
 62
       7
  5
37D
 10
-138.70359205
 20
107.85020578
 30
0.0
  0
VERTEX
  8
0
  6
CONTINUOUS
 62
       7
  5
37E
 10
-138.76591139
 20
107.73183275
 30
0.0
  0
VERTEX
  8
0
  6
CONTINUOUS
 62
       7
  5
37F
 10
-138.82495924
 20
107.61135642
 30
0.0
  0
VERTEX
  8
0
  6
CONTINUOUS
 62
       7
  5
380
 10
-138.88052034
 20
107.48893728
 30
0.0
  0
VERTEX
  8
0
  6
CONTINUOUS
 62
       7
  5
381
 10
-138.93237942
 20
107.36473582
 30
0.0
  0
VERTEX
  8
0
  6
CONTINUOUS
 62
       7
  5
382
 10
-138.98032121
 20
107.23891251
 30
0.0
  0
VERTEX
  8
0
  6
CONTINUOUS
 62
       7
  5
383
 10
-139.02413044
 20
107.11162785
 30
0.0
  0
VERTEX
  8
0
  6
CONTINUOUS
 62
       7
  5
384
 10
-139.06359184
 20
106.98304232
 30
0.0
  0
VERTEX
  8
0
  6
CONTINUOUS
 62
       7
  5
385
 10
-139.09849015
 20
106.8533164
 30
0.0
  0
VERTEX
  8
0
  6
CONTINUOUS
 62
       7
  5
386
 10
-139.1286101
 20
106.72261058
 30
0.0
  0
VERTEX
  8
0
  6
CONTINUOUS
 62
       7
  5
387
 10
-139.15373641
 20
106.59108535
 30
0.0
  0
VERTEX
  8
0
  6
CONTINUOUS
 62
       7
  5
388
 10
-139.17365383
 20
106.45890119
 30
0.0
  0
VERTEX
  8
0
  6
CONTINUOUS
 62
       7
  5
389
 10
-139.18814708
 20
106.32621859
 30
0.0
  0
VERTEX
  8
0
  6
CONTINUOUS
 62
       7
  5
38A
 10
-139.19700089
 20
106.19319803
 30
0.0
  0
VERTEX
  8
0
  6
CONTINUOUS
 62
       7
  5
38B
 10
-139.2
 20
106.06
 30
0.0
  0
VERTEX
  8
0
  6
CONTINUOUS
 62
       7
  5
38C
 10
-139.19700089
 20
105.92680197
 30
0.0
  0
VERTEX
  8
0
  6
CONTINUOUS
 62
       7
  5
38D
 10
-139.18814708
 20
105.79378141
 30
0.0
  0
VERTEX
  8
0
  6
CONTINUOUS
 62
       7
  5
38E
 10
-139.17365383
 20
105.66109881
 30
0.0
  0
VERTEX
  8
0
  6
CONTINUOUS
 62
       7
  5
38F
 10
-139.15373642
 20
105.52891465
 30
0.0
  0
VERTEX
  8
0
  6
CONTINUOUS
 62
       7
  5
390
 10
-139.1286101
 20
105.39738942
 30
0.0
  0
VERTEX
  8
0
  6
CONTINUOUS
 62
       7
  5
391
 10
-139.09849015
 20
105.2666836
 30
0.0
  0
VERTEX
  8
0
  6
CONTINUOUS
 62
       7
  5
392
 10
-139.06359184
 20
105.13695768
 30
0.0
  0
VERTEX
  8
0
  6
CONTINUOUS
 62
       7
  5
393
 10
-139.02413044
 20
105.00837215
 30
0.0
  0
VERTEX
  8
0
  6
CONTINUOUS
 62
       7
  5
394
 10
-138.98032121
 20
104.88108749
 30
0.0
  0
VERTEX
  8
0
  6
CONTINUOUS
 62
       7
  5
395
 10
-138.93237942
 20
104.75526418
 30
0.0
  0
VERTEX
  8
0
  6
CONTINUOUS
 62
       7
  5
396
 10
-138.88052034
 20
104.63106272
 30
0.0
  0
VERTEX
  8
0
  6
CONTINUOUS
 62
       7
  5
397
 10
-138.82495924
 20
104.50864358
 30
0.0
  0
VERTEX
  8
0
  6
CONTINUOUS
 62
       7
  5
398
 10
-138.76591139
 20
104.38816725
 30
0.0
  0
VERTEX
  8
0
  6
CONTINUOUS
 62
       7
  5
399
 10
-138.70359205
 20
104.26979422
 30
0.0
  0
VERTEX
  8
0
  6
CONTINUOUS
 62
       7
  5
39A
 10
-138.6382165
 20
104.15368498
 30
0.0
  0
VERTEX
  8
0
  6
CONTINUOUS
 62
       7
  5
39B
 10
-138.57
 20
104.04
 30
0.0
  0
SEQEND
  8
0
  6
CONTINUOUS
 62
       7
  5
39C
  0
POLYLINE
  8
0
  6
CONTINUOUS
 62
       7
  5
1F5
 66
       1
 10
0.0
 20
0.0
 30
0.0
  0
VERTEX
  8
0
  6
CONTINUOUS
 62
       7
  5
39D
 10
-133.82
 20
108.08
 30
0.0
  0
VERTEX
  8
0
  6
CONTINUOUS
 62
       7
  5
39E
 10
-133.7518958
 20
107.96631502
 30
0.0
  0
VERTEX
  8
0
  6
CONTINUOUS
 62
       7
  5
39F
 10
-133.68683763
 20
107.85020578
 30
0.0
  0
VERTEX
  8
0
  6
CONTINUOUS
 62
       7
  5
3A0
 10
-133.62501146
 20
107.73183275
 30
0.0
  0
VERTEX
  8
0
  6
CONTINUOUS
 62
       7
  5
3A1
 10
-133.56660326
 20
107.61135642
 30
0.0
  0
VERTEX
  8
0
  6
CONTINUOUS
 62
       7
  5
3A2
 10
-133.51179899
 20
107.48893728
 30
0.0
  0
VERTEX
  8
0
  6
CONTINUOUS
 62
       7
  5
3A3
 10
-133.46078464
 20
107.36473582
 30
0.0
  0
VERTEX
  8
0
  6
CONTINUOUS
 62
       7
  5
3A4
 10
-133.41374618
 20
107.23891251
 30
0.0
  0
VERTEX
  8
0
  6
CONTINUOUS
 62
       7
  5
3A5
 10
-133.37086956
 20
107.11162785
 30
0.0
  0
VERTEX
  8
0
  6
CONTINUOUS
 62
       7
  5
3A6
 10
-133.33234078
 20
106.98304232
 30
0.0
  0
VERTEX
  8
0
  6
CONTINUOUS
 62
       7
  5
3A7
 10
-133.29834579
 20
106.8533164
 30
0.0
  0
VERTEX
  8
0
  6
CONTINUOUS
 62
       7
  5
3A8
 10
-133.26907057
 20
106.72261058
 30
0.0
  0
VERTEX
  8
0
  6
CONTINUOUS
 62
       7
  5
3A9
 10
-133.24470109
 20
106.59108535
 30
0.0
  0
VERTEX
  8
0
  6
CONTINUOUS
 62
       7
  5
3AA
 10
-133.22542332
 20
106.45890119
 30
0.0
  0
VERTEX
  8
0
  6
CONTINUOUS
 62
       7
  5
3AB
 10
-133.21142323
 20
106.32621859
 30
0.0
  0
VERTEX
  8
0
  6
CONTINUOUS
 62
       7
  5
3AC
 10
-133.2028868
 20
106.19319803
 30
0.0
  0
VERTEX
  8
0
  6
CONTINUOUS
 62
       7
  5
3AD
 10
-133.2
 20
106.06
 30
0.0
  0
VERTEX
  8
0
  6
CONTINUOUS
 62
       7
  5
3AE
 10
-133.2028868
 20
105.92680197
 30
0.0
  0
VERTEX
  8
0
  6
CONTINUOUS
 62
       7
  5
3AF
 10
-133.21142323
 20
105.79378141
 30
0.0
  0
VERTEX
  8
0
  6
CONTINUOUS
 62
       7
  5
3B0
 10
-133.22542332
 20
105.66109881
 30
0.0
  0
VERTEX
  8
0
  6
CONTINUOUS
 62
       7
  5
3B1
 10
-133.24470108
 20
105.52891465
 30
0.0
  0
VERTEX
  8
0
  6
CONTINUOUS
 62
       7
  5
3B2
 10
-133.26907056
 20
105.39738942
 30
0.0
  0
VERTEX
  8
0
  6
CONTINUOUS
 62
       7
  5
3B3
 10
-133.29834578
 20
105.2666836
 30
0.0
  0
VERTEX
  8
0
  6
CONTINUOUS
 62
       7
  5
3B4
 10
-133.33234077
 20
105.13695768
 30
0.0
  0
VERTEX
  8
0
  6
CONTINUOUS
 62
       7
  5
3B5
 10
-133.37086956
 20
105.00837215
 30
0.0
  0
VERTEX
  8
0
  6
CONTINUOUS
 62
       7
  5
3B6
 10
-133.41374617
 20
104.88108749
 30
0.0
  0
VERTEX
  8
0
  6
CONTINUOUS
 62
       7
  5
3B7
 10
-133.46078464
 20
104.75526418
 30
0.0
  0
VERTEX
  8
0
  6
CONTINUOUS
 62
       7
  5
3B8
 10
-133.51179899
 20
104.63106272
 30
0.0
  0
VERTEX
  8
0
  6
CONTINUOUS
 62
       7
  5
3B9
 10
-133.56660326
 20
104.50864358
 30
0.0
  0
VERTEX
  8
0
  6
CONTINUOUS
 62
       7
  5
3BA
 10
-133.62501146
 20
104.38816725
 30
0.0
  0
VERTEX
  8
0
  6
CONTINUOUS
 62
       7
  5
3BB
 10
-133.68683763
 20
104.26979422
 30
0.0
  0
VERTEX
  8
0
  6
CONTINUOUS
 62
       7
  5
3BC
 10
-133.7518958
 20
104.15368498
 30
0.0
  0
VERTEX
  8
0
  6
CONTINUOUS
 62
       7
  5
3BD
 10
-133.82
 20
104.04
 30
0.0
  0
SEQEND
  8
0
  6
CONTINUOUS
 62
       7
  5
3BE
  0
POLYLINE
  8
0
  6
CONTINUOUS
 62
       7
  5
1F6
 66
       1
 10
0.0
 20
0.0
 30
0.0
  0
VERTEX
  8
0
  6
CONTINUOUS
 62
       7
  5
3BF
 10
-133.82
 20
104.04
 30
0.0
  0
VERTEX
  8
0
  6
CONTINUOUS
 62
       7
  5
3C0
 10
-133.74663759
 20
103.79503238
 30
0.0
  0
VERTEX
  8
0
  6
CONTINUOUS
 62
       7
  5
3C1
 10
-133.67767666
 20
103.54855228
 30
0.0
  0
VERTEX
  8
0
  6
CONTINUOUS
 62
       7
  5
3C2
 10
-133.61316295
 20
103.3006686
 30
0.0
  0
VERTEX
  8
0
  6
CONTINUOUS
 62
       7
  5
3C3
 10
-133.55314223
 20
103.05149023
 30
0.0
  0
VERTEX
  8
0
  6
CONTINUOUS
 62
       7
  5
3C4
 10
-133.49766024
 20
102.80112606
 30
0.0
  0
VERTEX
  8
0
  6
CONTINUOUS
 62
       7
  5
3C5
 10
-133.44676274
 20
102.54968498
 30
0.0
  0
VERTEX
  8
0
  6
CONTINUOUS
 62
       7
  5
3C6
 10
-133.40049548
 20
102.29727587
 30
0.0
  0
VERTEX
  8
0
  6
CONTINUOUS
 62
       7
  5
3C7
 10
-133.35890421
 20
102.04400764
 30
0.0
  0
VERTEX
  8
0
  6
CONTINUOUS
 62
       7
  5
3C8
 10
-133.32203468
 20
101.78998917
 30
0.0
  0
VERTEX
  8
0
  6
CONTINUOUS
 62
       7
  5
3C9
 10
-133.28993265
 20
101.53532935
 30
0.0
  0
VERTEX
  8
0
  6
CONTINUOUS
 62
       7
  5
3CA
 10
-133.26264386
 20
101.28013707
 30
0.0
  0
VERTEX
  8
0
  6
CONTINUOUS
 62
       7
  5
3CB
 10
-133.24021408
 20
101.02452122
 30
0.0
  0
VERTEX
  8
0
  6
CONTINUOUS
 62
       7
  5
3CC
 10
-133.22268905
 20
100.7685907
 30
0.0
  0
VERTEX
  8
0
  6
CONTINUOUS
 62
       7
  5
3CD
 10
-133.21011452
 20
100.5124544
 30
0.0
  0
VERTEX
  8
0
  6
CONTINUOUS
 62
       7
  5
3CE
 10
-133.20253626
 20
100.2562212
 30
0.0
  0
VERTEX
  8
0
  6
CONTINUOUS
 62
       7
  5
3CF
 10
-133.2
 20
100.0
 30
0.0
  0
VERTEX
  8
0
  6
CONTINUOUS
 62
       7
  5
3D0
 10
-133.20253626
 20
99.74312198
 30
0.0
  0
VERTEX
  8
0
  6
CONTINUOUS
 62
       7
  5
3D1
 10
-133.21011452
 20
99.48616725
 30
0.0
  0
VERTEX
  8
0
  6
CONTINUOUS
 62
       7
  5
3D2
 10
-133.22268905
 20
99.22925948
 30
0.0
  0
VERTEX
  8
0
  6
CONTINUOUS
 62
       7
  5
3D3
 10
-133.24021408
 20
98.97252233
 30
0.0
  0
VERTEX
  8
0
  6
CONTINUOUS
 62
       7
  5
3D4
 10
-133.26264386
 20
98.71607947
 30
0.0
  0
VERTEX
  8
0
  6
CONTINUOUS
 62
       7
  5
3D5
 10
-133.28993264
 20
98.46005456
 30
0.0
  0
VERTEX
  8
0
  6
CONTINUOUS
 62
       7
  5
3D6
 10
-133.32203468
 20
98.20457128
 30
0.0
  0
VERTEX
  8
0
  6
CONTINUOUS
 62
       7
  5
3D7
 10
-133.3589042
 20
97.9497533
 30
0.0
  0
VERTEX
  8
0
  6
CONTINUOUS
 62
       7
  5
3D8
 10
-133.40049548
 20
97.69572427
 30
0.0
  0
VERTEX
  8
0
  6
CONTINUOUS
 62
       7
  5
3D9
 10
-133.44676274
 20
97.44260787
 30
0.0
  0
VERTEX
  8
0
  6
CONTINUOUS
 62
       7
  5
3DA
 10
-133.49766024
 20
97.19052776
 30
0.0
  0
VERTEX
  8
0
  6
CONTINUOUS
 62
       7
  5
3DB
 10
-133.55314223
 20
96.93960762
 30
0.0
  0
VERTEX
  8
0
  6
CONTINUOUS
 62
       7
  5
3DC
 10
-133.61316295
 20
96.6899711
 30
0.0
  0
VERTEX
  8
0
  6
CONTINUOUS
 62
       7
  5
3DD
 10
-133.67767666
 20
96.44174188
 30
0.0
  0
VERTEX
  8
0
  6
CONTINUOUS
 62
       7
  5
3DE
 10
-133.74663759
 20
96.19504363
 30
0.0
  0
VERTEX
  8
0
  6
CONTINUOUS
 62
       7
  5
3DF
 10
-133.82
 20
95.95
 30
0.0
  0
SEQEND
  8
0
  6
CONTINUOUS
 62
       7
  5
3E0
  0
POLYLINE
  8
0
  6
CONTINUOUS
 62
       7
  5
1F7
 66
       1
 10
0.0
 20
0.0
 30
0.0
  0
VERTEX
  8
0
  6
CONTINUOUS
 62
       7
  5
3E1
 10
-138.57
 20
104.04
 30
0.0
  0
VERTEX
  8
0
  6
CONTINUOUS
 62
       7
  5
3E2
 10
-138.64347471
 20
103.79503241
 30
0.0
  0
VERTEX
  8
0
  6
CONTINUOUS
 62
       7
  5
3E3
 10
-138.71275303
 20
103.54855238
 30
0.0
  0
VERTEX
  8
0
  6
CONTINUOUS
 62
       7
  5
3E4
 10
-138.7777599
 20
103.30066881
 30
0.0
  0
VERTEX
  8
0
  6
CONTINUOUS
 62
       7
  5
3E5
 10
-138.83842027
 20
103.05149058
 30
0.0
  0
VERTEX
  8
0
  6
CONTINUOUS
 62
       7
  5
3E6
 10
-138.89465909
 20
102.80112656
 30
0.0
  0
VERTEX
  8
0
  6
CONTINUOUS
 62
       7
  5
3E7
 10
-138.94640132
 20
102.54968562
 30
0.0
  0
VERTEX
  8
0
  6
CONTINUOUS
 62
       7
  5
3E8
 10
-138.9935719
 20
102.29727667
 30
0.0
  0
VERTEX
  8
0
  6
CONTINUOUS
 62
       7
  5
3E9
 10
-139.03609579
 20
102.04400856
 30
0.0
  0
VERTEX
  8
0
  6
CONTINUOUS
 62
       7
  5
3EA
 10
-139.07389794
 20
101.78999019
 30
0.0
  0
VERTEX
  8
0
  6
CONTINUOUS
 62
       7
  5
3EB
 10
-139.10690329
 20
101.53533043
 30
0.0
  0
VERTEX
  8
0
  6
CONTINUOUS
 62
       7
  5
3EC
 10
-139.1350368
 20
101.28013816
 30
0.0
  0
VERTEX
  8
0
  6
CONTINUOUS
 62
       7
  5
3ED
 10
-139.15822342
 20
101.02452226
 30
0.0
  0
VERTEX
  8
0
  6
CONTINUOUS
 62
       7
  5
3EE
 10
-139.1763881
 20
100.76859162
 30
0.0
  0
VERTEX
  8
0
  6
CONTINUOUS
 62
       7
  5
3EF
 10
-139.18945579
 20
100.51245511
 30
0.0
  0
VERTEX
  8
0
  6
CONTINUOUS
 62
       7
  5
3F0
 10
-139.19735144
 20
100.25622161
 30
0.0
  0
VERTEX
  8
0
  6
CONTINUOUS
 62
       7
  5
3F1
 10
-139.2
 20
100.0
 30
0.0
  0
VERTEX
  8
0
  6
CONTINUOUS
 62
       7
  5
3F2
 10
-139.19735144
 20
99.74312198
 30
0.0
  0
VERTEX
  8
0
  6
CONTINUOUS
 62
       7
  5
3F3
 10
-139.18945579
 20
99.48616725
 30
0.0
  0
VERTEX
  8
0
  6
CONTINUOUS
 62
       7
  5
3F4
 10
-139.1763881
 20
99.22925948
 30
0.0
  0
VERTEX
  8
0
  6
CONTINUOUS
 62
       7
  5
3F5
 10
-139.15822342
 20
98.97252233
 30
0.0
  0
VERTEX
  8
0
  6
CONTINUOUS
 62
       7
  5
3F6
 10
-139.1350368
 20
98.71607947
 30
0.0
  0
VERTEX
  8
0
  6
CONTINUOUS
 62
       7
  5
3F7
 10
-139.10690329
 20
98.46005456
 30
0.0
  0
VERTEX
  8
0
  6
CONTINUOUS
 62
       7
  5
3F8
 10
-139.07389794
 20
98.20457128
 30
0.0
  0
VERTEX
  8
0
  6
CONTINUOUS
 62
       7
  5
3F9
 10
-139.0360958
 20
97.9497533
 30
0.0
  0
VERTEX
  8
0
  6
CONTINUOUS
 62
       7
  5
3FA
 10
-138.99357191
 20
97.69572427
 30
0.0
  0
VERTEX
  8
0
  6
CONTINUOUS
 62
       7
  5
3FB
 10
-138.94640132
 20
97.44260787
 30
0.0
  0
VERTEX
  8
0
  6
CONTINUOUS
 62
       7
  5
3FC
 10
-138.89465909
 20
97.19052776
 30
0.0
  0
VERTEX
  8
0
  6
CONTINUOUS
 62
       7
  5
3FD
 10
-138.83842027
 20
96.93960762
 30
0.0
  0
VERTEX
  8
0
  6
CONTINUOUS
 62
       7
  5
3FE
 10
-138.7777599
 20
96.6899711
 30
0.0
  0
VERTEX
  8
0
  6
CONTINUOUS
 62
       7
  5
3FF
 10
-138.71275303
 20
96.44174188
 30
0.0
  0
VERTEX
  8
0
  6
CONTINUOUS
 62
       7
  5
400
 10
-138.64347471
 20
96.19504363
 30
0.0
  0
VERTEX
  8
0
  6
CONTINUOUS
 62
       7
  5
401
 10
-138.57
 20
95.95
 30
0.0
  0
SEQEND
  8
0
  6
CONTINUOUS
 62
       7
  5
402
  0
POLYLINE
  8
0
  6
CONTINUOUS
 62
       7
  5
1F8
 66
       1
 10
0.0
 20
0.0
 30
0.0
  0
VERTEX
  8
0
  6
CONTINUOUS
 62
       7
  5
403
 10
-138.57
 20
95.95
 30
0.0
  0
VERTEX
  8
0
  6
CONTINUOUS
 62
       7
  5
404
 10
-138.6382165
 20
95.83631502
 30
0.0
  0
VERTEX
  8
0
  6
CONTINUOUS
 62
       7
  5
405
 10
-138.70359205
 20
95.72020578
 30
0.0
  0
VERTEX
  8
0
  6
CONTINUOUS
 62
       7
  5
406
 10
-138.76591139
 20
95.60183275
 30
0.0
  0
VERTEX
  8
0
  6
CONTINUOUS
 62
       7
  5
407
 10
-138.82495924
 20
95.48135642
 30
0.0
  0
VERTEX
  8
0
  6
CONTINUOUS
 62
       7
  5
408
 10
-138.88052034
 20
95.35893728
 30
0.0
  0
VERTEX
  8
0
  6
CONTINUOUS
 62
       7
  5
409
 10
-138.93237942
 20
95.23473582
 30
0.0
  0
VERTEX
  8
0
  6
CONTINUOUS
 62
       7
  5
40A
 10
-138.98032121
 20
95.10891251
 30
0.0
  0
VERTEX
  8
0
  6
CONTINUOUS
 62
       7
  5
40B
 10
-139.02413044
 20
94.98162785
 30
0.0
  0
VERTEX
  8
0
  6
CONTINUOUS
 62
       7
  5
40C
 10
-139.06359184
 20
94.85304232
 30
0.0
  0
VERTEX
  8
0
  6
CONTINUOUS
 62
       7
  5
40D
 10
-139.09849015
 20
94.7233164
 30
0.0
  0
VERTEX
  8
0
  6
CONTINUOUS
 62
       7
  5
40E
 10
-139.1286101
 20
94.59261058
 30
0.0
  0
VERTEX
  8
0
  6
CONTINUOUS
 62
       7
  5
40F
 10
-139.15373641
 20
94.46108535
 30
0.0
  0
VERTEX
  8
0
  6
CONTINUOUS
 62
       7
  5
410
 10
-139.17365383
 20
94.32890119
 30
0.0
  0
VERTEX
  8
0
  6
CONTINUOUS
 62
       7
  5
411
 10
-139.18814708
 20
94.19621859
 30
0.0
  0
VERTEX
  8
0
  6
CONTINUOUS
 62
       7
  5
412
 10
-139.19700089
 20
94.06319803
 30
0.0
  0
VERTEX
  8
0
  6
CONTINUOUS
 62
       7
  5
413
 10
-139.2
 20
93.93
 30
0.0
  0
VERTEX
  8
0
  6
CONTINUOUS
 62
       7
  5
414
 10
-139.19700089
 20
93.79680197
 30
0.0
  0
VERTEX
  8
0
  6
CONTINUOUS
 62
       7
  5
415
 10
-139.18814708
 20
93.66378141
 30
0.0
  0
VERTEX
  8
0
  6
CONTINUOUS
 62
       7
  5
416
 10
-139.17365383
 20
93.53109881
 30
0.0
  0
VERTEX
  8
0
  6
CONTINUOUS
 62
       7
  5
417
 10
-139.15373642
 20
93.39891465
 30
0.0
  0
VERTEX
  8
0
  6
CONTINUOUS
 62
       7
  5
418
 10
-139.1286101
 20
93.26738942
 30
0.0
  0
VERTEX
  8
0
  6
CONTINUOUS
 62
       7
  5
419
 10
-139.09849015
 20
93.1366836
 30
0.0
  0
VERTEX
  8
0
  6
CONTINUOUS
 62
       7
  5
41A
 10
-139.06359184
 20
93.00695768
 30
0.0
  0
VERTEX
  8
0
  6
CONTINUOUS
 62
       7
  5
41B
 10
-139.02413044
 20
92.87837215
 30
0.0
  0
VERTEX
  8
0
  6
CONTINUOUS
 62
       7
  5
41C
 10
-138.98032121
 20
92.75108749
 30
0.0
  0
VERTEX
  8
0
  6
CONTINUOUS
 62
       7
  5
41D
 10
-138.93237942
 20
92.62526418
 30
0.0
  0
VERTEX
  8
0
  6
CONTINUOUS
 62
       7
  5
41E
 10
-138.88052034
 20
92.50106272
 30
0.0
  0
VERTEX
  8
0
  6
CONTINUOUS
 62
       7
  5
41F
 10
-138.82495924
 20
92.37864358
 30
0.0
  0
VERTEX
  8
0
  6
CONTINUOUS
 62
       7
  5
420
 10
-138.76591139
 20
92.25816725
 30
0.0
  0
VERTEX
  8
0
  6
CONTINUOUS
 62
       7
  5
421
 10
-138.70359205
 20
92.13979422
 30
0.0
  0
VERTEX
  8
0
  6
CONTINUOUS
 62
       7
  5
422
 10
-138.6382165
 20
92.02368498
 30
0.0
  0
VERTEX
  8
0
  6
CONTINUOUS
 62
       7
  5
423
 10
-138.57
 20
91.91
 30
0.0
  0
SEQEND
  8
0
  6
CONTINUOUS
 62
       7
  5
424
  0
POLYLINE
  8
0
  6
CONTINUOUS
 62
       7
  5
1F9
 66
       1
 10
0.0
 20
0.0
 30
0.0
  0
VERTEX
  8
0
  6
CONTINUOUS
 62
       7
  5
425
 10
-133.82
 20
95.95
 30
0.0
  0
VERTEX
  8
0
  6
CONTINUOUS
 62
       7
  5
426
 10
-133.7518958
 20
95.83631502
 30
0.0
  0
VERTEX
  8
0
  6
CONTINUOUS
 62
       7
  5
427
 10
-133.68683763
 20
95.72020578
 30
0.0
  0
VERTEX
  8
0
  6
CONTINUOUS
 62
       7
  5
428
 10
-133.62501146
 20
95.60183275
 30
0.0
  0
VERTEX
  8
0
  6
CONTINUOUS
 62
       7
  5
429
 10
-133.56660326
 20
95.48135642
 30
0.0
  0
VERTEX
  8
0
  6
CONTINUOUS
 62
       7
  5
42A
 10
-133.51179899
 20
95.35893728
 30
0.0
  0
VERTEX
  8
0
  6
CONTINUOUS
 62
       7
  5
42B
 10
-133.46078464
 20
95.23473582
 30
0.0
  0
VERTEX
  8
0
  6
CONTINUOUS
 62
       7
  5
42C
 10
-133.41374618
 20
95.10891251
 30
0.0
  0
VERTEX
  8
0
  6
CONTINUOUS
 62
       7
  5
42D
 10
-133.37086956
 20
94.98162785
 30
0.0
  0
VERTEX
  8
0
  6
CONTINUOUS
 62
       7
  5
42E
 10
-133.33234078
 20
94.85304232
 30
0.0
  0
VERTEX
  8
0
  6
CONTINUOUS
 62
       7
  5
42F
 10
-133.29834579
 20
94.7233164
 30
0.0
  0
VERTEX
  8
0
  6
CONTINUOUS
 62
       7
  5
430
 10
-133.26907057
 20
94.59261058
 30
0.0
  0
VERTEX
  8
0
  6
CONTINUOUS
 62
       7
  5
431
 10
-133.24470109
 20
94.46108535
 30
0.0
  0
VERTEX
  8
0
  6
CONTINUOUS
 62
       7
  5
432
 10
-133.22542332
 20
94.32890119
 30
0.0
  0
VERTEX
  8
0
  6
CONTINUOUS
 62
       7
  5
433
 10
-133.21142323
 20
94.19621859
 30
0.0
  0
VERTEX
  8
0
  6
CONTINUOUS
 62
       7
  5
434
 10
-133.2028868
 20
94.06319803
 30
0.0
  0
VERTEX
  8
0
  6
CONTINUOUS
 62
       7
  5
435
 10
-133.2
 20
93.93
 30
0.0
  0
VERTEX
  8
0
  6
CONTINUOUS
 62
       7
  5
436
 10
-133.2028868
 20
93.79680197
 30
0.0
  0
VERTEX
  8
0
  6
CONTINUOUS
 62
       7
  5
437
 10
-133.21142323
 20
93.66378141
 30
0.0
  0
VERTEX
  8
0
  6
CONTINUOUS
 62
       7
  5
438
 10
-133.22542332
 20
93.53109881
 30
0.0
  0
VERTEX
  8
0
  6
CONTINUOUS
 62
       7
  5
439
 10
-133.24470108
 20
93.39891465
 30
0.0
  0
VERTEX
  8
0
  6
CONTINUOUS
 62
       7
  5
43A
 10
-133.26907056
 20
93.26738942
 30
0.0
  0
VERTEX
  8
0
  6
CONTINUOUS
 62
       7
  5
43B
 10
-133.29834578
 20
93.1366836
 30
0.0
  0
VERTEX
  8
0
  6
CONTINUOUS
 62
       7
  5
43C
 10
-133.33234077
 20
93.00695768
 30
0.0
  0
VERTEX
  8
0
  6
CONTINUOUS
 62
       7
  5
43D
 10
-133.37086956
 20
92.87837215
 30
0.0
  0
VERTEX
  8
0
  6
CONTINUOUS
 62
       7
  5
43E
 10
-133.41374617
 20
92.75108749
 30
0.0
  0
VERTEX
  8
0
  6
CONTINUOUS
 62
       7
  5
43F
 10
-133.46078464
 20
92.62526418
 30
0.0
  0
VERTEX
  8
0
  6
CONTINUOUS
 62
       7
  5
440
 10
-133.51179899
 20
92.50106272
 30
0.0
  0
VERTEX
  8
0
  6
CONTINUOUS
 62
       7
  5
441
 10
-133.56660326
 20
92.37864358
 30
0.0
  0
VERTEX
  8
0
  6
CONTINUOUS
 62
       7
  5
442
 10
-133.62501146
 20
92.25816725
 30
0.0
  0
VERTEX
  8
0
  6
CONTINUOUS
 62
       7
  5
443
 10
-133.68683763
 20
92.13979422
 30
0.0
  0
VERTEX
  8
0
  6
CONTINUOUS
 62
       7
  5
444
 10
-133.7518958
 20
92.02368498
 30
0.0
  0
VERTEX
  8
0
  6
CONTINUOUS
 62
       7
  5
445
 10
-133.82
 20
91.91
 30
0.0
  0
SEQEND
  8
0
  6
CONTINUOUS
 62
       7
  5
446
  0
POLYLINE
  8
0
  6
CONTINUOUS
 62
       7
  5
1FA
 66
       1
 10
0.0
 20
0.0
 30
0.0
  0
VERTEX
  8
0
  6
CONTINUOUS
 62
       7
  5
447
 10
-117.7
 20
103.31
 30
0.0
  0
VERTEX
  8
0
  6
CONTINUOUS
 62
       7
  5
448
 10
-117.59050484
 20
103.12262533
 30
0.0
  0
VERTEX
  8
0
  6
CONTINUOUS
 62
       7
  5
449
 10
-117.48583232
 20
102.93147847
 30
0.0
  0
VERTEX
  8
0
  6
CONTINUOUS
 62
       7
  5
44A
 10
-117.38629174
 20
102.73681058
 30
0.0
  0
VERTEX
  8
0
  6
CONTINUOUS
 62
       7
  5
44B
 10
-117.29219239
 20
102.53887286
 30
0.0
  0
VERTEX
  8
0
  6
CONTINUOUS
 62
       7
  5
44C
 10
-117.20384357
 20
102.33791647
 30
0.0
  0
VERTEX
  8
0
  6
CONTINUOUS
 62
       7
  5
44D
 10
-117.12155458
 20
102.13419259
 30
0.0
  0
VERTEX
  8
0
  6
CONTINUOUS
 62
       7
  5
44E
 10
-117.0456347
 20
101.92795238
 30
0.0
  0
VERTEX
  8
0
  6
CONTINUOUS
 62
       7
  5
44F
 10
-116.97639324
 20
101.71944704
 30
0.0
  0
VERTEX
  8
0
  6
CONTINUOUS
 62
       7
  5
450
 10
-116.91413949
 20
101.50892772
 30
0.0
  0
VERTEX
  8
0
  6
CONTINUOUS
 62
       7
  5
451
 10
-116.85918275
 20
101.29664561
 30
0.0
  0
VERTEX
  8
0
  6
CONTINUOUS
 62
       7
  5
452
 10
-116.81183231
 20
101.08285187
 30
0.0
  0
VERTEX
  8
0
  6
CONTINUOUS
 62
       7
  5
453
 10
-116.77239747
 20
100.86779769
 30
0.0
  0
VERTEX
  8
0
  6
CONTINUOUS
 62
       7
  5
454
 10
-116.74118752
 20
100.65173424
 30
0.0
  0
VERTEX
  8
0
  6
CONTINUOUS
 62
       7
  5
455
 10
-116.71851176
 20
100.43491269
 30
0.0
  0
VERTEX
  8
0
  6
CONTINUOUS
 62
       7
  5
456
 10
-116.70467949
 20
100.21758422
 30
0.0
  0
VERTEX
  8
0
  6
CONTINUOUS
 62
       7
  5
457
 10
-116.7
 20
100.0
 30
0.0
  0
VERTEX
  8
0
  6
CONTINUOUS
 62
       7
  5
458
 10
-116.70467949
 20
99.78177387
 30
0.0
  0
VERTEX
  8
0
  6
CONTINUOUS
 62
       7
  5
459
 10
-116.71851176
 20
99.56373493
 30
0.0
  0
VERTEX
  8
0
  6
CONTINUOUS
 62
       7
  5
45A
 10
-116.74118752
 20
99.34614953
 30
0.0
  0
VERTEX
  8
0
  6
CONTINUOUS
 62
       7
  5
45B
 10
-116.77239746
 20
99.12928402
 30
0.0
  0
VERTEX
  8
0
  6
CONTINUOUS
 62
       7
  5
45C
 10
-116.81183231
 20
98.91340475
 30
0.0
  0
VERTEX
  8
0
  6
CONTINUOUS
 62
       7
  5
45D
 10
-116.85918275
 20
98.69877805
 30
0.0
  0
VERTEX
  8
0
  6
CONTINUOUS
 62
       7
  5
45E
 10
-116.91413949
 20
98.4856703
 30
0.0
  0
VERTEX
  8
0
  6
CONTINUOUS
 62
       7
  5
45F
 10
-116.97639324
 20
98.27434782
 30
0.0
  0
VERTEX
  8
0
  6
CONTINUOUS
 62
       7
  5
460
 10
-117.0456347
 20
98.06507698
 30
0.0
  0
VERTEX
  8
0
  6
CONTINUOUS
 62
       7
  5
461
 10
-117.12155458
 20
97.85812411
 30
0.0
  0
VERTEX
  8
0
  6
CONTINUOUS
 62
       7
  5
462
 10
-117.20384357
 20
97.65375557
 30
0.0
  0
VERTEX
  8
0
  6
CONTINUOUS
 62
       7
  5
463
 10
-117.29219239
 20
97.45223771
 30
0.0
  0
VERTEX
  8
0
  6
CONTINUOUS
 62
       7
  5
464
 10
-117.38629174
 20
97.25383687
 30
0.0
  0
VERTEX
  8
0
  6
CONTINUOUS
 62
       7
  5
465
 10
-117.48583232
 20
97.05881941
 30
0.0
  0
VERTEX
  8
0
  6
CONTINUOUS
 62
       7
  5
466
 10
-117.59050484
 20
96.86745167
 30
0.0
  0
VERTEX
  8
0
  6
CONTINUOUS
 62
       7
  5
467
 10
-117.7
 20
96.68
 30
0.0
  0
SEQEND
  8
0
  6
CONTINUOUS
 62
       7
  5
468
  0
POLYLINE
  8
0
  6
CONTINUOUS
 62
       7
  5
1FB
 66
       1
 10
0.0
 20
0.0
 30
0.0
  0
VERTEX
  8
0
  6
CONTINUOUS
 62
       7
  5
469
 10
-121.7
 20
103.31
 30
0.0
  0
VERTEX
  8
0
  6
CONTINUOUS
 62
       7
  5
46A
 10
-121.80949463
 20
103.12262515
 30
0.0
  0
VERTEX
  8
0
  6
CONTINUOUS
 62
       7
  5
46B
 10
-121.91416677
 20
102.93147812
 30
0.0
  0
VERTEX
  8
0
  6
CONTINUOUS
 62
       7
  5
46C
 10
-122.01370712
 20
102.73681011
 30
0.0
  0
VERTEX
  8
0
  6
CONTINUOUS
 62
       7
  5
46D
 10
-122.10780636
 20
102.53887227
 30
0.0
  0
VERTEX
  8
0
  6
CONTINUOUS
 62
       7
  5
46E
 10
-122.19615518
 20
102.33791579
 30
0.0
  0
VERTEX
  8
0
  6
CONTINUOUS
 62
       7
  5
46F
 10
-122.27844425
 20
102.13419184
 30
0.0
  0
VERTEX
  8
0
  6
CONTINUOUS
 62
       7
  5
470
 10
-122.35436427
 20
101.9279516
 30
0.0
  0
VERTEX
  8
0
  6
CONTINUOUS
 62
       7
  5
471
 10
-122.42360592
 20
101.71944624
 30
0.0
  0
VERTEX
  8
0
  6
CONTINUOUS
 62
       7
  5
472
 10
-122.48585989
 20
101.50892693
 30
0.0
  0
VERTEX
  8
0
  6
CONTINUOUS
 62
       7
  5
473
 10
-122.54081685
 20
101.29664485
 30
0.0
  0
VERTEX
  8
0
  6
CONTINUOUS
 62
       7
  5
474
 10
-122.5881675
 20
101.08285118
 30
0.0
  0
VERTEX
  8
0
  6
CONTINUOUS
 62
       7
  5
475
 10
-122.62760252
 20
100.86779708
 30
0.0
  0
VERTEX
  8
0
  6
CONTINUOUS
 62
       7
  5
476
 10
-122.6588126
 20
100.65173374
 30
0.0
  0
VERTEX
  8
0
  6
CONTINUOUS
 62
       7
  5
477
 10
-122.68148841
 20
100.43491233
 30
0.0
  0
VERTEX
  8
0
  6
CONTINUOUS
 62
       7
  5
478
 10
-122.69532065
 20
100.21758403
 30
0.0
  0
VERTEX
  8
0
  6
CONTINUOUS
 62
       7
  5
479
 10
-122.7
 20
100.0
 30
0.0
  0
VERTEX
  8
0
  6
CONTINUOUS
 62
       7
  5
47A
 10
-122.69532033
 20
99.78177406
 30
0.0
  0
VERTEX
  8
0
  6
CONTINUOUS
 62
       7
  5
47B
 10
-122.68148791
 20
99.56373526
 30
0.0
  0
VERTEX
  8
0
  6
CONTINUOUS
 62
       7
  5
47C
 10
-122.65881204
 20
99.34614997
 30
0.0
  0
VERTEX
  8
0
  6
CONTINUOUS
 62
       7
  5
47D
 10
-122.62760201
 20
99.12928453
 30
0.0
  0
VERTEX
  8
0
  6
CONTINUOUS
 62
       7
  5
47E
 10
-122.58816711
 20
98.91340529
 30
0.0
  0
VERTEX
  8
0
  6
CONTINUOUS
 62
       7
  5
47F
 10
-122.54081664
 20
98.69877861
 30
0.0
  0
VERTEX
  8
0
  6
CONTINUOUS
 62
       7
  5
480
 10
-122.48585989
 20
98.48567084
 30
0.0
  0
VERTEX
  8
0
  6
CONTINUOUS
 62
       7
  5
481
 10
-122.42360615
 20
98.27434834
 30
0.0
  0
VERTEX
  8
0
  6
CONTINUOUS
 62
       7
  5
482
 10
-122.35436473
 20
98.06507745
 30
0.0
  0
VERTEX
  8
0
  6
CONTINUOUS
 62
       7
  5
483
 10
-122.2784449
 20
97.85812452
 30
0.0
  0
VERTEX
  8
0
  6
CONTINUOUS
 62
       7
  5
484
 10
-122.19615597
 20
97.65375591
 30
0.0
  0
VERTEX
  8
0
  6
CONTINUOUS
 62
       7
  5
485
 10
-122.10780722
 20
97.45223798
 30
0.0
  0
VERTEX
  8
0
  6
CONTINUOUS
 62
       7
  5
486
 10
-122.01370796
 20
97.25383707
 30
0.0
  0
VERTEX
  8
0
  6
CONTINUOUS
 62
       7
  5
487
 10
-121.91416747
 20
97.05881953
 30
0.0
  0
VERTEX
  8
0
  6
CONTINUOUS
 62
       7
  5
488
 10
-121.80949506
 20
96.86745173
 30
0.0
  0
VERTEX
  8
0
  6
CONTINUOUS
 62
       7
  5
489
 10
-121.7
 20
96.68
 30
0.0
  0
SEQEND
  8
0
  6
CONTINUOUS
 62
       7
  5
48A
  0
POLYLINE
  8
0
  6
CONTINUOUS
 62
       7
  5
1FC
 66
       1
 10
0.0
 20
0.0
 30
0.0
  0
VERTEX
  8
0
  6
CONTINUOUS
 62
       7
  5
48B
 10
-113.3
 20
89.6
 30
0.0
  0
VERTEX
  8
0
  6
CONTINUOUS
 62
       7
  5
48C
 10
-113.47530163
 20
89.30767999
 30
0.0
  0
VERTEX
  8
0
  6
CONTINUOUS
 62
       7
  5
48D
 10
-113.64309286
 20
89.00915296
 30
0.0
  0
VERTEX
  8
0
  6
CONTINUOUS
 62
       7
  5
48E
 10
-113.80284947
 20
88.70483314
 30
0.0
  0
VERTEX
  8
0
  6
CONTINUOUS
 62
       7
  5
48F
 10
-113.95404718
 20
88.39513474
 30
0.0
  0
VERTEX
  8
0
  6
CONTINUOUS
 62
       7
  5
490
 10
-114.09616177
 20
88.08047199
 30
0.0
  0
VERTEX
  8
0
  6
CONTINUOUS
 62
       7
  5
491
 10
-114.22866896
 20
87.76125909
 30
0.0
  0
VERTEX
  8
0
  6
CONTINUOUS
 62
       7
  5
492
 10
-114.35104453
 20
87.43791026
 30
0.0
  0
VERTEX
  8
0
  6
CONTINUOUS
 62
       7
  5
493
 10
-114.46276421
 20
87.11083973
 30
0.0
  0
VERTEX
  8
0
  6
CONTINUOUS
 62
       7
  5
494
 10
-114.56330376
 20
86.7804617
 30
0.0
  0
VERTEX
  8
0
  6
CONTINUOUS
 62
       7
  5
495
 10
-114.65213893
 20
86.4471904
 30
0.0
  0
VERTEX
  8
0
  6
CONTINUOUS
 62
       7
  5
496
 10
-114.72874547
 20
86.11144004
 30
0.0
  0
VERTEX
  8
0
  6
CONTINUOUS
 62
       7
  5
497
 10
-114.79259913
 20
85.77362484
 30
0.0
  0
VERTEX
  8
0
  6
CONTINUOUS
 62
       7
  5
498
 10
-114.84317567
 20
85.43415902
 30
0.0
  0
VERTEX
  8
0
  6
CONTINUOUS
 62
       7
  5
499
 10
-114.87995082
 20
85.0934568
 30
0.0
  0
VERTEX
  8
0
  6
CONTINUOUS
 62
       7
  5
49A
 10
-114.90240035
 20
84.75193239
 30
0.0
  0
VERTEX
  8
0
  6
CONTINUOUS
 62
       7
  5
49B
 10
-114.91
 20
84.41
 30
0.0
  0
VERTEX
  8
0
  6
CONTINUOUS
 62
       7
  5
49C
 10
-114.90240028
 20
84.06742694
 30
0.0
  0
VERTEX
  8
0
  6
CONTINUOUS
 62
       7
  5
49D
 10
-114.8799507
 20
83.72519295
 30
0.0
  0
VERTEX
  8
0
  6
CONTINUOUS
 62
       7
  5
49E
 10
-114.84317549
 20
83.38372747
 30
0.0
  0
VERTEX
  8
0
  6
CONTINUOUS
 62
       7
  5
49F
 10
-114.79259892
 20
83.04345992
 30
0.0
  0
VERTEX
  8
0
  6
CONTINUOUS
 62
       7
  5
4A0
 10
-114.72874523
 20
82.70481973
 30
0.0
  0
VERTEX
  8
0
  6
CONTINUOUS
 62
       7
  5
4A1
 10
-114.65213867
 20
82.36823634
 30
0.0
  0
VERTEX
  8
0
  6
CONTINUOUS
 62
       7
  5
4A2
 10
-114.56330348
 20
82.03413916
 30
0.0
  0
VERTEX
  8
0
  6
CONTINUOUS
 62
       7
  5
4A3
 10
-114.46276393
 20
81.70295763
 30
0.0
  0
VERTEX
  8
0
  6
CONTINUOUS
 62
       7
  5
4A4
 10
-114.35104425
 20
81.37512117
 30
0.0
  0
VERTEX
  8
0
  6
CONTINUOUS
 62
       7
  5
4A5
 10
-114.2286687
 20
81.05105921
 30
0.0
  0
VERTEX
  8
0
  6
CONTINUOUS
 62
       7
  5
4A6
 10
-114.09616153
 20
80.73120119
 30
0.0
  0
VERTEX
  8
0
  6
CONTINUOUS
 62
       7
  5
4A7
 10
-113.95404698
 20
80.41597652
 30
0.0
  0
VERTEX
  8
0
  6
CONTINUOUS
 62
       7
  5
4A8
 10
-113.8028493
 20
80.10581464
 30
0.0
  0
VERTEX
  8
0
  6
CONTINUOUS
 62
       7
  5
4A9
 10
-113.64309274
 20
79.80114497
 30
0.0
  0
VERTEX
  8
0
  6
CONTINUOUS
 62
       7
  5
4AA
 10
-113.47530156
 20
79.50239695
 30
0.0
  0
VERTEX
  8
0
  6
CONTINUOUS
 62
       7
  5
4AB
 10
-113.3
 20
79.21
 30
0.0
  0
SEQEND
  8
0
  6
CONTINUOUS
 62
       7
  5
4AC
  0
POLYLINE
  8
0
  6
CONTINUOUS
 62
       7
  5
1FD
 66
       1
 10
0.0
 20
0.0
 30
0.0
  0
VERTEX
  8
0
  6
CONTINUOUS
 62
       7
  5
4AD
 10
-113.3
 20
110.39
 30
0.0
  0
VERTEX
  8
0
  6
CONTINUOUS
 62
       7
  5
4AE
 10
-113.48882277
 20
109.760124
 30
0.0
  0
VERTEX
  8
0
  6
CONTINUOUS
 62
       7
  5
4AF
 10
-113.6666497
 20
109.12642832
 30
0.0
  0
VERTEX
  8
0
  6
CONTINUOUS
 62
       7
  5
4B0
 10
-113.83331711
 20
108.48917435
 30
0.0
  0
VERTEX
  8
0
  6
CONTINUOUS
 62
       7
  5
4B1
 10
-113.9886613
 20
107.84862347
 30
0.0
  0
VERTEX
  8
0
  6
CONTINUOUS
 62
       7
  5
4B2
 10
-114.1325186
 20
107.20503708
 30
0.0
  0
VERTEX
  8
0
  6
CONTINUOUS
 62
       7
  5
4B3
 10
-114.26472531
 20
106.55867657
 30
0.0
  0
VERTEX
  8
0
  6
CONTINUOUS
 62
       7
  5
4B4
 10
-114.38511776
 20
105.90980332
 30
0.0
  0
VERTEX
  8
0
  6
CONTINUOUS
 62
       7
  5
4B5
 10
-114.49353227
 20
105.25867872
 30
0.0
  0
VERTEX
  8
0
  6
CONTINUOUS
 62
       7
  5
4B6
 10
-114.58980514
 20
104.60556416
 30
0.0
  0
VERTEX
  8
0
  6
CONTINUOUS
 62
       7
  5
4B7
 10
-114.67377269
 20
103.95072103
 30
0.0
  0
VERTEX
  8
0
  6
CONTINUOUS
 62
       7
  5
4B8
 10
-114.74527124
 20
103.29441072
 30
0.0
  0
VERTEX
  8
0
  6
CONTINUOUS
 62
       7
  5
4B9
 10
-114.8041371
 20
102.63689461
 30
0.0
  0
VERTEX
  8
0
  6
CONTINUOUS
 62
       7
  5
4BA
 10
-114.8502066
 20
101.9784341
 30
0.0
  0
VERTEX
  8
0
  6
CONTINUOUS
 62
       7
  5
4BB
 10
-114.88331603
 20
101.31929056
 30
0.0
  0
VERTEX
  8
0
  6
CONTINUOUS
 62
       7
  5
4BC
 10
-114.90330173
 20
100.6597254
 30
0.0
  0
VERTEX
  8
0
  6
CONTINUOUS
 62
       7
  5
4BD
 10
-114.91
 20
100.0
 30
0.0
  0
VERTEX
  8
0
  6
CONTINUOUS
 62
       7
  5
4BE
 10
-114.90330172
 20
99.33961731
 30
0.0
  0
VERTEX
  8
0
  6
CONTINUOUS
 62
       7
  5
4BF
 10
-114.88331603
 20
98.67933026
 30
0.0
  0
VERTEX
  8
0
  6
CONTINUOUS
 62
       7
  5
4C0
 10
-114.85020659
 20
98.01941502
 30
0.0
  0
VERTEX
  8
0
  6
CONTINUOUS
 62
       7
  5
4C1
 10
-114.8041371
 20
97.36014773
 30
0.0
  0
VERTEX
  8
0
  6
CONTINUOUS
 62
       7
  5
4C2
 10
-114.74527123
 20
96.70180454
 30
0.0
  0
VERTEX
  8
0
  6
CONTINUOUS
 62
       7
  5
4C3
 10
-114.67377268
 20
96.04466161
 30
0.0
  0
VERTEX
  8
0
  6
CONTINUOUS
 62
       7
  5
4C4
 10
-114.58980513
 20
95.38899509
 30
0.0
  0
VERTEX
  8
0
  6
CONTINUOUS
 62
       7
  5
4C5
 10
-114.49353226
 20
94.73508113
 30
0.0
  0
VERTEX
  8
0
  6
CONTINUOUS
 62
       7
  5
4C6
 10
-114.38511776
 20
94.08319589
 30
0.0
  0
VERTEX
  8
0
  6
CONTINUOUS
 62
       7
  5
4C7
 10
-114.26472531
 20
93.43361551
 30
0.0
  0
VERTEX
  8
0
  6
CONTINUOUS
 62
       7
  5
4C8
 10
-114.13251859
 20
92.78661616
 30
0.0
  0
VERTEX
  8
0
  6
CONTINUOUS
 62
       7
  5
4C9
 10
-113.9886613
 20
92.14247397
 30
0.0
  0
VERTEX
  8
0
  6
CONTINUOUS
 62
       7
  5
4CA
 10
-113.8333171
 20
91.50146511
 30
0.0
  0
VERTEX
  8
0
  6
CONTINUOUS
 62
       7
  5
4CB
 10
-113.6666497
 20
90.86386573
 30
0.0
  0
VERTEX
  8
0
  6
CONTINUOUS
 62
       7
  5
4CC
 10
-113.48882277
 20
90.22995197
 30
0.0
  0
VERTEX
  8
0
  6
CONTINUOUS
 62
       7
  5
4CD
 10
-113.3
 20
89.6
 30
0.0
  0
SEQEND
  8
0
  6
CONTINUOUS
 62
       7
  5
4CE
  0
POLYLINE
  8
0
  6
CONTINUOUS
 62
       7
  5
1FE
 66
       1
 10
0.0
 20
0.0
 30
0.0
  0
VERTEX
  8
0
  6
CONTINUOUS
 62
       7
  5
4CF
 10
-113.3
 20
120.78
 30
0.0
  0
VERTEX
  8
0
  6
CONTINUOUS
 62
       7
  5
4D0
 10
-113.47530156
 20
120.48763835
 30
0.0
  0
VERTEX
  8
0
  6
CONTINUOUS
 62
       7
  5
4D1
 10
-113.64309275
 20
120.18898681
 30
0.0
  0
VERTEX
  8
0
  6
CONTINUOUS
 62
       7
  5
4D2
 10
-113.80284931
 20
119.8844607
 30
0.0
  0
VERTEX
  8
0
  6
CONTINUOUS
 62
       7
  5
4D3
 10
-113.95404698
 20
119.57447532
 30
0.0
  0
VERTEX
  8
0
  6
CONTINUOUS
 62
       7
  5
4D4
 10
-114.09616154
 20
119.25944598
 30
0.0
  0
VERTEX
  8
0
  6
CONTINUOUS
 62
       7
  5
4D5
 10
-114.22866871
 20
118.93978799
 30
0.0
  0
VERTEX
  8
0
  6
CONTINUOUS
 62
       7
  5
4D6
 10
-114.35104426
 20
118.61591666
 30
0.0
  0
VERTEX
  8
0
  6
CONTINUOUS
 62
       7
  5
4D7
 10
-114.46276394
 20
118.28824729
 30
0.0
  0
VERTEX
  8
0
  6
CONTINUOUS
 62
       7
  5
4D8
 10
-114.56330349
 20
117.95719519
 30
0.0
  0
VERTEX
  8
0
  6
CONTINUOUS
 62
       7
  5
4D9
 10
-114.65213867
 20
117.62317567
 30
0.0
  0
VERTEX
  8
0
  6
CONTINUOUS
 62
       7
  5
4DA
 10
-114.72874523
 20
117.28660404
 30
0.0
  0
VERTEX
  8
0
  6
CONTINUOUS
 62
       7
  5
4DB
 10
-114.79259892
 20
116.94789561
 30
0.0
  0
VERTEX
  8
0
  6
CONTINUOUS
 62
       7
  5
4DC
 10
-114.84317549
 20
116.60746568
 30
0.0
  0
VERTEX
  8
0
  6
CONTINUOUS
 62
       7
  5
4DD
 10
-114.8799507
 20
116.26572957
 30
0.0
  0
VERTEX
  8
0
  6
CONTINUOUS
 62
       7
  5
4DE
 10
-114.90240028
 20
115.92310257
 30
0.0
  0
VERTEX
  8
0
  6
CONTINUOUS
 62
       7
  5
4DF
 10
-114.91
 20
115.58
 30
0.0
  0
VERTEX
  8
0
  6
CONTINUOUS
 62
       7
  5
4E0
 10
-114.90240035
 20
115.23753904
 30
0.0
  0
VERTEX
  8
0
  6
CONTINUOUS
 62
       7
  5
4E1
 10
-114.87995082
 20
114.8956223
 30
0.0
  0
VERTEX
  8
0
  6
CONTINUOUS
 62
       7
  5
4E2
 10
-114.84317566
 20
114.55464991
 30
0.0
  0
VERTEX
  8
0
  6
CONTINUOUS
 62
       7
  5
4E3
 10
-114.79259913
 20
114.21502199
 30
0.0
  0
VERTEX
  8
0
  6
CONTINUOUS
 62
       7
  5
4E4
 10
-114.72874547
 20
113.87713866
 30
0.0
  0
VERTEX
  8
0
  6
CONTINUOUS
 62
       7
  5
4E5
 10
-114.65213893
 20
113.54140004
 30
0.0
  0
VERTEX
  8
0
  6
CONTINUOUS
 62
       7
  5
4E6
 10
-114.56330375
 20
113.20820625
 30
0.0
  0
VERTEX
  8
0
  6
CONTINUOUS
 62
       7
  5
4E7
 10
-114.4627642
 20
112.87795743
 30
0.0
  0
VERTEX
  8
0
  6
CONTINUOUS
 62
       7
  5
4E8
 10
-114.35104452
 20
112.55105369
 30
0.0
  0
VERTEX
  8
0
  6
CONTINUOUS
 62
       7
  5
4E9
 10
-114.22866895
 20
112.22789515
 30
0.0
  0
VERTEX
  8
0
  6
CONTINUOUS
 62
       7
  5
4EA
 10
-114.09616176
 20
111.90888193
 30
0.0
  0
VERTEX
  8
0
  6
CONTINUOUS
 62
       7
  5
4EB
 10
-113.95404717
 20
111.59441416
 30
0.0
  0
VERTEX
  8
0
  6
CONTINUOUS
 62
       7
  5
4EC
 10
-113.80284946
 20
111.28489196
 30
0.0
  0
VERTEX
  8
0
  6
CONTINUOUS
 62
       7
  5
4ED
 10
-113.64309286
 20
110.98071545
 30
0.0
  0
VERTEX
  8
0
  6
CONTINUOUS
 62
       7
  5
4EE
 10
-113.47530162
 20
110.68228476
 30
0.0
  0
VERTEX
  8
0
  6
CONTINUOUS
 62
       7
  5
4EF
 10
-113.3
 20
110.39
 30
0.0
  0
SEQEND
  8
0
  6
CONTINUOUS
 62
       7
  5
4F0
  0
TEXT
  8
0
  6
CONTINUOUS
 62
       7
  5
1FF
 10
-386.58648778
 20
253.3499999
 30
0.0
 40
6.30000019
  1
MODEL:DAT32×50×50
 41
1.03658536
  7
MX_NOTE_STANDARD
 11
-386.58648778
 21
256.5
 31
0.0
 73
       2
  0
LINE
  8
0
  6
CONTINUOUS
 62
       7
  5
200
 10
-399.52490234
 20
-276.5
 30
0.0
 11
399.52490234
 21
-276.5
 31
0.0
  0
LINE
  8
0
  6
CONTINUOUS
 62
       7
  5
201
 10
-399.52490234
 20
276.5
 30
0.0
 11
399.52490234
 21
276.5
 31
0.0
  0
LINE
  8
0
  6
CONTINUOUS
 62
       7
  5
202
 10
-399.52490234
 20
276.5
 30
0.0
 11
-399.52490234
 21
-276.5
 31
0.0
  0
LINE
  8
0
  6
CONTINUOUS
 62
       7
  5
203
 10
399.52490234
 20
276.5
 30
0.0
 11
399.52490234
 21
-276.5
 31
0.0
  0
ENDSEC
  0
EOF
