  0
SECTION
  2
HEADER
  9
$ACADVER
  1
AC1009
  9
$INSBASE
 10
0.0
 20
0.0
 30
0.0
  9
$EXTMIN
 10
-399.52490234
 20
-276.5
 30
0.0
  9
$EXTMAX
 10
399.52490234
 20
276.5
 30
0.0
  9
$LIMMIN
 10
-399.52490234
 20
-276.5
  9
$LIMMAX
 10
399.52490234
 20
276.5
  9
$ORTHOMODE
 70
       0
  9
$REGENMODE
 70
       1
  9
$FILLMODE
 70
       1
  9
$QTEXTMODE
 70
       0
  9
$MIRRTEXT
 70
       1
  9
$DRAGMODE
 70
       2
  9
$LTSCALE
 40
1.0
  9
$OSMODE
 70
       0
  9
$ATTMODE
 70
       1
  9
$TEXTSIZE
 40
3.20000005
  9
$TRACEWID
 40
0.05
  9
$TEXTSTYLE
  7
MX_NOTE_STANDARD
  9
$CLAYER
  8
0
  9
$CELTYPE
  6
CONTINUOUS
  9
$CECOLOR
 62
     256
  9
$DIMSCALE
 40
1.0
  9
$DIMASZ
 40
2.5
  9
$DIMEXO
 40
1.5
  9
$DIMDLI
 40
3.75
  9
$DIMRND
 40
0.0
  9
$DIMDLE
 40
0.0
  9
$DIMEXE
 40
1.5
  9
$DIMTP
 40
0.0
  9
$DIMTM
 40
0.0
  9
$DIMTXT
 40
3.20000005
  9
$DIMCEN
 40
2.5
  9
$DIMTSZ
 40
0.0
  9
$DIMTOL
 70
       0
  9
$DIMLIM
 70
       0
  9
$DIMTIH
 70
       0
  9
$DIMTOH
 70
       0
  9
$DIMSE1
 70
       0
  9
$DIMSE2
 70
       0
  9
$DIMTAD
 70
       1
  9
$DIMZIN
 70
       8
  9
$DIMBLK
  1

  9
$DIMASO
 70
       1
  9
$DIMSHO
 70
       1
  9
$DIMPOST
  1

  9
$DIMAPOST
  1

  9
$DIMALT
 70
       0
  9
$DIMALTD
 70
       4
  9
$DIMALTF
 40
0.0394
  9
$DIMLFAC
 40
1.0
  9
$DIMTOFL
 70
       1
  9
$DIMTVP
 40
0.0
  9
$DIMTIX
 70
       0
  9
$DIMSOXD
 70
       0
  9
$DIMSAH
 70
       0
  9
$DIMBLK1
  1

  9
$DIMBLK2
  1

  9
$DIMSTYLE
  2
MXDIMSTYLE
  9
$DIMCLRD
 70
       0
  9
$DIMCLRE
 70
       0
  9
$DIMCLRT
 70
       0
  9
$DIMTFAC
 40
1.0
  9
$DIMGAP
 40
1.0
  9
$LUNITS
 70
       2
  9
$LUPREC
 70
       4
  9
$AXISMODE
 70
       0
  9
$AXISUNIT
 10
0.0
 20
0.0
  9
$SKETCHINC
 40
0.1
  9
$FILLETRAD
 40
0.0
  9
$AUNITS
 70
       0
  9
$AUPREC
 70
       0
  9
$MENU
  1
acad
  9
$ELEVATION
 40
0.0
  9
$PELEVATION
 40
0.0
  9
$THICKNESS
 40
0.0
  9
$LIMCHECK
 70
       0
  9
$BLIPMODE
 70
       1
  9
$CHAMFERA
 40
0.0
  9
$CHAMFERB
 40
0.0
  9
$SKPOLY
 70
       0
  9
$TDCREATE
 40
2452766.446388889
  9
$TDUPDATE
 40
2452766.446388889
  9
$TDINDWG
 40
0.0000000000
  9
$TDUSRTIMER
 40
0.0000000000
  9
$USRTIMER
 70
       1
  9
$ANGBASE
 50
0.0
  9
$ANGDIR
 70
       0
  9
$PDMODE
 70
       0
  9
$PDSIZE
 40
0.0
  9
$PLINEWID
 40
0.0
  9
$COORDS
 70
       1
  9
$SPLFRAME
 70
       0
  9
$SPLINETYPE
 70
       6
  9
$SPLINESEGS
 70
       8
  9
$ATTDIA
 70
       0
  9
$ATTREQ
 70
       1
  9
$HANDLING
 70
       1
  9
$HANDSEED
  5
4E0
  9
$SURFTAB1
 70
       6
  9
$SURFTAB2
 70
       6
  9
$SURFTYPE
 70
       6
  9
$SURFU
 70
       6
  9
$SURFV
 70
       6
  9
$UCSNAME
  2

  9
$UCSORG
 10
0.0
 20
0.0
 30
0.0
  9
$UCSXDIR
 10
1.0
 20
0.0
 30
0.0
  9
$UCSYDIR
 10
0.0
 20
1.0
 30
0.0
  9
$PUCSNAME
  2

  9
$PUCSORG
 10
0.0
 20
0.0
 30
0.0
  9
$PUCSXDIR
 10
1.0
 20
0.0
 30
0.0
  9
$PUCSYDIR
 10
0.0
 20
1.0
 30
0.0
  9
$USERI1
 70
       0
  9
$USERI2
 70
       0
  9
$USERI3
 70
       0
  9
$USERI4
 70
       0
  9
$USERI5
 70
       0
  9
$USERR1
 40
0.0
  9
$USERR2
 40
0.0
  9
$USERR3
 40
0.0
  9
$USERR4
 40
0.0
  9
$USERR5
 40
0.0
  9
$WORLDVIEW
 70
       1
  9
$SHADEDGE
 70
       3
  9
$SHADEDIF
 70
      70
  9
$TILEMODE
 70
       1
  9
$MAXACTVP
 70
      16
  9
$PINSBASE
 10
0.0
 20
0.0
 30
0.0
  9
$PLIMCHECK
 70
       0
  9
$PEXTMIN
 10
1.00000000E+20
 20
1.00000000E+20
 30
1.00000000E+20
  9
$PEXTMAX
 10
-1.00000000E+20
 20
-1.00000000E+20
 30
-1.00000000E+20
  9
$PLIMMIN
 10
0.0
 20
0.0
  9
$PLIMMAX
 10
12.0
 20
9.0
  9
$UNITMODE
 70
       0
  9
$VISRETAIN
 70
       0
  9
$PLINEGEN
 70
       1
  9
$PSLTSCALE
 70
       0
  9
$TREEDEPTH
 70
    3020
  9
$DWGCODEPAGE
  3
dos932
  0
ENDSEC
  0
SECTION
  2
TABLES
  0
TABLE
  2
VPORT
 70
       1
  0
VPORT
  2
*ACTIVE
 70
       0
 10
0.0
 20
0.0
 11
1.0
 21
1.0
 12
0.0
 22
0.0
 13
0.0
 23
0.0
 14
1.0
 24
1.0
 15
0.0
 25
0.0
 16
0.0
 26
0.0
 36
1.0
 17
0.0
 27
0.0
 37
0.0
 40
558.53
 41
1.73205081
 42
50.0
 43
0.0
 44
0.0
 50
0.0
 51
0.0
 71
       0
 72
     100
 73
       1
 74
       1
 75
       0
 76
       0
 77
       0
 78
       0
  0
ENDTAB
  0
TABLE
  2
LTYPE
 70
       3
  0
LTYPE
  2
CONTINUOUS
 70
      64
  3
Solid line
 72
      65
 73
       0
 40
0.0
  0
LTYPE
  2
CENTER
 70
      64
  3
Center ____ _ ____ _ ____ _ ____ _ ____ _ ____
 72
      65
 73
       4
 40
50.8
 49
31.75
 49
-6.35
 49
6.35
 49
-6.35
  0
LTYPE
  2
DASHED
 70
      64
  3
Dashed __ __ __ __ __ __ __ __ __ __ __ __ __ _
 72
      65
 73
       2
 40
19.05
 49
12.7
 49
-6.35
  0
ENDTAB
  0
TABLE
  2
LAYER
 70
       2
  0
LAYER
  2
0
 70
       0
 62
       7
  6
CONTINUOUS
  0
LAYER
  2
DEFPOINTS
 70
       0
 62
       7
  6
CONTINUOUS
  0
ENDTAB
  0
TABLE
  2
STYLE
 70
       1
  0
STYLE
  2
MX_NOTE_STANDARD
 70
       0
 40
3.20000005
 41
1.0
 50
0.0
 71
       0
 42
3.20000005
  3
txt.shx
  4
extfont.shx
  0
ENDTAB
  0
TABLE
  2
VIEW
 70
       0
  0
ENDTAB
  0
TABLE
  2
UCS
 70
       0
  0
ENDTAB
  0
TABLE
  2
APPID
 70
       1
  0
APPID
  2
ACAD
 70
       0
  0
ENDTAB
  0
TABLE
  2
DIMSTYLE
 70
       1
  0
DIMSTYLE
  2
MXDIMSTYLE
 70
       0
  3

  4

  5

  6

  7

 40
1.0
 41
2.5
 42
1.5
 43
3.75
 44
1.5
 45
0.0
 46
0.0
 47
0.0
 48
0.0
 71
       0
 72
       0
 73
       0
 74
       0
 75
       0
 76
       0
 77
       1
 78
       8
140
3.20000005
141
2.5
142
0.0
143
0.0394
144
1.0
145
0.0
146
1.0
147
1.0
170
       0
171
       4
172
       1
173
       0
174
       0
175
       0
176
       0
177
       0
178
       0
  0
ENDTAB
  0
ENDSEC
  0
SECTION
  2
BLOCKS
  0
ENDSEC
  0
SECTION
  2
ENTITIES
  0
TEXT
  8
0
  6
CONTINUOUS
 62
       7
  5
1E
 10
-386.5807525
 20
-23.1500001
 30
0.0
 40
6.30000019
  1
MODEL:DAT40×50×50-A
 41
1.04204753
  7
MX_NOTE_STANDARD
 11
-386.5807525
 21
-20.0
 31
0.0
 73
       2
  0
LINE
  8
0
  6
CENTER
 62
       2
  5
20
 10
295.39280211
 20
-126.67622374
 30
0.0
 11
345.15280211
 21
-126.67622374
 31
0.0
  0
CIRCLE
  8
0
  6
CONTINUOUS
 62
       7
  5
21
 10
320.62279906
 20
-126.67622679
 30
0.0
 40
20.79998779
  0
CIRCLE
  8
0
  6
CONTINUOUS
 62
       7
  5
22
 10
320.62279906
 20
-126.67622679
 30
0.0
 40
16.5
  0
LINE
  8
0
  6
CENTER
 62
       2
  5
23
 10
320.62280211
 20
-101.87622374
 30
0.0
 11
320.62280211
 21
-150.06622374
 31
0.0
  0
POLYLINE
  8
0
  6
CONTINUOUS
 62
       7
  5
24
 66
       1
 10
0.0
 20
0.0
 30
0.0
  0
VERTEX
  8
0
  6
CONTINUOUS
 62
       7
  5
1F3
 10
-107.53719789
 20
-138.51622374
 30
0.0
  0
VERTEX
  8
0
  6
CONTINUOUS
 62
       7
  5
1F4
 10
-107.73691891
 20
-138.84920647
 30
0.0
  0
VERTEX
  8
0
  6
CONTINUOUS
 62
       7
  5
1F5
 10
-107.92821741
 20
-139.18937683
 30
0.0
  0
VERTEX
  8
0
  6
CONTINUOUS
 62
       7
  5
1F6
 10
-108.11047761
 20
-139.53625225
 30
0.0
  0
VERTEX
  8
0
  6
CONTINUOUS
 62
       7
  5
1F7
 10
-108.28308373
 20
-139.88935016
 30
0.0
  0
VERTEX
  8
0
  6
CONTINUOUS
 62
       7
  5
1F8
 10
-108.44542
 20
-140.248188
 30
0.0
  0
VERTEX
  8
0
  6
CONTINUOUS
 62
       7
  5
1F9
 10
-108.59687065
 20
-140.61228318
 30
0.0
  0
VERTEX
  8
0
  6
CONTINUOUS
 62
       7
  5
1FA
 10
-108.7368199
 20
-140.98115314
 30
0.0
  0
VERTEX
  8
0
  6
CONTINUOUS
 62
       7
  5
1FB
 10
-108.86465199
 20
-141.35431532
 30
0.0
  0
VERTEX
  8
0
  6
CONTINUOUS
 62
       7
  5
1FC
 10
-108.97975114
 20
-141.73128713
 30
0.0
  0
VERTEX
  8
0
  6
CONTINUOUS
 62
       7
  5
1FD
 10
-109.08150157
 20
-142.111586
 30
0.0
  0
VERTEX
  8
0
  6
CONTINUOUS
 62
       7
  5
1FE
 10
-109.16928751
 20
-142.49472938
 30
0.0
  0
VERTEX
  8
0
  6
CONTINUOUS
 62
       7
  5
1FF
 10
-109.2424932
 20
-142.88023468
 30
0.0
  0
VERTEX
  8
0
  6
CONTINUOUS
 62
       7
  5
200
 10
-109.30050285
 20
-143.26761934
 30
0.0
  0
VERTEX
  8
0
  6
CONTINUOUS
 62
       7
  5
201
 10
-109.3427007
 20
-143.65640078
 30
0.0
  0
VERTEX
  8
0
  6
CONTINUOUS
 62
       7
  5
202
 10
-109.36847097
 20
-144.04609644
 30
0.0
  0
VERTEX
  8
0
  6
CONTINUOUS
 62
       7
  5
203
 10
-109.37719789
 20
-144.43622374
 30
0.0
  0
VERTEX
  8
0
  6
CONTINUOUS
 62
       7
  5
204
 10
-109.36847094
 20
-144.82635104
 30
0.0
  0
VERTEX
  8
0
  6
CONTINUOUS
 62
       7
  5
205
 10
-109.34270065
 20
-145.21604671
 30
0.0
  0
VERTEX
  8
0
  6
CONTINUOUS
 62
       7
  5
206
 10
-109.30050279
 20
-145.60482816
 30
0.0
  0
VERTEX
  8
0
  6
CONTINUOUS
 62
       7
  5
207
 10
-109.24249312
 20
-145.99221283
 30
0.0
  0
VERTEX
  8
0
  6
CONTINUOUS
 62
       7
  5
208
 10
-109.16928743
 20
-146.37771815
 30
0.0
  0
VERTEX
  8
0
  6
CONTINUOUS
 62
       7
  5
209
 10
-109.08150148
 20
-146.76086154
 30
0.0
  0
VERTEX
  8
0
  6
CONTINUOUS
 62
       7
  5
20A
 10
-108.97975105
 20
-147.14116043
 30
0.0
  0
VERTEX
  8
0
  6
CONTINUOUS
 62
       7
  5
20B
 10
-108.86465191
 20
-147.51813225
 30
0.0
  0
VERTEX
  8
0
  6
CONTINUOUS
 62
       7
  5
20C
 10
-108.73681983
 20
-147.89129443
 30
0.0
  0
VERTEX
  8
0
  6
CONTINUOUS
 62
       7
  5
20D
 10
-108.59687058
 20
-148.2601644
 30
0.0
  0
VERTEX
  8
0
  6
CONTINUOUS
 62
       7
  5
20E
 10
-108.44541994
 20
-148.62425959
 30
0.0
  0
VERTEX
  8
0
  6
CONTINUOUS
 62
       7
  5
20F
 10
-108.28308368
 20
-148.98309741
 30
0.0
  0
VERTEX
  8
0
  6
CONTINUOUS
 62
       7
  5
210
 10
-108.11047758
 20
-149.33619532
 30
0.0
  0
VERTEX
  8
0
  6
CONTINUOUS
 62
       7
  5
211
 10
-107.92821739
 20
-149.68307072
 30
0.0
  0
VERTEX
  8
0
  6
CONTINUOUS
 62
       7
  5
212
 10
-107.73691891
 20
-150.02324105
 30
0.0
  0
VERTEX
  8
0
  6
CONTINUOUS
 62
       7
  5
213
 10
-107.53719789
 20
-150.35622374
 30
0.0
  0
SEQEND
  8
0
  6
CONTINUOUS
 62
       7
  5
214
  0
POLYLINE
  8
0
  6
CONTINUOUS
 62
       7
  5
25
 66
       1
 10
0.0
 20
0.0
 30
0.0
  0
VERTEX
  8
0
  6
CONTINUOUS
 62
       7
  5
215
 10
-107.53719789
 20
-103.00622374
 30
0.0
  0
VERTEX
  8
0
  6
CONTINUOUS
 62
       7
  5
216
 10
-107.73691891
 20
-103.33920634
 30
0.0
  0
VERTEX
  8
0
  6
CONTINUOUS
 62
       7
  5
217
 10
-107.92821739
 20
-103.67937644
 30
0.0
  0
VERTEX
  8
0
  6
CONTINUOUS
 62
       7
  5
218
 10
-108.11047758
 20
-104.02625149
 30
0.0
  0
VERTEX
  8
0
  6
CONTINUOUS
 62
       7
  5
219
 10
-108.28308368
 20
-104.37934897
 30
0.0
  0
VERTEX
  8
0
  6
CONTINUOUS
 62
       7
  5
21A
 10
-108.44541994
 20
-104.73818632
 30
0.0
  0
VERTEX
  8
0
  6
CONTINUOUS
 62
       7
  5
21B
 10
-108.59687058
 20
-105.10228102
 30
0.0
  0
VERTEX
  8
0
  6
CONTINUOUS
 62
       7
  5
21C
 10
-108.73681982
 20
-105.47115053
 30
0.0
  0
VERTEX
  8
0
  6
CONTINUOUS
 62
       7
  5
21D
 10
-108.8646519
 20
-105.84431231
 30
0.0
  0
VERTEX
  8
0
  6
CONTINUOUS
 62
       7
  5
21E
 10
-108.97975104
 20
-106.22128382
 30
0.0
  0
VERTEX
  8
0
  6
CONTINUOUS
 62
       7
  5
21F
 10
-109.08150148
 20
-106.60158252
 30
0.0
  0
VERTEX
  8
0
  6
CONTINUOUS
 62
       7
  5
220
 10
-109.16928742
 20
-106.98472588
 30
0.0
  0
VERTEX
  8
0
  6
CONTINUOUS
 62
       7
  5
221
 10
-109.24249312
 20
-107.37023136
 30
0.0
  0
VERTEX
  8
0
  6
CONTINUOUS
 62
       7
  5
222
 10
-109.30050278
 20
-107.75761643
 30
0.0
  0
VERTEX
  8
0
  6
CONTINUOUS
 62
       7
  5
223
 10
-109.34270065
 20
-108.14639853
 30
0.0
  0
VERTEX
  8
0
  6
CONTINUOUS
 62
       7
  5
224
 10
-109.36847094
 20
-108.53609515
 30
0.0
  0
VERTEX
  8
0
  6
CONTINUOUS
 62
       7
  5
225
 10
-109.37719789
 20
-108.92622374
 30
0.0
  0
VERTEX
  8
0
  6
CONTINUOUS
 62
       7
  5
226
 10
-109.36847097
 20
-109.31635232
 30
0.0
  0
VERTEX
  8
0
  6
CONTINUOUS
 62
       7
  5
227
 10
-109.34270071
 20
-109.70604892
 30
0.0
  0
VERTEX
  8
0
  6
CONTINUOUS
 62
       7
  5
228
 10
-109.30050287
 20
-110.09483102
 30
0.0
  0
VERTEX
  8
0
  6
CONTINUOUS
 62
       7
  5
229
 10
-109.24249322
 20
-110.48221606
 30
0.0
  0
VERTEX
  8
0
  6
CONTINUOUS
 62
       7
  5
22A
 10
-109.16928754
 20
-110.86772151
 30
0.0
  0
VERTEX
  8
0
  6
CONTINUOUS
 62
       7
  5
22B
 10
-109.0815016
 20
-111.25086485
 30
0.0
  0
VERTEX
  8
0
  6
CONTINUOUS
 62
       7
  5
22C
 10
-108.97975118
 20
-111.63116353
 30
0.0
  0
VERTEX
  8
0
  6
CONTINUOUS
 62
       7
  5
22D
 10
-108.86465204
 20
-112.00813501
 30
0.0
  0
VERTEX
  8
0
  6
CONTINUOUS
 62
       7
  5
22E
 10
-108.73681995
 20
-112.38129677
 30
0.0
  0
VERTEX
  8
0
  6
CONTINUOUS
 62
       7
  5
22F
 10
-108.5968707
 20
-112.75016627
 30
0.0
  0
VERTEX
  8
0
  6
CONTINUOUS
 62
       7
  5
230
 10
-108.44542005
 20
-113.11426097
 30
0.0
  0
VERTEX
  8
0
  6
CONTINUOUS
 62
       7
  5
231
 10
-108.28308378
 20
-113.47309833
 30
0.0
  0
VERTEX
  8
0
  6
CONTINUOUS
 62
       7
  5
232
 10
-108.11047765
 20
-113.82619583
 30
0.0
  0
VERTEX
  8
0
  6
CONTINUOUS
 62
       7
  5
233
 10
-107.92821745
 20
-114.17307092
 30
0.0
  0
VERTEX
  8
0
  6
CONTINUOUS
 62
       7
  5
234
 10
-107.73691893
 20
-114.51324107
 30
0.0
  0
VERTEX
  8
0
  6
CONTINUOUS
 62
       7
  5
235
 10
-107.53719789
 20
-114.84622374
 30
0.0
  0
SEQEND
  8
0
  6
CONTINUOUS
 62
       7
  5
236
  0
POLYLINE
  8
0
  6
CONTINUOUS
 62
       7
  5
26
 66
       1
 10
0.0
 20
0.0
 30
0.0
  0
VERTEX
  8
0
  6
CONTINUOUS
 62
       7
  5
237
 10
-107.53719789
 20
-114.84622374
 30
0.0
  0
VERTEX
  8
0
  6
CONTINUOUS
 62
       7
  5
238
 10
-107.75231808
 20
-115.56354311
 30
0.0
  0
VERTEX
  8
0
  6
CONTINUOUS
 62
       7
  5
239
 10
-107.95504618
 20
-116.28514129
 30
0.0
  0
VERTEX
  8
0
  6
CONTINUOUS
 62
       7
  5
23A
 10
-108.14517705
 20
-117.01073155
 30
0.0
  0
VERTEX
  8
0
  6
CONTINUOUS
 62
       7
  5
23B
 10
-108.32250558
 20
-117.74002715
 30
0.0
  0
VERTEX
  8
0
  6
CONTINUOUS
 62
       7
  5
23C
 10
-108.48682662
 20
-118.47274138
 30
0.0
  0
VERTEX
  8
0
  6
CONTINUOUS
 62
       7
  5
23D
 10
-108.63793506
 20
-119.20858751
 30
0.0
  0
VERTEX
  8
0
  6
CONTINUOUS
 62
       7
  5
23E
 10
-108.77562577
 20
-119.94727881
 30
0.0
  0
VERTEX
  8
0
  6
CONTINUOUS
 62
       7
  5
23F
 10
-108.89969361
 20
-120.68852857
 30
0.0
  0
VERTEX
  8
0
  6
CONTINUOUS
 62
       7
  5
240
 10
-109.00993346
 20
-121.43205005
 30
0.0
  0
VERTEX
  8
0
  6
CONTINUOUS
 62
       7
  5
241
 10
-109.10614019
 20
-122.17755652
 30
0.0
  0
VERTEX
  8
0
  6
CONTINUOUS
 62
       7
  5
242
 10
-109.18810867
 20
-122.92476127
 30
0.0
  0
VERTEX
  8
0
  6
CONTINUOUS
 62
       7
  5
243
 10
-109.25563378
 20
-123.67337757
 30
0.0
  0
VERTEX
  8
0
  6
CONTINUOUS
 62
       7
  5
244
 10
-109.30851038
 20
-124.42311869
 30
0.0
  0
VERTEX
  8
0
  6
CONTINUOUS
 62
       7
  5
245
 10
-109.34653335
 20
-125.17369791
 30
0.0
  0
VERTEX
  8
0
  6
CONTINUOUS
 62
       7
  5
246
 10
-109.36949756
 20
-125.9248285
 30
0.0
  0
VERTEX
  8
0
  6
CONTINUOUS
 62
       7
  5
247
 10
-109.37719789
 20
-126.67622374
 30
0.0
  0
VERTEX
  8
0
  6
CONTINUOUS
 62
       7
  5
248
 10
-109.36949757
 20
-127.42827637
 30
0.0
  0
VERTEX
  8
0
  6
CONTINUOUS
 62
       7
  5
249
 10
-109.34653336
 20
-128.18012893
 30
0.0
  0
VERTEX
  8
0
  6
CONTINUOUS
 62
       7
  5
24A
 10
-109.30851039
 20
-128.93147991
 30
0.0
  0
VERTEX
  8
0
  6
CONTINUOUS
 62
       7
  5
24B
 10
-109.25563379
 20
-129.68202784
 30
0.0
  0
VERTEX
  8
0
  6
CONTINUOUS
 62
       7
  5
24C
 10
-109.18810868
 20
-130.43147123
 30
0.0
  0
VERTEX
  8
0
  6
CONTINUOUS
 62
       7
  5
24D
 10
-109.1061402
 20
-131.1795086
 30
0.0
  0
VERTEX
  8
0
  6
CONTINUOUS
 62
       7
  5
24E
 10
-109.00993347
 20
-131.92583845
 30
0.0
  0
VERTEX
  8
0
  6
CONTINUOUS
 62
       7
  5
24F
 10
-108.89969362
 20
-132.6701593
 30
0.0
  0
VERTEX
  8
0
  6
CONTINUOUS
 62
       7
  5
250
 10
-108.77562577
 20
-133.41216966
 30
0.0
  0
VERTEX
  8
0
  6
CONTINUOUS
 62
       7
  5
251
 10
-108.63793507
 20
-134.15156805
 30
0.0
  0
VERTEX
  8
0
  6
CONTINUOUS
 62
       7
  5
252
 10
-108.48682663
 20
-134.88805298
 30
0.0
  0
VERTEX
  8
0
  6
CONTINUOUS
 62
       7
  5
253
 10
-108.32250558
 20
-135.62132297
 30
0.0
  0
VERTEX
  8
0
  6
CONTINUOUS
 62
       7
  5
254
 10
-108.14517705
 20
-136.35107653
 30
0.0
  0
VERTEX
  8
0
  6
CONTINUOUS
 62
       7
  5
255
 10
-107.95504618
 20
-137.07701216
 30
0.0
  0
VERTEX
  8
0
  6
CONTINUOUS
 62
       7
  5
256
 10
-107.75231808
 20
-137.7988284
 30
0.0
  0
VERTEX
  8
0
  6
CONTINUOUS
 62
       7
  5
257
 10
-107.53719789
 20
-138.51622374
 30
0.0
  0
SEQEND
  8
0
  6
CONTINUOUS
 62
       7
  5
258
  0
POLYLINE
  8
0
  6
CONTINUOUS
 62
       7
  5
27
 66
       1
 10
0.0
 20
0.0
 30
0.0
  0
VERTEX
  8
0
  6
CONTINUOUS
 62
       7
  5
259
 10
-127.21719789
 20
-132.16622374
 30
0.0
  0
VERTEX
  8
0
  6
CONTINUOUS
 62
       7
  5
25A
 10
-127.12478658
 20
-132.32049444
 30
0.0
  0
VERTEX
  8
0
  6
CONTINUOUS
 62
       7
  5
25B
 10
-127.03653852
 20
-132.47802595
 30
0.0
  0
VERTEX
  8
0
  6
CONTINUOUS
 62
       7
  5
25C
 10
-126.9527019
 20
-132.63860466
 30
0.0
  0
VERTEX
  8
0
  6
CONTINUOUS
 62
       7
  5
25D
 10
-126.87352493
 20
-132.80201693
 30
0.0
  0
VERTEX
  8
0
  6
CONTINUOUS
 62
       7
  5
25E
 10
-126.7992558
 20
-132.96804915
 30
0.0
  0
VERTEX
  8
0
  6
CONTINUOUS
 62
       7
  5
25F
 10
-126.73014271
 20
-133.13648769
 30
0.0
  0
VERTEX
  8
0
  6
CONTINUOUS
 62
       7
  5
260
 10
-126.66643386
 20
-133.30711893
 30
0.0
  0
VERTEX
  8
0
  6
CONTINUOUS
 62
       7
  5
261
 10
-126.60837745
 20
-133.47972924
 30
0.0
  0
VERTEX
  8
0
  6
CONTINUOUS
 62
       7
  5
262
 10
-126.55622168
 20
-133.65410501
 30
0.0
  0
VERTEX
  8
0
  6
CONTINUOUS
 62
       7
  5
263
 10
-126.51021475
 20
-133.83003261
 30
0.0
  0
VERTEX
  8
0
  6
CONTINUOUS
 62
       7
  5
264
 10
-126.47060486
 20
-134.00729841
 30
0.0
  0
VERTEX
  8
0
  6
CONTINUOUS
 62
       7
  5
265
 10
-126.4376402
 20
-134.1856888
 30
0.0
  0
VERTEX
  8
0
  6
CONTINUOUS
 62
       7
  5
266
 10
-126.41156897
 20
-134.36499015
 30
0.0
  0
VERTEX
  8
0
  6
CONTINUOUS
 62
       7
  5
267
 10
-126.39263938
 20
-134.54498884
 30
0.0
  0
VERTEX
  8
0
  6
CONTINUOUS
 62
       7
  5
268
 10
-126.38109962
 20
-134.72547124
 30
0.0
  0
VERTEX
  8
0
  6
CONTINUOUS
 62
       7
  5
269
 10
-126.37719789
 20
-134.90622374
 30
0.0
  0
VERTEX
  8
0
  6
CONTINUOUS
 62
       7
  5
26A
 10
-126.38109965
 20
-135.08697624
 30
0.0
  0
VERTEX
  8
0
  6
CONTINUOUS
 62
       7
  5
26B
 10
-126.39263944
 20
-135.26745865
 30
0.0
  0
VERTEX
  8
0
  6
CONTINUOUS
 62
       7
  5
26C
 10
-126.41156906
 20
-135.44745735
 30
0.0
  0
VERTEX
  8
0
  6
CONTINUOUS
 62
       7
  5
26D
 10
-126.43764031
 20
-135.62675871
 30
0.0
  0
VERTEX
  8
0
  6
CONTINUOUS
 62
       7
  5
26E
 10
-126.47060499
 20
-135.80514912
 30
0.0
  0
VERTEX
  8
0
  6
CONTINUOUS
 62
       7
  5
26F
 10
-126.51021489
 20
-135.98241494
 30
0.0
  0
VERTEX
  8
0
  6
CONTINUOUS
 62
       7
  5
270
 10
-126.55622183
 20
-136.15834256
 30
0.0
  0
VERTEX
  8
0
  6
CONTINUOUS
 62
       7
  5
271
 10
-126.60837761
 20
-136.33271834
 30
0.0
  0
VERTEX
  8
0
  6
CONTINUOUS
 62
       7
  5
272
 10
-126.66643401
 20
-136.50532867
 30
0.0
  0
VERTEX
  8
0
  6
CONTINUOUS
 62
       7
  5
273
 10
-126.73014285
 20
-136.67595991
 30
0.0
  0
VERTEX
  8
0
  6
CONTINUOUS
 62
       7
  5
274
 10
-126.79925593
 20
-136.84439845
 30
0.0
  0
VERTEX
  8
0
  6
CONTINUOUS
 62
       7
  5
275
 10
-126.87352504
 20
-137.01043067
 30
0.0
  0
VERTEX
  8
0
  6
CONTINUOUS
 62
       7
  5
276
 10
-126.952702
 20
-137.17384293
 30
0.0
  0
VERTEX
  8
0
  6
CONTINUOUS
 62
       7
  5
277
 10
-127.03653859
 20
-137.33442161
 30
0.0
  0
VERTEX
  8
0
  6
CONTINUOUS
 62
       7
  5
278
 10
-127.12478662
 20
-137.49195309
 30
0.0
  0
VERTEX
  8
0
  6
CONTINUOUS
 62
       7
  5
279
 10
-127.21719789
 20
-137.64622374
 30
0.0
  0
SEQEND
  8
0
  6
CONTINUOUS
 62
       7
  5
27A
  0
POLYLINE
  8
0
  6
CONTINUOUS
 62
       7
  5
28
 66
       1
 10
0.0
 20
0.0
 30
0.0
  0
VERTEX
  8
0
  6
CONTINUOUS
 62
       7
  5
27B
 10
-133.52719789
 20
-132.16622374
 30
0.0
  0
VERTEX
  8
0
  6
CONTINUOUS
 62
       7
  5
27C
 10
-133.61972135
 20
-132.32049452
 30
0.0
  0
VERTEX
  8
0
  6
CONTINUOUS
 62
       7
  5
27D
 10
-133.70828669
 20
-132.47802607
 30
0.0
  0
VERTEX
  8
0
  6
CONTINUOUS
 62
       7
  5
27E
 10
-133.7926164
 20
-132.63860479
 30
0.0
  0
VERTEX
  8
0
  6
CONTINUOUS
 62
       7
  5
27F
 10
-133.87243297
 20
-132.80201705
 30
0.0
  0
VERTEX
  8
0
  6
CONTINUOUS
 62
       7
  5
280
 10
-133.94745891
 20
-132.96804923
 30
0.0
  0
VERTEX
  8
0
  6
CONTINUOUS
 62
       7
  5
281
 10
-134.01741673
 20
-133.13648772
 30
0.0
  0
VERTEX
  8
0
  6
CONTINUOUS
 62
       7
  5
282
 10
-134.08202892
 20
-133.3071189
 30
0.0
  0
VERTEX
  8
0
  6
CONTINUOUS
 62
       7
  5
283
 10
-134.14101797
 20
-133.47972915
 30
0.0
  0
VERTEX
  8
0
  6
CONTINUOUS
 62
       7
  5
284
 10
-134.1941064
 20
-133.65410486
 30
0.0
  0
VERTEX
  8
0
  6
CONTINUOUS
 62
       7
  5
285
 10
-134.24101671
 20
-133.83003241
 30
0.0
  0
VERTEX
  8
0
  6
CONTINUOUS
 62
       7
  5
286
 10
-134.28147138
 20
-134.00729818
 30
0.0
  0
VERTEX
  8
0
  6
CONTINUOUS
 62
       7
  5
287
 10
-134.31519293
 20
-134.18568855
 30
0.0
  0
VERTEX
  8
0
  6
CONTINUOUS
 62
       7
  5
288
 10
-134.34190386
 20
-134.36498991
 30
0.0
  0
VERTEX
  8
0
  6
CONTINUOUS
 62
       7
  5
289
 10
-134.36132666
 20
-134.54498864
 30
0.0
  0
VERTEX
  8
0
  6
CONTINUOUS
 62
       7
  5
28A
 10
-134.37318383
 20
-134.72547112
 30
0.0
  0
VERTEX
  8
0
  6
CONTINUOUS
 62
       7
  5
28B
 10
-134.37719789
 20
-134.90622374
 30
0.0
  0
VERTEX
  8
0
  6
CONTINUOUS
 62
       7
  5
28C
 10
-134.37318382
 20
-135.08697636
 30
0.0
  0
VERTEX
  8
0
  6
CONTINUOUS
 62
       7
  5
28D
 10
-134.36132662
 20
-135.26745885
 30
0.0
  0
VERTEX
  8
0
  6
CONTINUOUS
 62
       7
  5
28E
 10
-134.34190381
 20
-135.4474576
 30
0.0
  0
VERTEX
  8
0
  6
CONTINUOUS
 62
       7
  5
28F
 10
-134.31519287
 20
-135.62675898
 30
0.0
  0
VERTEX
  8
0
  6
CONTINUOUS
 62
       7
  5
290
 10
-134.28147132
 20
-135.80514937
 30
0.0
  0
VERTEX
  8
0
  6
CONTINUOUS
 62
       7
  5
291
 10
-134.24101663
 20
-135.98241517
 30
0.0
  0
VERTEX
  8
0
  6
CONTINUOUS
 62
       7
  5
292
 10
-134.19410633
 20
-136.15834274
 30
0.0
  0
VERTEX
  8
0
  6
CONTINUOUS
 62
       7
  5
293
 10
-134.1410179
 20
-136.33271847
 30
0.0
  0
VERTEX
  8
0
  6
CONTINUOUS
 62
       7
  5
294
 10
-134.08202884
 20
-136.50532874
 30
0.0
  0
VERTEX
  8
0
  6
CONTINUOUS
 62
       7
  5
295
 10
-134.01741666
 20
-136.67595993
 30
0.0
  0
VERTEX
  8
0
  6
CONTINUOUS
 62
       7
  5
296
 10
-133.94745885
 20
-136.84439842
 30
0.0
  0
VERTEX
  8
0
  6
CONTINUOUS
 62
       7
  5
297
 10
-133.87243291
 20
-137.0104306
 30
0.0
  0
VERTEX
  8
0
  6
CONTINUOUS
 62
       7
  5
298
 10
-133.79261635
 20
-137.17384284
 30
0.0
  0
VERTEX
  8
0
  6
CONTINUOUS
 62
       7
  5
299
 10
-133.70828666
 20
-137.33442152
 30
0.0
  0
VERTEX
  8
0
  6
CONTINUOUS
 62
       7
  5
29A
 10
-133.61972134
 20
-137.49195303
 30
0.0
  0
VERTEX
  8
0
  6
CONTINUOUS
 62
       7
  5
29B
 10
-133.52719789
 20
-137.64622374
 30
0.0
  0
SEQEND
  8
0
  6
CONTINUOUS
 62
       7
  5
29C
  0
POLYLINE
  8
0
  6
CONTINUOUS
 62
       7
  5
29
 66
       1
 10
0.0
 20
0.0
 30
0.0
  0
VERTEX
  8
0
  6
CONTINUOUS
 62
       7
  5
29D
 10
-127.21719789
 20
-115.70622374
 30
0.0
  0
VERTEX
  8
0
  6
CONTINUOUS
 62
       7
  5
29E
 10
-127.1247866
 20
-115.86057128
 30
0.0
  0
VERTEX
  8
0
  6
CONTINUOUS
 62
       7
  5
29F
 10
-127.03653855
 20
-116.01832345
 30
0.0
  0
VERTEX
  8
0
  6
CONTINUOUS
 62
       7
  5
2A0
 10
-126.95270194
 20
-116.17925146
 30
0.0
  0
VERTEX
  8
0
  6
CONTINUOUS
 62
       7
  5
2A1
 10
-126.87352498
 20
-116.34312655
 30
0.0
  0
VERTEX
  8
0
  6
CONTINUOUS
 62
       7
  5
2A2
 10
-126.79925586
 20
-116.50971993
 30
0.0
  0
VERTEX
  8
0
  6
CONTINUOUS
 62
       7
  5
2A3
 10
-126.73014278
 20
-116.67880282
 30
0.0
  0
VERTEX
  8
0
  6
CONTINUOUS
 62
       7
  5
2A4
 10
-126.66643393
 20
-116.85014645
 30
0.0
  0
VERTEX
  8
0
  6
CONTINUOUS
 62
       7
  5
2A5
 10
-126.60837753
 20
-117.02352204
 30
0.0
  0
VERTEX
  8
0
  6
CONTINUOUS
 62
       7
  5
2A6
 10
-126.55622176
 20
-117.1987008
 30
0.0
  0
VERTEX
  8
0
  6
CONTINUOUS
 62
       7
  5
2A7
 10
-126.51021482
 20
-117.37545396
 30
0.0
  0
VERTEX
  8
0
  6
CONTINUOUS
 62
       7
  5
2A8
 10
-126.47060492
 20
-117.55355275
 30
0.0
  0
VERTEX
  8
0
  6
CONTINUOUS
 62
       7
  5
2A9
 10
-126.43764025
 20
-117.73276837
 30
0.0
  0
VERTEX
  8
0
  6
CONTINUOUS
 62
       7
  5
2AA
 10
-126.41156901
 20
-117.91287206
 30
0.0
  0
VERTEX
  8
0
  6
CONTINUOUS
 62
       7
  5
2AB
 10
-126.39263941
 20
-118.09363504
 30
0.0
  0
VERTEX
  8
0
  6
CONTINUOUS
 62
       7
  5
2AC
 10
-126.38109963
 20
-118.27482852
 30
0.0
  0
VERTEX
  8
0
  6
CONTINUOUS
 62
       7
  5
2AD
 10
-126.37719789
 20
-118.45622374
 30
0.0
  0
VERTEX
  8
0
  6
CONTINUOUS
 62
       7
  5
2AE
 10
-126.38109963
 20
-118.63697639
 30
0.0
  0
VERTEX
  8
0
  6
CONTINUOUS
 62
       7
  5
2AF
 10
-126.39263941
 20
-118.81745892
 30
0.0
  0
VERTEX
  8
0
  6
CONTINUOUS
 62
       7
  5
2B0
 10
-126.41156902
 20
-118.99745771
 30
0.0
  0
VERTEX
  8
0
  6
CONTINUOUS
 62
       7
  5
2B1
 10
-126.43764025
 20
-119.17675915
 30
0.0
  0
VERTEX
  8
0
  6
CONTINUOUS
 62
       7
  5
2B2
 10
-126.47060492
 20
-119.35514959
 30
0.0
  0
VERTEX
  8
0
  6
CONTINUOUS
 62
       7
  5
2B3
 10
-126.51021482
 20
-119.53241543
 30
0.0
  0
VERTEX
  8
0
  6
CONTINUOUS
 62
       7
  5
2B4
 10
-126.55622176
 20
-119.70834305
 30
0.0
  0
VERTEX
  8
0
  6
CONTINUOUS
 62
       7
  5
2B5
 10
-126.60837753
 20
-119.88271881
 30
0.0
  0
VERTEX
  8
0
  6
CONTINUOUS
 62
       7
  5
2B6
 10
-126.66643393
 20
-120.0553291
 30
0.0
  0
VERTEX
  8
0
  6
CONTINUOUS
 62
       7
  5
2B7
 10
-126.73014278
 20
-120.2259603
 30
0.0
  0
VERTEX
  8
0
  6
CONTINUOUS
 62
       7
  5
2B8
 10
-126.79925586
 20
-120.39439879
 30
0.0
  0
VERTEX
  8
0
  6
CONTINUOUS
 62
       7
  5
2B9
 10
-126.87352498
 20
-120.56043094
 30
0.0
  0
VERTEX
  8
0
  6
CONTINUOUS
 62
       7
  5
2BA
 10
-126.95270194
 20
-120.72384313
 30
0.0
  0
VERTEX
  8
0
  6
CONTINUOUS
 62
       7
  5
2BB
 10
-127.03653855
 20
-120.88442174
 30
0.0
  0
VERTEX
  8
0
  6
CONTINUOUS
 62
       7
  5
2BC
 10
-127.1247866
 20
-121.04195315
 30
0.0
  0
VERTEX
  8
0
  6
CONTINUOUS
 62
       7
  5
2BD
 10
-127.21719789
 20
-121.19622374
 30
0.0
  0
SEQEND
  8
0
  6
CONTINUOUS
 62
       7
  5
2BE
  0
POLYLINE
  8
0
  6
CONTINUOUS
 62
       7
  5
2A
 66
       1
 10
0.0
 20
0.0
 30
0.0
  0
VERTEX
  8
0
  6
CONTINUOUS
 62
       7
  5
2BF
 10
-133.52719789
 20
-115.70622374
 30
0.0
  0
VERTEX
  8
0
  6
CONTINUOUS
 62
       7
  5
2C0
 10
-133.61972133
 20
-115.86057141
 30
0.0
  0
VERTEX
  8
0
  6
CONTINUOUS
 62
       7
  5
2C1
 10
-133.70828664
 20
-116.01832383
 30
0.0
  0
VERTEX
  8
0
  6
CONTINUOUS
 62
       7
  5
2C2
 10
-133.79261633
 20
-116.17925217
 30
0.0
  0
VERTEX
  8
0
  6
CONTINUOUS
 62
       7
  5
2C3
 10
-133.8724329
 20
-116.34312765
 30
0.0
  0
VERTEX
  8
0
  6
CONTINUOUS
 62
       7
  5
2C4
 10
-133.94745884
 20
-116.50972145
 30
0.0
  0
VERTEX
  8
0
  6
CONTINUOUS
 62
       7
  5
2C5
 10
-134.01741665
 20
-116.67880476
 30
0.0
  0
VERTEX
  8
0
  6
CONTINUOUS
 62
       7
  5
2C6
 10
-134.08202883
 20
-116.85014878
 30
0.0
  0
VERTEX
  8
0
  6
CONTINUOUS
 62
       7
  5
2C7
 10
-134.1410179
 20
-117.0235247
 30
0.0
  0
VERTEX
  8
0
  6
CONTINUOUS
 62
       7
  5
2C8
 10
-134.19410633
 20
-117.19870372
 30
0.0
  0
VERTEX
  8
0
  6
CONTINUOUS
 62
       7
  5
2C9
 10
-134.24101664
 20
-117.37545702
 30
0.0
  0
VERTEX
  8
0
  6
CONTINUOUS
 62
       7
  5
2CA
 10
-134.28147133
 20
-117.55355581
 30
0.0
  0
VERTEX
  8
0
  6
CONTINUOUS
 62
       7
  5
2CB
 10
-134.31519289
 20
-117.73277127
 30
0.0
  0
VERTEX
  8
0
  6
CONTINUOUS
 62
       7
  5
2CC
 10
-134.34190383
 20
-117.9128746
 30
0.0
  0
VERTEX
  8
0
  6
CONTINUOUS
 62
       7
  5
2CD
 10
-134.36132664
 20
-118.09363699
 30
0.0
  0
VERTEX
  8
0
  6
CONTINUOUS
 62
       7
  5
2CE
 10
-134.37318382
 20
-118.27482964
 30
0.0
  0
VERTEX
  8
0
  6
CONTINUOUS
 62
       7
  5
2CF
 10
-134.37719789
 20
-118.45622374
 30
0.0
  0
VERTEX
  8
0
  6
CONTINUOUS
 62
       7
  5
2D0
 10
-134.37318382
 20
-118.63697636
 30
0.0
  0
VERTEX
  8
0
  6
CONTINUOUS
 62
       7
  5
2D1
 10
-134.36132664
 20
-118.81745887
 30
0.0
  0
VERTEX
  8
0
  6
CONTINUOUS
 62
       7
  5
2D2
 10
-134.34190382
 20
-118.99745763
 30
0.0
  0
VERTEX
  8
0
  6
CONTINUOUS
 62
       7
  5
2D3
 10
-134.31519289
 20
-119.17675903
 30
0.0
  0
VERTEX
  8
0
  6
CONTINUOUS
 62
       7
  5
2D4
 10
-134.28147133
 20
-119.35514945
 30
0.0
  0
VERTEX
  8
0
  6
CONTINUOUS
 62
       7
  5
2D5
 10
-134.24101664
 20
-119.53241527
 30
0.0
  0
VERTEX
  8
0
  6
CONTINUOUS
 62
       7
  5
2D6
 10
-134.19410633
 20
-119.70834287
 30
0.0
  0
VERTEX
  8
0
  6
CONTINUOUS
 62
       7
  5
2D7
 10
-134.14101789
 20
-119.88271862
 30
0.0
  0
VERTEX
  8
0
  6
CONTINUOUS
 62
       7
  5
2D8
 10
-134.08202883
 20
-120.05532891
 30
0.0
  0
VERTEX
  8
0
  6
CONTINUOUS
 62
       7
  5
2D9
 10
-134.01741665
 20
-120.22596011
 30
0.0
  0
VERTEX
  8
0
  6
CONTINUOUS
 62
       7
  5
2DA
 10
-133.94745883
 20
-120.3943986
 30
0.0
  0
VERTEX
  8
0
  6
CONTINUOUS
 62
       7
  5
2DB
 10
-133.8724329
 20
-120.56043077
 30
0.0
  0
VERTEX
  8
0
  6
CONTINUOUS
 62
       7
  5
2DC
 10
-133.79261633
 20
-120.72384298
 30
0.0
  0
VERTEX
  8
0
  6
CONTINUOUS
 62
       7
  5
2DD
 10
-133.70828664
 20
-120.88442163
 30
0.0
  0
VERTEX
  8
0
  6
CONTINUOUS
 62
       7
  5
2DE
 10
-133.61972133
 20
-121.04195309
 30
0.0
  0
VERTEX
  8
0
  6
CONTINUOUS
 62
       7
  5
2DF
 10
-133.52719789
 20
-121.19622374
 30
0.0
  0
SEQEND
  8
0
  6
CONTINUOUS
 62
       7
  5
2E0
  0
POLYLINE
  8
0
  6
CONTINUOUS
 62
       7
  5
2B
 66
       1
 10
0.0
 20
0.0
 30
0.0
  0
VERTEX
  8
0
  6
CONTINUOUS
 62
       7
  5
2E1
 10
-127.21719789
 20
-121.19622374
 30
0.0
  0
VERTEX
  8
0
  6
CONTINUOUS
 62
       7
  5
2E2
 10
-127.11765036
 20
-121.5286349
 30
0.0
  0
VERTEX
  8
0
  6
CONTINUOUS
 62
       7
  5
2E3
 10
-127.02410564
 20
-121.86301772
 30
0.0
  0
VERTEX
  8
0
  6
CONTINUOUS
 62
       7
  5
2E4
 10
-126.93662162
 20
-122.19923794
 30
0.0
  0
VERTEX
  8
0
  6
CONTINUOUS
 62
       7
  5
2E5
 10
-126.85525621
 20
-122.53716133
 30
0.0
  0
VERTEX
  8
0
  6
CONTINUOUS
 62
       7
  5
2E6
 10
-126.7800673
 20
-122.87665365
 30
0.0
  0
VERTEX
  8
0
  6
CONTINUOUS
 62
       7
  5
2E7
 10
-126.7111128
 20
-123.21758063
 30
0.0
  0
VERTEX
  8
0
  6
CONTINUOUS
 62
       7
  5
2E8
 10
-126.6484506
 20
-123.55980805
 30
0.0
  0
VERTEX
  8
0
  6
CONTINUOUS
 62
       7
  5
2E9
 10
-126.5921386
 20
-123.90320165
 30
0.0
  0
VERTEX
  8
0
  6
CONTINUOUS
 62
       7
  5
2EA
 10
-126.5422347
 20
-124.24762719
 30
0.0
  0
VERTEX
  8
0
  6
CONTINUOUS
 62
       7
  5
2EB
 10
-126.49879681
 20
-124.59295043
 30
0.0
  0
VERTEX
  8
0
  6
CONTINUOUS
 62
       7
  5
2EC
 10
-126.46188282
 20
-124.93903711
 30
0.0
  0
VERTEX
  8
0
  6
CONTINUOUS
 62
       7
  5
2ED
 10
-126.43155063
 20
-125.28575301
 30
0.0
  0
VERTEX
  8
0
  6
CONTINUOUS
 62
       7
  5
2EE
 10
-126.40785814
 20
-125.63296386
 30
0.0
  0
VERTEX
  8
0
  6
CONTINUOUS
 62
       7
  5
2EF
 10
-126.39086326
 20
-125.98053543
 30
0.0
  0
VERTEX
  8
0
  6
CONTINUOUS
 62
       7
  5
2F0
 10
-126.38062387
 20
-126.32833347
 30
0.0
  0
VERTEX
  8
0
  6
CONTINUOUS
 62
       7
  5
2F1
 10
-126.37719789
 20
-126.67622374
 30
0.0
  0
VERTEX
  8
0
  6
CONTINUOUS
 62
       7
  5
2F2
 10
-126.3806239
 20
-127.02477148
 30
0.0
  0
VERTEX
  8
0
  6
CONTINUOUS
 62
       7
  5
2F3
 10
-126.39086331
 20
-127.37329156
 30
0.0
  0
VERTEX
  8
0
  6
CONTINUOUS
 62
       7
  5
2F4
 10
-126.40785822
 20
-127.72163497
 30
0.0
  0
VERTEX
  8
0
  6
CONTINUOUS
 62
       7
  5
2F5
 10
-126.43155072
 20
-128.06965269
 30
0.0
  0
VERTEX
  8
0
  6
CONTINUOUS
 62
       7
  5
2F6
 10
-126.46188292
 20
-128.41719572
 30
0.0
  0
VERTEX
  8
0
  6
CONTINUOUS
 62
       7
  5
2F7
 10
-126.49879692
 20
-128.76411506
 30
0.0
  0
VERTEX
  8
0
  6
CONTINUOUS
 62
       7
  5
2F8
 10
-126.54223482
 20
-129.1102617
 30
0.0
  0
VERTEX
  8
0
  6
CONTINUOUS
 62
       7
  5
2F9
 10
-126.59213872
 20
-129.45548663
 30
0.0
  0
VERTEX
  8
0
  6
CONTINUOUS
 62
       7
  5
2FA
 10
-126.64845071
 20
-129.79964085
 30
0.0
  0
VERTEX
  8
0
  6
CONTINUOUS
 62
       7
  5
2FB
 10
-126.71111291
 20
-130.14257534
 30
0.0
  0
VERTEX
  8
0
  6
CONTINUOUS
 62
       7
  5
2FC
 10
-126.7800674
 20
-130.4841411
 30
0.0
  0
VERTEX
  8
0
  6
CONTINUOUS
 62
       7
  5
2FD
 10
-126.8552563
 20
-130.82418913
 30
0.0
  0
VERTEX
  8
0
  6
CONTINUOUS
 62
       7
  5
2FE
 10
-126.9366217
 20
-131.16257041
 30
0.0
  0
VERTEX
  8
0
  6
CONTINUOUS
 62
       7
  5
2FF
 10
-127.02410569
 20
-131.49913595
 30
0.0
  0
VERTEX
  8
0
  6
CONTINUOUS
 62
       7
  5
300
 10
-127.11765039
 20
-131.83373672
 30
0.0
  0
VERTEX
  8
0
  6
CONTINUOUS
 62
       7
  5
301
 10
-127.21719789
 20
-132.16622374
 30
0.0
  0
SEQEND
  8
0
  6
CONTINUOUS
 62
       7
  5
302
  0
POLYLINE
  8
0
  6
CONTINUOUS
 62
       7
  5
2C
 66
       1
 10
0.0
 20
0.0
 30
0.0
  0
VERTEX
  8
0
  6
CONTINUOUS
 62
       7
  5
303
 10
-133.52719789
 20
-121.19622374
 30
0.0
  0
VERTEX
  8
0
  6
CONTINUOUS
 62
       7
  5
304
 10
-133.62685753
 20
-121.52863492
 30
0.0
  0
VERTEX
  8
0
  6
CONTINUOUS
 62
       7
  5
305
 10
-133.7207195
 20
-121.86301771
 30
0.0
  0
VERTEX
  8
0
  6
CONTINUOUS
 62
       7
  5
306
 10
-133.80869658
 20
-122.19923787
 30
0.0
  0
VERTEX
  8
0
  6
CONTINUOUS
 62
       7
  5
307
 10
-133.89070158
 20
-122.53716116
 30
0.0
  0
VERTEX
  8
0
  6
CONTINUOUS
 62
       7
  5
308
 10
-133.9666473
 20
-122.87665336
 30
0.0
  0
VERTEX
  8
0
  6
CONTINUOUS
 62
       7
  5
309
 10
-134.03644654
 20
-123.21758022
 30
0.0
  0
VERTEX
  8
0
  6
CONTINUOUS
 62
       7
  5
30A
 10
-134.10001209
 20
-123.55980751
 30
0.0
  0
VERTEX
  8
0
  6
CONTINUOUS
 62
       7
  5
30B
 10
-134.15725675
 20
-123.903201
 30
0.0
  0
VERTEX
  8
0
  6
CONTINUOUS
 62
       7
  5
30C
 10
-134.20809332
 20
-124.24762645
 30
0.0
  0
VERTEX
  8
0
  6
CONTINUOUS
 62
       7
  5
30D
 10
-134.2524346
 20
-124.59294962
 30
0.0
  0
VERTEX
  8
0
  6
CONTINUOUS
 62
       7
  5
30E
 10
-134.29019338
 20
-124.93903628
 30
0.0
  0
VERTEX
  8
0
  6
CONTINUOUS
 62
       7
  5
30F
 10
-134.32128248
 20
-125.2857522
 30
0.0
  0
VERTEX
  8
0
  6
CONTINUOUS
 62
       7
  5
310
 10
-134.34561468
 20
-125.63296315
 30
0.0
  0
VERTEX
  8
0
  6
CONTINUOUS
 62
       7
  5
311
 10
-134.36310278
 20
-125.98053487
 30
0.0
  0
VERTEX
  8
0
  6
CONTINUOUS
 62
       7
  5
312
 10
-134.37365958
 20
-126.32833315
 30
0.0
  0
VERTEX
  8
0
  6
CONTINUOUS
 62
       7
  5
313
 10
-134.37719789
 20
-126.67622374
 30
0.0
  0
VERTEX
  8
0
  6
CONTINUOUS
 62
       7
  5
314
 10
-134.37365956
 20
-127.02477151
 30
0.0
  0
VERTEX
  8
0
  6
CONTINUOUS
 62
       7
  5
315
 10
-134.36310273
 20
-127.37329159
 30
0.0
  0
VERTEX
  8
0
  6
CONTINUOUS
 62
       7
  5
316
 10
-134.34561461
 20
-127.72163499
 30
0.0
  0
VERTEX
  8
0
  6
CONTINUOUS
 62
       7
  5
317
 10
-134.3212824
 20
-128.06965269
 30
0.0
  0
VERTEX
  8
0
  6
CONTINUOUS
 62
       7
  5
318
 10
-134.29019329
 20
-128.4171957
 30
0.0
  0
VERTEX
  8
0
  6
CONTINUOUS
 62
       7
  5
319
 10
-134.25243449
 20
-128.76411502
 30
0.0
  0
VERTEX
  8
0
  6
CONTINUOUS
 62
       7
  5
31A
 10
-134.20809321
 20
-129.11026162
 30
0.0
  0
VERTEX
  8
0
  6
CONTINUOUS
 62
       7
  5
31B
 10
-134.15725663
 20
-129.45548652
 30
0.0
  0
VERTEX
  8
0
  6
CONTINUOUS
 62
       7
  5
31C
 10
-134.10001197
 20
-129.79964071
 30
0.0
  0
VERTEX
  8
0
  6
CONTINUOUS
 62
       7
  5
31D
 10
-134.03644643
 20
-130.14257518
 30
0.0
  0
VERTEX
  8
0
  6
CONTINUOUS
 62
       7
  5
31E
 10
-133.9666472
 20
-130.48414093
 30
0.0
  0
VERTEX
  8
0
  6
CONTINUOUS
 62
       7
  5
31F
 10
-133.8907015
 20
-130.82418896
 30
0.0
  0
VERTEX
  8
0
  6
CONTINUOUS
 62
       7
  5
320
 10
-133.80869651
 20
-131.16257025
 30
0.0
  0
VERTEX
  8
0
  6
CONTINUOUS
 62
       7
  5
321
 10
-133.72071945
 20
-131.49913582
 30
0.0
  0
VERTEX
  8
0
  6
CONTINUOUS
 62
       7
  5
322
 10
-133.6268575
 20
-131.83373665
 30
0.0
  0
VERTEX
  8
0
  6
CONTINUOUS
 62
       7
  5
323
 10
-133.52719789
 20
-132.16622374
 30
0.0
  0
SEQEND
  8
0
  6
CONTINUOUS
 62
       7
  5
324
  0
POLYLINE
  8
0
  6
CONTINUOUS
 62
       7
  5
2D
 66
       1
 10
0.0
 20
0.0
 30
0.0
  0
VERTEX
  8
0
  6
CONTINUOUS
 62
       7
  5
325
 10
-115.87719789
 20
-122.80622374
 30
0.0
  0
VERTEX
  8
0
  6
CONTINUOUS
 62
       7
  5
326
 10
-115.98924579
 20
-123.03018626
 30
0.0
  0
VERTEX
  8
0
  6
CONTINUOUS
 62
       7
  5
327
 10
-116.095813
 20
-123.25765289
 30
0.0
  0
VERTEX
  8
0
  6
CONTINUOUS
 62
       7
  5
328
 10
-116.19665832
 20
-123.48838452
 30
0.0
  0
VERTEX
  8
0
  6
CONTINUOUS
 62
       7
  5
329
 10
-116.29154051
 20
-123.72214208
 30
0.0
  0
VERTEX
  8
0
  6
CONTINUOUS
 62
       7
  5
32A
 10
-116.38021835
 20
-123.95868645
 30
0.0
  0
VERTEX
  8
0
  6
CONTINUOUS
 62
       7
  5
32B
 10
-116.46245062
 20
-124.19777855
 30
0.0
  0
VERTEX
  8
0
  6
CONTINUOUS
 62
       7
  5
32C
 10
-116.53799609
 20
-124.43917928
 30
0.0
  0
VERTEX
  8
0
  6
CONTINUOUS
 62
       7
  5
32D
 10
-116.60661355
 20
-124.68264954
 30
0.0
  0
VERTEX
  8
0
  6
CONTINUOUS
 62
       7
  5
32E
 10
-116.66806177
 20
-124.92795025
 30
0.0
  0
VERTEX
  8
0
  6
CONTINUOUS
 62
       7
  5
32F
 10
-116.72209953
 20
-125.17484232
 30
0.0
  0
VERTEX
  8
0
  6
CONTINUOUS
 62
       7
  5
330
 10
-116.7684856
 20
-125.42308663
 30
0.0
  0
VERTEX
  8
0
  6
CONTINUOUS
 62
       7
  5
331
 10
-116.80697876
 20
-125.67244411
 30
0.0
  0
VERTEX
  8
0
  6
CONTINUOUS
 62
       7
  5
332
 10
-116.83733779
 20
-125.92267565
 30
0.0
  0
VERTEX
  8
0
  6
CONTINUOUS
 62
       7
  5
333
 10
-116.85932147
 20
-126.17354217
 30
0.0
  0
VERTEX
  8
0
  6
CONTINUOUS
 62
       7
  5
334
 10
-116.87268858
 20
-126.42480456
 30
0.0
  0
VERTEX
  8
0
  6
CONTINUOUS
 62
       7
  5
335
 10
-116.87719789
 20
-126.67622374
 30
0.0
  0
VERTEX
  8
0
  6
CONTINUOUS
 62
       7
  5
336
 10
-116.87268858
 20
-126.92829051
 30
0.0
  0
VERTEX
  8
0
  6
CONTINUOUS
 62
       7
  5
337
 10
-116.85932148
 20
-127.18026759
 30
0.0
  0
VERTEX
  8
0
  6
CONTINUOUS
 62
       7
  5
338
 10
-116.8373378
 20
-127.43190086
 30
0.0
  0
VERTEX
  8
0
  6
CONTINUOUS
 62
       7
  5
339
 10
-116.80697876
 20
-127.68293621
 30
0.0
  0
VERTEX
  8
0
  6
CONTINUOUS
 62
       7
  5
33A
 10
-116.7684856
 20
-127.93311951
 30
0.0
  0
VERTEX
  8
0
  6
CONTINUOUS
 62
       7
  5
33B
 10
-116.72209953
 20
-128.18219665
 30
0.0
  0
VERTEX
  8
0
  6
CONTINUOUS
 62
       7
  5
33C
 10
-116.66806178
 20
-128.42991351
 30
0.0
  0
VERTEX
  8
0
  6
CONTINUOUS
 62
       7
  5
33D
 10
-116.60661356
 20
-128.67601599
 30
0.0
  0
VERTEX
  8
0
  6
CONTINUOUS
 62
       7
  5
33E
 10
-116.5379961
 20
-128.92024995
 30
0.0
  0
VERTEX
  8
0
  6
CONTINUOUS
 62
       7
  5
33F
 10
-116.46245063
 20
-129.1623613
 30
0.0
  0
VERTEX
  8
0
  6
CONTINUOUS
 62
       7
  5
340
 10
-116.38021836
 20
-129.4020959
 30
0.0
  0
VERTEX
  8
0
  6
CONTINUOUS
 62
       7
  5
341
 10
-116.29154052
 20
-129.63919964
 30
0.0
  0
VERTEX
  8
0
  6
CONTINUOUS
 62
       7
  5
342
 10
-116.19665833
 20
-129.87341842
 30
0.0
  0
VERTEX
  8
0
  6
CONTINUOUS
 62
       7
  5
343
 10
-116.09581301
 20
-130.1044981
 30
0.0
  0
VERTEX
  8
0
  6
CONTINUOUS
 62
       7
  5
344
 10
-115.98924579
 20
-130.33218458
 30
0.0
  0
VERTEX
  8
0
  6
CONTINUOUS
 62
       7
  5
345
 10
-115.87719789
 20
-130.55622374
 30
0.0
  0
SEQEND
  8
0
  6
CONTINUOUS
 62
       7
  5
346
  0
POLYLINE
  8
0
  6
CONTINUOUS
 62
       7
  5
2E
 66
       1
 10
0.0
 20
0.0
 30
0.0
  0
VERTEX
  8
0
  6
CONTINUOUS
 62
       7
  5
347
 10
-111.87719789
 20
-122.80622374
 30
0.0
  0
VERTEX
  8
0
  6
CONTINUOUS
 62
       7
  5
348
 10
-111.76514999
 20
-123.03018626
 30
0.0
  0
VERTEX
  8
0
  6
CONTINUOUS
 62
       7
  5
349
 10
-111.65858277
 20
-123.25765289
 30
0.0
  0
VERTEX
  8
0
  6
CONTINUOUS
 62
       7
  5
34A
 10
-111.55773745
 20
-123.48838452
 30
0.0
  0
VERTEX
  8
0
  6
CONTINUOUS
 62
       7
  5
34B
 10
-111.46285526
 20
-123.72214208
 30
0.0
  0
VERTEX
  8
0
  6
CONTINUOUS
 62
       7
  5
34C
 10
-111.37417742
 20
-123.95868645
 30
0.0
  0
VERTEX
  8
0
  6
CONTINUOUS
 62
       7
  5
34D
 10
-111.29194515
 20
-124.19777855
 30
0.0
  0
VERTEX
  8
0
  6
CONTINUOUS
 62
       7
  5
34E
 10
-111.21639968
 20
-124.43917928
 30
0.0
  0
VERTEX
  8
0
  6
CONTINUOUS
 62
       7
  5
34F
 10
-111.14778222
 20
-124.68264954
 30
0.0
  0
VERTEX
  8
0
  6
CONTINUOUS
 62
       7
  5
350
 10
-111.086334
 20
-124.92795025
 30
0.0
  0
VERTEX
  8
0
  6
CONTINUOUS
 62
       7
  5
351
 10
-111.03229625
 20
-125.17484232
 30
0.0
  0
VERTEX
  8
0
  6
CONTINUOUS
 62
       7
  5
352
 10
-110.98591018
 20
-125.42308663
 30
0.0
  0
VERTEX
  8
0
  6
CONTINUOUS
 62
       7
  5
353
 10
-110.94741701
 20
-125.67244411
 30
0.0
  0
VERTEX
  8
0
  6
CONTINUOUS
 62
       7
  5
354
 10
-110.91705798
 20
-125.92267565
 30
0.0
  0
VERTEX
  8
0
  6
CONTINUOUS
 62
       7
  5
355
 10
-110.8950743
 20
-126.17354217
 30
0.0
  0
VERTEX
  8
0
  6
CONTINUOUS
 62
       7
  5
356
 10
-110.88170719
 20
-126.42480456
 30
0.0
  0
VERTEX
  8
0
  6
CONTINUOUS
 62
       7
  5
357
 10
-110.87719789
 20
-126.67622374
 30
0.0
  0
VERTEX
  8
0
  6
CONTINUOUS
 62
       7
  5
358
 10
-110.88170719
 20
-126.92829051
 30
0.0
  0
VERTEX
  8
0
  6
CONTINUOUS
 62
       7
  5
359
 10
-110.8950743
 20
-127.18026759
 30
0.0
  0
VERTEX
  8
0
  6
CONTINUOUS
 62
       7
  5
35A
 10
-110.91705798
 20
-127.43190086
 30
0.0
  0
VERTEX
  8
0
  6
CONTINUOUS
 62
       7
  5
35B
 10
-110.94741701
 20
-127.68293621
 30
0.0
  0
VERTEX
  8
0
  6
CONTINUOUS
 62
       7
  5
35C
 10
-110.98591017
 20
-127.93311951
 30
0.0
  0
VERTEX
  8
0
  6
CONTINUOUS
 62
       7
  5
35D
 10
-111.03229624
 20
-128.18219665
 30
0.0
  0
VERTEX
  8
0
  6
CONTINUOUS
 62
       7
  5
35E
 10
-111.08633399
 20
-128.42991351
 30
0.0
  0
VERTEX
  8
0
  6
CONTINUOUS
 62
       7
  5
35F
 10
-111.14778221
 20
-128.67601599
 30
0.0
  0
VERTEX
  8
0
  6
CONTINUOUS
 62
       7
  5
360
 10
-111.21639967
 20
-128.92024995
 30
0.0
  0
VERTEX
  8
0
  6
CONTINUOUS
 62
       7
  5
361
 10
-111.29194514
 20
-129.1623613
 30
0.0
  0
VERTEX
  8
0
  6
CONTINUOUS
 62
       7
  5
362
 10
-111.37417741
 20
-129.4020959
 30
0.0
  0
VERTEX
  8
0
  6
CONTINUOUS
 62
       7
  5
363
 10
-111.46285525
 20
-129.63919964
 30
0.0
  0
VERTEX
  8
0
  6
CONTINUOUS
 62
       7
  5
364
 10
-111.55773744
 20
-129.87341842
 30
0.0
  0
VERTEX
  8
0
  6
CONTINUOUS
 62
       7
  5
365
 10
-111.65858276
 20
-130.1044981
 30
0.0
  0
VERTEX
  8
0
  6
CONTINUOUS
 62
       7
  5
366
 10
-111.76514998
 20
-130.33218458
 30
0.0
  0
VERTEX
  8
0
  6
CONTINUOUS
 62
       7
  5
367
 10
-111.87719789
 20
-130.55622374
 30
0.0
  0
SEQEND
  8
0
  6
CONTINUOUS
 62
       7
  5
368
  0
LINE
  8
0
  6
CENTER
 62
       2
  5
2F
 10
-190.87719789
 20
-133.67622374
 30
0.0
 11
-184.37719789
 21
-133.67622374
 31
0.0
  0
LINE
  8
0
  6
CENTER
 62
       2
  5
30
 10
-191.87719789
 20
-132.67622374
 30
0.0
 11
-184.37719789
 21
-132.67622374
 31
0.0
  0
LINE
  8
0
  6
CENTER
 62
       2
  5
31
 10
-190.87719789
 20
-119.67622374
 30
0.0
 11
-184.37719789
 21
-119.67622374
 31
0.0
  0
LINE
  8
0
  6
CENTER
 62
       2
  5
32
 10
-191.87719789
 20
-120.67622374
 30
0.0
 11
-184.37719789
 21
-120.67622374
 31
0.0
  0
LINE
  8
0
  6
CENTER
 62
       2
  5
33
 10
-190.87719789
 20
-119.67622374
 30
0.0
 11
-190.87719789
 21
-133.67622374
 31
0.0
  0
LINE
  8
0
  6
CENTER
 62
       2
  5
34
 10
-190.87719789
 20
-119.67622374
 30
0.0
 11
-191.87719789
 21
-120.67622374
 31
0.0
  0
LINE
  8
0
  6
CENTER
 62
       2
  5
35
 10
-191.87719789
 20
-132.67622374
 30
0.0
 11
-190.87719789
 21
-133.67622374
 31
0.0
  0
LINE
  8
0
  6
CENTER
 62
       2
  5
36
 10
-191.87719789
 20
-120.67622374
 30
0.0
 11
-191.87719789
 21
-132.67622374
 31
0.0
  0
LINE
  8
0
  6
CONTINUOUS
 62
       7
  5
37
 10
-140.87719789
 20
-133.67622374
 30
0.0
 11
-134.37719789
 21
-133.67622374
 31
0.0
  0
LINE
  8
0
  6
CONTINUOUS
 62
       2
  5
38
 10
-141.87719789
 20
-132.67622374
 30
0.0
 11
-134.37719789
 21
-132.67622374
 31
0.0
  0
LINE
  8
0
  6
CONTINUOUS
 62
       7
  5
39
 10
-140.87719789
 20
-119.67622374
 30
0.0
 11
-134.37719789
 21
-119.67622374
 31
0.0
  0
LINE
  8
0
  6
CONTINUOUS
 62
       2
  5
3A
 10
-141.87719789
 20
-120.67622374
 30
0.0
 11
-134.37719789
 21
-120.67622374
 31
0.0
  0
LINE
  8
0
  6
CONTINUOUS
 62
       7
  5
3B
 10
-140.87719789
 20
-119.67622374
 30
0.0
 11
-140.87719789
 21
-133.67622374
 31
0.0
  0
LINE
  8
0
  6
CONTINUOUS
 62
       7
  5
3C
 10
-140.87719789
 20
-119.67622374
 30
0.0
 11
-141.87719789
 21
-120.67622374
 31
0.0
  0
LINE
  8
0
  6
CONTINUOUS
 62
       7
  5
3D
 10
-141.87719789
 20
-132.67622374
 30
0.0
 11
-140.87719789
 21
-133.67622374
 31
0.0
  0
LINE
  8
0
  6
CONTINUOUS
 62
       7
  5
3E
 10
-141.87719789
 20
-120.67622374
 30
0.0
 11
-141.87719789
 21
-132.67622374
 31
0.0
  0
LINE
  8
0
  6
CENTER
 62
       2
  5
3F
 10
90.12280211
 20
-141.91622374
 30
0.0
 11
90.12280211
 21
-151.96622374
 31
0.0
  0
LINE
  8
0
  6
DASHED
 62
       2
  5
41
 10
85.47280211
 20
-143.47622374
 30
0.0
 11
94.77280211
 21
-143.47622374
 31
0.0
  0
LINE
  8
0
  6
DASHED
 62
       2
  5
42
 10
85.47280211
 20
-146.47622374
 30
0.0
 11
94.77280211
 21
-146.47622374
 31
0.0
  0
LINE
  8
0
  6
CONTINUOUS
 62
       7
  5
43
 10
-115.87719789
 20
-134.67622374
 30
0.0
 11
-110.87719789
 21
-134.67622374
 31
0.0
  0
LINE
  8
0
  6
CONTINUOUS
 62
       7
  5
44
 10
-115.87719789
 20
-118.67622374
 30
0.0
 11
-110.87719789
 21
-118.67622374
 31
0.0
  0
LINE
  8
0
  6
CONTINUOUS
 62
       7
  5
45
 10
-110.87719789
 20
-141.67622374
 30
0.0
 11
-110.87719789
 21
-111.67622374
 31
0.0
  0
LINE
  8
0
  6
CONTINUOUS
 62
       7
  5
46
 10
-107.53719789
 20
-114.84622374
 30
0.0
 11
-100.37719789
 21
-114.84622374
 31
0.0
  0
LINE
  8
0
  6
CONTINUOUS
 62
       7
  5
47
 10
-107.53719789
 20
-138.51622374
 30
0.0
 11
-100.37719789
 21
-138.51622374
 31
0.0
  0
LINE
  8
0
  6
CONTINUOUS
 62
       7
  5
48
 10
-107.53719789
 20
-103.00622374
 30
0.0
 11
-100.37719789
 21
-103.00622374
 31
0.0
  0
LINE
  8
0
  6
CONTINUOUS
 62
       7
  5
49
 10
-100.37719789
 20
-106.17622374
 30
0.0
 11
-99.87719789
 21
-106.17622374
 31
0.0
  0
LINE
  8
0
  6
CONTINUOUS
 62
       7
  5
4A
 10
-100.37719789
 20
-103.00622374
 30
0.0
 11
-100.37719789
 21
-150.35622374
 31
0.0
  0
LINE
  8
0
  6
CONTINUOUS
 62
       7
  5
4B
 10
-99.87719789
 20
-106.17622374
 30
0.0
 11
-99.87719789
 21
-147.17622374
 31
0.0
  0
LINE
  8
0
  6
CONTINUOUS
 62
       7
  5
4C
 10
-100.37719789
 20
-147.17622374
 30
0.0
 11
-99.87719789
 21
-147.17622374
 31
0.0
  0
LINE
  8
0
  6
CONTINUOUS
 62
       7
  5
4D
 10
-109.37719789
 20
-147.17622374
 30
0.0
 11
-107.53719789
 21
-150.35622374
 31
0.0
  0
LINE
  8
0
  6
CONTINUOUS
 62
       7
  5
4E
 10
-109.37719789
 20
-106.17622374
 30
0.0
 11
-107.53719789
 21
-103.00622374
 31
0.0
  0
LINE
  8
0
  6
CONTINUOUS
 62
       7
  5
4F
 10
-109.37719789
 20
-106.17622374
 30
0.0
 11
-109.37719789
 21
-147.17622374
 31
0.0
  0
LINE
  8
0
  6
CONTINUOUS
 62
       7
  5
50
 10
-107.53719789
 20
-150.35622374
 30
0.0
 11
-100.37719789
 21
-150.35622374
 31
0.0
  0
LINE
  8
0
  6
CONTINUOUS
 62
       7
  5
51
 10
-99.87719789
 20
-143.17622374
 30
0.0
 11
-96.87719789
 21
-143.17622374
 31
0.0
  0
LINE
  8
0
  6
CONTINUOUS
 62
       7
  5
52
 10
-99.87719789
 20
-110.17622374
 30
0.0
 11
-96.87719789
 21
-110.17622374
 31
0.0
  0
LINE
  8
0
  6
CONTINUOUS
 62
       7
  5
53
 10
-80.87719789
 20
-105.87622374
 30
0.0
 11
-80.87719789
 21
-147.47622374
 31
0.0
  0
LINE
  8
0
  6
CONTINUOUS
 62
       7
  5
54
 10
-78.87719789
 20
-105.87622374
 30
0.0
 11
-78.87719789
 21
-147.47622374
 31
0.0
  0
LINE
  8
0
  6
CONTINUOUS
 62
       7
  5
55
 10
63.12280211
 20
-105.87622374
 30
0.0
 11
63.12280211
 21
-147.47622374
 31
0.0
  0
LINE
  8
0
  6
CONTINUOUS
 62
       7
  5
56
 10
61.12280211
 20
-105.87622374
 30
0.0
 11
61.12280211
 21
-147.47622374
 31
0.0
  0
LINE
  8
0
  6
CONTINUOUS
 62
       7
  5
57
 10
100.12280211
 20
-105.87622374
 30
0.0
 11
100.12280211
 21
-147.47622374
 31
0.0
  0
LINE
  8
0
  6
CONTINUOUS
 62
       7
  5
58
 10
98.12280211
 20
-105.87622374
 30
0.0
 11
98.12280211
 21
-147.47622374
 31
0.0
  0
LINE
  8
0
  6
DASHED
 62
       2
  5
59
 10
94.77280211
 20
-143.47622374
 30
0.0
 11
94.77280211
 21
-147.47622374
 31
0.0
  0
LINE
  8
0
  6
DASHED
 62
       2
  5
5A
 10
85.47280211
 20
-143.47622374
 30
0.0
 11
85.47280211
 21
-147.47622374
 31
0.0
  0
LINE
  8
0
  6
CENTER
 62
       2
  5
5B
 10
-88.87719789
 20
-115.51622374
 30
0.0
 11
-88.87719789
 21
-99.47622374
 31
0.0
  0
LINE
  8
0
  6
DASHED
 62
       2
  5
5C
 10
-84.87719789
 20
-106.87622374
 30
0.0
 11
-83.87719789
 21
-105.87622374
 31
0.0
  0
LINE
  8
0
  6
DASHED
 62
       2
  5
5D
 10
-84.87719789
 20
-114.37622374
 30
0.0
 11
-84.87719789
 21
-106.87622374
 31
0.0
  0
LINE
  8
0
  6
DASHED
 62
       2
  5
5E
 10
-84.23719789
 20
-112.87622374
 30
0.0
 11
-83.87719789
 21
-105.87622374
 31
0.0
  0
LINE
  8
0
  6
DASHED
 62
       2
  5
5F
 10
-93.62719789
 20
-112.87622374
 30
0.0
 11
-93.99719789
 21
-105.87622374
 31
0.0
  0
LINE
  8
0
  6
DASHED
 62
       2
  5
60
 10
-93.04719789
 20
-106.83622374
 30
0.0
 11
-93.99719789
 21
-105.87622374
 31
0.0
  0
LINE
  8
0
  6
DASHED
 62
       2
  5
61
 10
-93.04719789
 20
-114.37622374
 30
0.0
 11
-93.04719789
 21
-106.83622374
 31
0.0
  0
LINE
  8
0
  6
DASHED
 62
       2
  5
62
 10
-84.87719789
 20
-106.87622374
 30
0.0
 11
-93.04719789
 21
-106.83622374
 31
0.0
  0
LINE
  8
0
  6
CONTINUOUS
 62
       7
  5
63
 10
-79.87719789
 20
-146.67622374
 30
0.0
 11
-79.67719789
 21
-146.67622374
 31
0.0
  0
LINE
  8
0
  6
CONTINUOUS
 62
       7
  5
64
 10
-79.87719789
 20
-106.67622374
 30
0.0
 11
-79.67719789
 21
-106.67622374
 31
0.0
  0
LINE
  8
0
  6
CONTINUOUS
 62
       7
  5
65
 10
-79.87719789
 20
-105.87622374
 30
0.0
 11
-79.87719789
 21
-147.47622374
 31
0.0
  0
LINE
  8
0
  6
CONTINUOUS
 62
       7
  5
66
 10
-81.87719789
 20
-105.87622374
 30
0.0
 11
-81.87719789
 21
-147.47622374
 31
0.0
  0
LINE
  8
0
  6
CONTINUOUS
 62
       7
  5
67
 10
-98.87719789
 20
-142.17622374
 30
0.0
 11
-98.87719789
 21
-143.17622374
 31
0.0
  0
LINE
  8
0
  6
CENTER
 62
       2
  5
68
 10
-241.87719789
 20
-132.67622374
 30
0.0
 11
-240.87719789
 21
-133.67622374
 31
0.0
  0
LINE
  8
0
  6
CENTER
 62
       2
  5
69
 10
-241.87719789
 20
-120.67622374
 30
0.0
 11
-241.87719789
 21
-132.67622374
 31
0.0
  0
LINE
  8
0
  6
CENTER
 62
       2
  5
6A
 10
-240.87719789
 20
-119.67622374
 30
0.0
 11
-241.87719789
 21
-120.67622374
 31
0.0
  0
LINE
  8
0
  6
CONTINUOUS
 62
       2
  5
6B
 10
-126.37719789
 20
-132.67622374
 30
0.0
 11
-118.87719789
 21
-132.67622374
 31
0.0
  0
LINE
  8
0
  6
CONTINUOUS
 62
       2
  5
6C
 10
-118.87719789
 20
-132.67622374
 30
0.0
 11
-117.13719789
 21
-133.67622374
 31
0.0
  0
LINE
  8
0
  6
CONTINUOUS
 62
       2
  5
6D
 10
-118.87719789
 20
-120.67622374
 30
0.0
 11
-117.13719789
 21
-119.67622374
 31
0.0
  0
LINE
  8
0
  6
CENTER
 62
       2
  5
6E
 10
-240.87719789
 20
-119.67622374
 30
0.0
 11
-240.87719789
 21
-133.67622374
 31
0.0
  0
LINE
  8
0
  6
CONTINUOUS
 62
       2
  5
6F
 10
-126.37719789
 20
-120.67622374
 30
0.0
 11
-118.87719789
 21
-120.67622374
 31
0.0
  0
LINE
  8
0
  6
CENTER
 62
       2
  5
70
 10
-241.87719789
 20
-132.67622374
 30
0.0
 11
-234.37719789
 21
-132.67622374
 31
0.0
  0
LINE
  8
0
  6
CENTER
 62
       2
  5
71
 10
-241.87719789
 20
-120.67622374
 30
0.0
 11
-234.37719789
 21
-120.67622374
 31
0.0
  0
LINE
  8
0
  6
CONTINUOUS
 62
       7
  5
72
 10
-126.37719789
 20
-136.17622374
 30
0.0
 11
-126.37719789
 21
-117.17622374
 31
0.0
  0
LINE
  8
0
  6
CONTINUOUS
 62
       7
  5
73
 10
-133.52719789
 20
-121.19622374
 30
0.0
 11
-127.21719789
 21
-121.19622374
 31
0.0
  0
LINE
  8
0
  6
CONTINUOUS
 62
       7
  5
74
 10
-133.52719789
 20
-132.16622374
 30
0.0
 11
-127.21719789
 21
-132.16622374
 31
0.0
  0
LINE
  8
0
  6
CONTINUOUS
 62
       7
  5
75
 10
-134.37719789
 20
-136.17622374
 30
0.0
 11
-133.52719789
 21
-137.64622374
 31
0.0
  0
LINE
  8
0
  6
CONTINUOUS
 62
       7
  5
76
 10
-134.37719789
 20
-136.17622374
 30
0.0
 11
-134.37719789
 21
-132.16622374
 31
0.0
  0
LINE
  8
0
  6
CONTINUOUS
 62
       7
  5
77
 10
-134.37719789
 20
-132.16622374
 30
0.0
 11
-134.37719789
 21
-117.17622374
 31
0.0
  0
LINE
  8
0
  6
CONTINUOUS
 62
       7
  5
78
 10
-127.21719789
 20
-137.64622374
 30
0.0
 11
-126.37719789
 21
-136.17622374
 31
0.0
  0
LINE
  8
0
  6
CONTINUOUS
 62
       7
  5
79
 10
-127.21719789
 20
-115.70622374
 30
0.0
 11
-126.37719789
 21
-117.17622374
 31
0.0
  0
LINE
  8
0
  6
CONTINUOUS
 62
       7
  5
7A
 10
-133.52719789
 20
-115.70622374
 30
0.0
 11
-134.37719789
 21
-117.17622374
 31
0.0
  0
LINE
  8
0
  6
CONTINUOUS
 62
       7
  5
7B
 10
-133.52719789
 20
-137.64622374
 30
0.0
 11
-127.21719789
 21
-137.64622374
 31
0.0
  0
LINE
  8
0
  6
CONTINUOUS
 62
       7
  5
7C
 10
-133.52719789
 20
-115.70622374
 30
0.0
 11
-127.21719789
 21
-115.70622374
 31
0.0
  0
LINE
  8
0
  6
CONTINUOUS
 62
       7
  5
7D
 10
-96.87719789
 20
-105.87622374
 30
0.0
 11
-81.87719789
 21
-105.87622374
 31
0.0
  0
LINE
  8
0
  6
CONTINUOUS
 62
       7
  5
7E
 10
-80.87719789
 20
-147.47622374
 30
0.0
 11
-79.87719789
 21
-147.47622374
 31
0.0
  0
LINE
  8
0
  6
CONTINUOUS
 62
       7
  5
7F
 10
-79.67719789
 20
-146.67622374
 30
0.0
 11
-78.87719789
 21
-147.47622374
 31
0.0
  0
LINE
  8
0
  6
CONTINUOUS
 62
       7
  5
80
 10
-81.87719789
 20
-146.47622374
 30
0.0
 11
-80.87719789
 21
-147.47622374
 31
0.0
  0
LINE
  8
0
  6
CONTINUOUS
 62
       7
  5
81
 10
-80.87719789
 20
-105.87622374
 30
0.0
 11
-79.87719789
 21
-105.87622374
 31
0.0
  0
LINE
  8
0
  6
CONTINUOUS
 62
       7
  5
82
 10
-79.67719789
 20
-106.67622374
 30
0.0
 11
-78.87719789
 21
-105.87622374
 31
0.0
  0
LINE
  8
0
  6
CONTINUOUS
 62
       7
  5
83
 10
-81.87719789
 20
-106.87622374
 30
0.0
 11
-80.87719789
 21
-105.87622374
 31
0.0
  0
LINE
  8
0
  6
CONTINUOUS
 62
       2
  5
84
 10
-98.87719789
 20
-142.17622374
 30
0.0
 11
-97.13719789
 21
-143.17622374
 31
0.0
  0
LINE
  8
0
  6
CONTINUOUS
 62
       2
  5
85
 10
-98.87719789
 20
-111.17622374
 30
0.0
 11
-97.13719789
 21
-110.17622374
 31
0.0
  0
LINE
  8
0
  6
CONTINUOUS
 62
       2
  5
86
 10
-99.87719789
 20
-111.17622374
 30
0.0
 11
-98.87719789
 21
-111.17622374
 31
0.0
  0
LINE
  8
0
  6
CONTINUOUS
 62
       2
  5
87
 10
-99.87719789
 20
-142.17622374
 30
0.0
 11
-98.87719789
 21
-142.17622374
 31
0.0
  0
LINE
  8
0
  6
CONTINUOUS
 62
       2
  5
88
 10
-110.45719789
 20
-111.17622374
 30
0.0
 11
-109.37719789
 21
-111.17622374
 31
0.0
  0
LINE
  8
0
  6
CONTINUOUS
 62
       2
  5
89
 10
-110.45719789
 20
-142.17622374
 30
0.0
 11
-109.37719789
 21
-142.17622374
 31
0.0
  0
LINE
  8
0
  6
CONTINUOUS
 62
       7
  5
8A
 10
-98.87719789
 20
-110.17622374
 30
0.0
 11
-98.87719789
 21
-111.17622374
 31
0.0
  0
LINE
  8
0
  6
CONTINUOUS
 62
       7
  5
8B
 10
-110.87719789
 20
-141.67622374
 30
0.0
 11
-109.61719789
 21
-143.17622374
 31
0.0
  0
LINE
  8
0
  6
CONTINUOUS
 62
       7
  5
8C
 10
-110.87719789
 20
-111.67622374
 30
0.0
 11
-109.61719789
 21
-110.17622374
 31
0.0
  0
LINE
  8
0
  6
CONTINUOUS
 62
       7
  5
8D
 10
-109.61719789
 20
-143.17622374
 30
0.0
 11
-109.37719789
 21
-143.17622374
 31
0.0
  0
LINE
  8
0
  6
CONTINUOUS
 62
       7
  5
8E
 10
-109.61719789
 20
-110.17622374
 30
0.0
 11
-109.37719789
 21
-110.17622374
 31
0.0
  0
LINE
  8
0
  6
CONTINUOUS
 62
       7
  5
8F
 10
-96.87719789
 20
-147.47622374
 30
0.0
 11
-81.87719789
 21
-147.47622374
 31
0.0
  0
LINE
  8
0
  6
CONTINUOUS
 62
       7
  5
90
 10
-96.87719789
 20
-105.87622374
 30
0.0
 11
-96.87719789
 21
-147.47622374
 31
0.0
  0
LINE
  8
0
  6
CONTINUOUS
 62
       7
  5
91
 10
-126.37719789
 20
-119.67622374
 30
0.0
 11
-116.87719789
 21
-119.67622374
 31
0.0
  0
LINE
  8
0
  6
CONTINUOUS
 62
       7
  5
92
 10
-126.37719789
 20
-133.67622374
 30
0.0
 11
-116.87719789
 21
-133.67622374
 31
0.0
  0
LINE
  8
0
  6
CONTINUOUS
 62
       7
  5
93
 10
-115.87719789
 20
-134.67622374
 30
0.0
 11
-115.87719789
 21
-130.55622374
 31
0.0
  0
LINE
  8
0
  6
CONTINUOUS
 62
       2
  5
94
 10
-111.87719789
 20
-122.80622374
 30
0.0
 11
-115.87719789
 21
-130.55622374
 31
0.0
  0
LINE
  8
0
  6
CONTINUOUS
 62
       2
  5
95
 10
-115.87719789
 20
-122.80622374
 30
0.0
 11
-111.87719789
 21
-130.55622374
 31
0.0
  0
LINE
  8
0
  6
CONTINUOUS
 62
       7
  5
96
 10
-115.87719789
 20
-130.55622374
 30
0.0
 11
-111.87719789
 21
-130.55622374
 31
0.0
  0
LINE
  8
0
  6
CONTINUOUS
 62
       7
  5
97
 10
-115.87719789
 20
-122.80622374
 30
0.0
 11
-111.87719789
 21
-122.80622374
 31
0.0
  0
LINE
  8
0
  6
CONTINUOUS
 62
       7
  5
98
 10
-111.87719789
 20
-130.55622374
 30
0.0
 11
-111.87719789
 21
-122.80622374
 31
0.0
  0
LINE
  8
0
  6
CONTINUOUS
 62
       7
  5
99
 10
-115.87719789
 20
-122.80622374
 30
0.0
 11
-115.87719789
 21
-118.67622374
 31
0.0
  0
LINE
  8
0
  6
CONTINUOUS
 62
       7
  5
9A
 10
-116.87719789
 20
-133.67622374
 30
0.0
 11
-115.87719789
 21
-134.67622374
 31
0.0
  0
LINE
  8
0
  6
CONTINUOUS
 62
       7
  5
9B
 10
-116.87719789
 20
-119.67622374
 30
0.0
 11
-115.87719789
 21
-118.67622374
 31
0.0
  0
LINE
  8
0
  6
CONTINUOUS
 62
       7
  5
9C
 10
-116.87719789
 20
-133.67622374
 30
0.0
 11
-116.87719789
 21
-119.67622374
 31
0.0
  0
LINE
  8
0
  6
CONTINUOUS
 62
       7
  5
9D
 10
-118.87719789
 20
-119.67622374
 30
0.0
 11
-118.87719789
 21
-133.67622374
 31
0.0
  0
LINE
  8
0
  6
CENTER
 62
       2
  5
9E
 10
-240.87719789
 20
-133.67622374
 30
0.0
 11
-234.37719789
 21
-133.67622374
 31
0.0
  0
LINE
  8
0
  6
CENTER
 62
       2
  5
9F
 10
-240.87719789
 20
-119.67622374
 30
0.0
 11
-234.37719789
 21
-119.67622374
 31
0.0
  0
LINE
  8
0
  6
CONTINUOUS
 62
       7
  5
A0
 10
80.62280211
 20
-144.67622374
 30
0.0
 11
77.12280211
 21
-144.67622374
 31
0.0
  0
LINE
  8
0
  6
CONTINUOUS
 62
       7
  5
A1
 10
80.62280211
 20
-108.67622374
 30
0.0
 11
77.12280211
 21
-108.67622374
 31
0.0
  0
LINE
  8
0
  6
CONTINUOUS
 62
       7
  5
A2
 10
77.12280211
 20
-105.87622374
 30
0.0
 11
64.12280211
 21
-105.87622374
 31
0.0
  0
LINE
  8
0
  6
CONTINUOUS
 62
       7
  5
A3
 10
77.12280211
 20
-147.47622374
 30
0.0
 11
64.12280211
 21
-147.47622374
 31
0.0
  0
LINE
  8
0
  6
CONTINUOUS
 62
       7
  5
A4
 10
62.12280211
 20
-146.67622374
 30
0.0
 11
61.92280211
 21
-146.67622374
 31
0.0
  0
LINE
  8
0
  6
CONTINUOUS
 62
       7
  5
A5
 10
62.12280211
 20
-106.67622374
 30
0.0
 11
61.92280211
 21
-106.67622374
 31
0.0
  0
LINE
  8
0
  6
CENTER
 62
       2
  5
A6
 10
71.12280211
 20
-115.22622374
 30
0.0
 11
71.12280211
 21
-101.54622374
 31
0.0
  0
LINE
  8
0
  6
DASHED
 62
       2
  5
A7
 10
75.12280211
 20
-106.87622374
 30
0.0
 11
76.12280211
 21
-105.87622374
 31
0.0
  0
LINE
  8
0
  6
DASHED
 62
       2
  5
A8
 10
75.12280211
 20
-114.37622374
 30
0.0
 11
75.12280211
 21
-106.87622374
 31
0.0
  0
LINE
  8
0
  6
DASHED
 62
       2
  5
A9
 10
75.75280211
 20
-112.87622374
 30
0.0
 11
76.12280211
 21
-105.87622374
 31
0.0
  0
LINE
  8
0
  6
DASHED
 62
       2
  5
AA
 10
66.37280211
 20
-112.87622374
 30
0.0
 11
66.00280211
 21
-105.87622374
 31
0.0
  0
LINE
  8
0
  6
DASHED
 62
       2
  5
AB
 10
66.95280211
 20
-106.83622374
 30
0.0
 11
66.00280211
 21
-105.87622374
 31
0.0
  0
LINE
  8
0
  6
DASHED
 62
       2
  5
AC
 10
66.95280211
 20
-114.37622374
 30
0.0
 11
66.95280211
 21
-106.83622374
 31
0.0
  0
LINE
  8
0
  6
DASHED
 62
       2
  5
AD
 10
75.12280211
 20
-106.87622374
 30
0.0
 11
66.95280211
 21
-106.83622374
 31
0.0
  0
LINE
  8
0
  6
CONTINUOUS
 62
       7
  5
AE
 10
61.92280211
 20
-146.67622374
 30
0.0
 11
61.12280211
 21
-147.47622374
 31
0.0
  0
LINE
  8
0
  6
CONTINUOUS
 62
       7
  5
AF
 10
63.12280211
 20
-147.47622374
 30
0.0
 11
62.12280211
 21
-147.47622374
 31
0.0
  0
LINE
  8
0
  6
CONTINUOUS
 62
       7
  5
B0
 10
64.12280211
 20
-146.47622374
 30
0.0
 11
63.12280211
 21
-147.47622374
 31
0.0
  0
LINE
  8
0
  6
CONTINUOUS
 62
       7
  5
B1
 10
61.92280211
 20
-106.67622374
 30
0.0
 11
61.12280211
 21
-105.87622374
 31
0.0
  0
LINE
  8
0
  6
CONTINUOUS
 62
       7
  5
B2
 10
63.12280211
 20
-105.87622374
 30
0.0
 11
62.12280211
 21
-105.87622374
 31
0.0
  0
LINE
  8
0
  6
CONTINUOUS
 62
       7
  5
B3
 10
64.12280211
 20
-106.87622374
 30
0.0
 11
63.12280211
 21
-105.87622374
 31
0.0
  0
LINE
  8
0
  6
CONTINUOUS
 62
       7
  5
B4
 10
62.12280211
 20
-105.87622374
 30
0.0
 11
62.12280211
 21
-147.47622374
 31
0.0
  0
LINE
  8
0
  6
CONTINUOUS
 62
       7
  5
B5
 10
64.12280211
 20
-105.87622374
 30
0.0
 11
64.12280211
 21
-147.47622374
 31
0.0
  0
LINE
  8
0
  6
CONTINUOUS
 62
       7
  5
B6
 10
-78.87719789
 20
-105.87622374
 30
0.0
 11
61.12280211
 21
-105.87622374
 31
0.0
  0
LINE
  8
0
  6
CONTINUOUS
 62
       7
  5
B7
 10
-78.87719789
 20
-147.47622374
 30
0.0
 11
61.12280211
 21
-147.47622374
 31
0.0
  0
LINE
  8
0
  6
CONTINUOUS
 62
       7
  5
B8
 10
77.12280211
 20
-105.87622374
 30
0.0
 11
77.12280211
 21
-147.47622374
 31
0.0
  0
LINE
  8
0
  6
CONTINUOUS
 62
       7
  5
B9
 10
84.12280211
 20
-105.87622374
 30
0.0
 11
84.12280211
 21
-147.47622374
 31
0.0
  0
LINE
  8
0
  6
CONTINUOUS
 62
       7
  5
BA
 10
80.62280211
 20
-144.67622374
 30
0.0
 11
84.12280211
 21
-144.67622374
 31
0.0
  0
LINE
  8
0
  6
CONTINUOUS
 62
       7
  5
BB
 10
80.62280211
 20
-108.67622374
 30
0.0
 11
84.12280211
 21
-108.67622374
 31
0.0
  0
LINE
  8
0
  6
CONTINUOUS
 62
       7
  5
BC
 10
84.12280211
 20
-105.87622374
 30
0.0
 11
97.12280211
 21
-105.87622374
 31
0.0
  0
LINE
  8
0
  6
CONTINUOUS
 62
       7
  5
BD
 10
84.12280211
 20
-147.47622374
 30
0.0
 11
97.12280211
 21
-147.47622374
 31
0.0
  0
LINE
  8
0
  6
CONTINUOUS
 62
       7
  5
BE
 10
99.12280211
 20
-146.67622374
 30
0.0
 11
99.32280211
 21
-146.67622374
 31
0.0
  0
LINE
  8
0
  6
CONTINUOUS
 62
       7
  5
BF
 10
99.12280211
 20
-106.67622374
 30
0.0
 11
99.32280211
 21
-106.67622374
 31
0.0
  0
LINE
  8
0
  6
CONTINUOUS
 62
       7
  5
C0
 10
99.32280211
 20
-146.67622374
 30
0.0
 11
100.12280211
 21
-147.47622374
 31
0.0
  0
LINE
  8
0
  6
CONTINUOUS
 62
       7
  5
C1
 10
98.12280211
 20
-147.47622374
 30
0.0
 11
99.12280211
 21
-147.47622374
 31
0.0
  0
LINE
  8
0
  6
CONTINUOUS
 62
       7
  5
C2
 10
97.12280211
 20
-146.47622374
 30
0.0
 11
98.12280211
 21
-147.47622374
 31
0.0
  0
LINE
  8
0
  6
CONTINUOUS
 62
       7
  5
C3
 10
99.32280211
 20
-106.67622374
 30
0.0
 11
100.12280211
 21
-105.87622374
 31
0.0
  0
LINE
  8
0
  6
CONTINUOUS
 62
       7
  5
C4
 10
98.12280211
 20
-105.87622374
 30
0.0
 11
99.12280211
 21
-105.87622374
 31
0.0
  0
LINE
  8
0
  6
CONTINUOUS
 62
       7
  5
C5
 10
97.12280211
 20
-106.87622374
 30
0.0
 11
98.12280211
 21
-105.87622374
 31
0.0
  0
LINE
  8
0
  6
CONTINUOUS
 62
       7
  5
C6
 10
99.12280211
 20
-105.87622374
 30
0.0
 11
99.12280211
 21
-147.47622374
 31
0.0
  0
LINE
  8
0
  6
CONTINUOUS
 62
       7
  5
C7
 10
97.12280211
 20
-105.87622374
 30
0.0
 11
97.12280211
 21
-147.47622374
 31
0.0
  0
LINE
  8
0
  6
CENTER
 62
       2
  5
C8
 10
-296.65719789
 20
-96.87622374
 30
0.0
 11
-296.65719789
 21
-155.06622374
 31
0.0
  0
LINE
  8
0
  6
CENTER
 62
       2
  5
C9
 10
-326.88719789
 20
-126.67622374
 30
0.0
 11
-267.12719789
 21
-126.67622374
 31
0.0
  0
LINE
  8
0
  6
CONTINUOUS
 62
       7
  5
CA
 10
-276.15719789
 20
-114.84054322
 30
0.0
 11
-276.15719789
 21
-138.51190426
 31
0.0
  0
LINE
  8
0
  6
CONTINUOUS
 62
       7
  5
CB
 10
-296.65719789
 20
-103.0048627
 30
0.0
 11
-276.15719789
 21
-114.84054322
 31
0.0
  0
LINE
  8
0
  6
CONTINUOUS
 62
       7
  5
CC
 10
-317.15719789
 20
-114.84054322
 30
0.0
 11
-296.65719789
 21
-103.0048627
 31
0.0
  0
LINE
  8
0
  6
CONTINUOUS
 62
       7
  5
CD
 10
-317.15719789
 20
-138.51190426
 30
0.0
 11
-317.15719789
 21
-114.84054322
 31
0.0
  0
LINE
  8
0
  6
CONTINUOUS
 62
       7
  5
CE
 10
-296.65719789
 20
-150.34758477
 30
0.0
 11
-317.15719789
 21
-138.51190426
 31
0.0
  0
LINE
  8
0
  6
CONTINUOUS
 62
       7
  5
CF
 10
-276.15719789
 20
-138.51190426
 30
0.0
 11
-296.65719789
 21
-150.34758477
 31
0.0
  0
CIRCLE
  8
0
  6
CONTINUOUS
 62
       7
  5
D0
 10
-296.65719789
 20
-126.67622374
 30
0.0
 40
20.5
  0
LINE
  8
0
  6
CONTINUOUS
 62
       7
  5
D1
 10
-287.15719789
 20
-121.19139618
 30
0.0
 11
-287.15719789
 21
-132.1610513
 31
0.0
  0
LINE
  8
0
  6
CONTINUOUS
 62
       7
  5
D2
 10
-296.65719789
 20
-115.70656862
 30
0.0
 11
-287.15719789
 21
-121.19139618
 31
0.0
  0
LINE
  8
0
  6
CONTINUOUS
 62
       7
  5
D3
 10
-306.15719789
 20
-121.19139618
 30
0.0
 11
-296.65719789
 21
-115.70656862
 31
0.0
  0
LINE
  8
0
  6
CONTINUOUS
 62
       7
  5
D4
 10
-306.15719789
 20
-132.1610513
 30
0.0
 11
-306.15719789
 21
-121.19139618
 31
0.0
  0
LINE
  8
0
  6
CONTINUOUS
 62
       7
  5
D5
 10
-296.65719789
 20
-137.64587885
 30
0.0
 11
-306.15719789
 21
-132.1610513
 31
0.0
  0
LINE
  8
0
  6
CONTINUOUS
 62
       7
  5
D6
 10
-287.15719789
 20
-132.1610513
 30
0.0
 11
-296.65719789
 21
-137.64587885
 31
0.0
  0
CIRCLE
  8
0
  6
CONTINUOUS
 62
       7
  5
D7
 10
-296.65719789
 20
-126.67622374
 30
0.0
 40
7.0
  0
CIRCLE
  8
0
  6
CONTINUOUS
 62
       2
  5
D8
 10
-296.65719789
 20
-126.67622374
 30
0.0
 40
6.0
  0
CIRCLE
  8
0
  6
CONTINUOUS
 62
       7
  5
D9
 10
-296.65719789
 20
-126.67622374
 30
0.0
 40
9.5
  0
CIRCLE
  8
0
  6
CONTINUOUS
 62
       7
  5
DA
 10
-296.65719789
 20
-126.67622374
 30
0.0
 40
16.5
  0
CIRCLE
  8
0
  6
CONTINUOUS
 62
       7
  5
DB
 10
-296.65719789
 20
-126.67622374
 30
0.0
 40
15.0
  0
LINE
  8
0
  6
CONTINUOUS
 62
       7
  5
DC
 10
100.12280211
 20
-105.87622374
 30
0.0
 11
181.62280211
 21
-105.87622374
 31
0.0
  0
LINE
  8
0
  6
CONTINUOUS
 62
       7
  5
DD
 10
100.12280211
 20
-147.47622374
 30
0.0
 11
181.62280211
 21
-147.47622374
 31
0.0
  0
LINE
  8
0
  6
CENTER
 62
       2
  5
DE
 10
-246.65719789
 20
-126.67622374
 30
0.0
 11
229.53280211
 21
-126.67622374
 31
0.0
  0
LINE
  8
0
  6
CONTINUOUS
 62
       7
  5
DF
 10
-399.52490234
 20
0.0
 30
0.0
 11
399.52490234
 21
0.0
 31
0.0
  0
CIRCLE
  8
0
  6
CONTINUOUS
 62
       7
  5
E0
 10
-296.65719789
 20
123.32377626
 30
0.0
 40
15.0
  0
CIRCLE
  8
0
  6
CONTINUOUS
 62
       7
  5
E1
 10
-296.65719789
 20
123.32377626
 30
0.0
 40
16.5
  0
CIRCLE
  8
0
  6
CONTINUOUS
 62
       7
  5
E2
 10
-296.65719789
 20
123.32377626
 30
0.0
 40
9.5
  0
CIRCLE
  8
0
  6
CONTINUOUS
 62
       2
  5
E3
 10
-296.65719789
 20
123.32377626
 30
0.0
 40
6.0
  0
CIRCLE
  8
0
  6
CONTINUOUS
 62
       7
  5
E4
 10
-296.65719789
 20
123.32377626
 30
0.0
 40
7.0
  0
LINE
  8
0
  6
CONTINUOUS
 62
       7
  5
E5
 10
-287.15719789
 20
117.8389487
 30
0.0
 11
-296.65719789
 21
112.35412115
 31
0.0
  0
LINE
  8
0
  6
CONTINUOUS
 62
       7
  5
E6
 10
-296.65719789
 20
112.35412115
 30
0.0
 11
-306.15719789
 21
117.8389487
 31
0.0
  0
LINE
  8
0
  6
CONTINUOUS
 62
       7
  5
E7
 10
-306.15719789
 20
117.8389487
 30
0.0
 11
-306.15719789
 21
128.80860382
 31
0.0
  0
LINE
  8
0
  6
CONTINUOUS
 62
       7
  5
E8
 10
-306.15719789
 20
128.80860382
 30
0.0
 11
-296.65719789
 21
134.29343138
 31
0.0
  0
LINE
  8
0
  6
CONTINUOUS
 62
       7
  5
E9
 10
-296.65719789
 20
134.29343138
 30
0.0
 11
-287.15719789
 21
128.80860382
 31
0.0
  0
LINE
  8
0
  6
CONTINUOUS
 62
       7
  5
EA
 10
-287.15719789
 20
128.80860382
 30
0.0
 11
-287.15719789
 21
117.8389487
 31
0.0
  0
CIRCLE
  8
0
  6
CONTINUOUS
 62
       7
  5
EB
 10
-296.65719789
 20
123.32377626
 30
0.0
 40
20.5
  0
LINE
  8
0
  6
CONTINUOUS
 62
       7
  5
EC
 10
-276.15719789
 20
111.48809574
 30
0.0
 11
-296.65719789
 21
99.65241523
 31
0.0
  0
LINE
  8
0
  6
CONTINUOUS
 62
       7
  5
ED
 10
-296.65719789
 20
99.65241523
 30
0.0
 11
-317.15719789
 21
111.48809574
 31
0.0
  0
LINE
  8
0
  6
CONTINUOUS
 62
       7
  5
EE
 10
-317.15719789
 20
111.48809574
 30
0.0
 11
-317.15719789
 21
135.15945678
 31
0.0
  0
LINE
  8
0
  6
CONTINUOUS
 62
       7
  5
EF
 10
-317.15719789
 20
135.15945678
 30
0.0
 11
-296.65719789
 21
146.9951373
 31
0.0
  0
LINE
  8
0
  6
CONTINUOUS
 62
       7
  5
F0
 10
-296.65719789
 20
146.9951373
 30
0.0
 11
-276.15719789
 21
135.15945678
 31
0.0
  0
LINE
  8
0
  6
CONTINUOUS
 62
       7
  5
F1
 10
-276.15719789
 20
135.15945678
 30
0.0
 11
-276.15719789
 21
111.48809574
 31
0.0
  0
LINE
  8
0
  6
CENTER
 62
       2
  5
F2
 10
-326.88719789
 20
123.32377626
 30
0.0
 11
-267.12719789
 21
123.32377626
 31
0.0
  0
LINE
  8
0
  6
CENTER
 62
       2
  5
F3
 10
-296.65719789
 20
153.12377626
 30
0.0
 11
-296.65719789
 21
94.93377626
 31
0.0
  0
LINE
  8
0
  6
CONTINUOUS
 62
       7
  5
F4
 10
184.62280211
 20
-105.87622374
 30
0.0
 11
184.62280211
 21
-147.47622374
 31
0.0
  0
LINE
  8
0
  6
CONTINUOUS
 62
       7
  5
F5
 10
182.62280211
 20
-105.87622374
 30
0.0
 11
182.62280211
 21
-147.47622374
 31
0.0
  0
LINE
  8
0
  6
CONTINUOUS
 62
       7
  5
F6
 10
184.62280211
 20
-106.87622374
 30
0.0
 11
183.62280211
 21
-105.87622374
 31
0.0
  0
LINE
  8
0
  6
CONTINUOUS
 62
       7
  5
F7
 10
183.62280211
 20
-105.87622374
 30
0.0
 11
182.62280211
 21
-105.87622374
 31
0.0
  0
LINE
  8
0
  6
CONTINUOUS
 62
       7
  5
F8
 10
182.42280211
 20
-106.67622374
 30
0.0
 11
181.62280211
 21
-105.87622374
 31
0.0
  0
LINE
  8
0
  6
CONTINUOUS
 62
       7
  5
F9
 10
199.62280211
 20
-105.87622374
 30
0.0
 11
184.62280211
 21
-105.87622374
 31
0.0
  0
LINE
  8
0
  6
CONTINUOUS
 62
       7
  5
FA
 10
184.62280211
 20
-146.47622374
 30
0.0
 11
183.62280211
 21
-147.47622374
 31
0.0
  0
LINE
  8
0
  6
CONTINUOUS
 62
       7
  5
FB
 10
183.62280211
 20
-147.47622374
 30
0.0
 11
182.62280211
 21
-147.47622374
 31
0.0
  0
LINE
  8
0
  6
CONTINUOUS
 62
       7
  5
FC
 10
182.42280211
 20
-146.67622374
 30
0.0
 11
181.62280211
 21
-147.47622374
 31
0.0
  0
LINE
  8
0
  6
CONTINUOUS
 62
       7
  5
FD
 10
199.62280211
 20
-147.47622374
 30
0.0
 11
184.62280211
 21
-147.47622374
 31
0.0
  0
LINE
  8
0
  6
DASHED
 62
       2
  5
FE
 10
195.62280211
 20
-106.87622374
 30
0.0
 11
187.44280211
 21
-106.82622374
 31
0.0
  0
LINE
  8
0
  6
DASHED
 62
       2
  5
FF
 10
187.44280211
 20
-114.37622374
 30
0.0
 11
187.44280211
 21
-106.82622374
 31
0.0
  0
LINE
  8
0
  6
DASHED
 62
       2
  5
100
 10
187.44280211
 20
-106.82622374
 30
0.0
 11
186.49280211
 21
-105.87622374
 31
0.0
  0
LINE
  8
0
  6
DASHED
 62
       2
  5
101
 10
186.86280211
 20
-112.87622374
 30
0.0
 11
186.49280211
 21
-105.87622374
 31
0.0
  0
LINE
  8
0
  6
DASHED
 62
       2
  5
102
 10
196.25280211
 20
-112.87622374
 30
0.0
 11
196.62280211
 21
-105.87622374
 31
0.0
  0
LINE
  8
0
  6
DASHED
 62
       2
  5
103
 10
195.62280211
 20
-114.37622374
 30
0.0
 11
195.62280211
 21
-106.87622374
 31
0.0
  0
LINE
  8
0
  6
DASHED
 62
       2
  5
104
 10
195.62280211
 20
-106.87622374
 30
0.0
 11
196.62280211
 21
-105.87622374
 31
0.0
  0
LINE
  8
0
  6
CONTINUOUS
 62
       7
  5
105
 10
199.62280211
 20
-105.87622374
 30
0.0
 11
199.62280211
 21
-147.47622374
 31
0.0
  0
LINE
  8
0
  6
CONTINUOUS
 62
       7
  5
106
 10
182.62280211
 20
-106.67622374
 30
0.0
 11
182.42280211
 21
-106.67622374
 31
0.0
  0
LINE
  8
0
  6
CONTINUOUS
 62
       7
  5
107
 10
182.62280211
 20
-146.67622374
 30
0.0
 11
182.42280211
 21
-146.67622374
 31
0.0
  0
LINE
  8
0
  6
CONTINUOUS
 62
       7
  5
108
 10
181.62280211
 20
-105.87622374
 30
0.0
 11
181.62280211
 21
-147.47622374
 31
0.0
  0
LINE
  8
0
  6
CONTINUOUS
 62
       7
  5
109
 10
183.62280211
 20
-105.87622374
 30
0.0
 11
183.62280211
 21
-147.47622374
 31
0.0
  0
LINE
  8
0
  6
CONTINUOUS
 62
       7
  5
10A
 10
200.62280211
 20
-143.17622374
 30
0.0
 11
199.62280211
 21
-143.17622374
 31
0.0
  0
LINE
  8
0
  6
CONTINUOUS
 62
       7
  5
10B
 10
200.62280211
 20
-143.17622374
 30
0.0
 11
200.62280211
 21
-110.17622374
 31
0.0
  0
LINE
  8
0
  6
CONTINUOUS
 62
       7
  5
10C
 10
200.62280211
 20
-110.17622374
 30
0.0
 11
199.62280211
 21
-110.17622374
 31
0.0
  0
LINE
  8
0
  6
CENTER
 62
       2
  5
10D
 10
191.55280211
 20
-102.60622374
 30
0.0
 11
191.55280211
 21
-115.69622374
 31
0.0
  0
LINE
  8
0
  6
CONTINUOUS
 62
       7
  5
10E
 10
97.12280211
 20
144.12377626
 30
0.0
 11
97.12280211
 21
102.52377626
 31
0.0
  0
LINE
  8
0
  6
CONTINUOUS
 62
       7
  5
10F
 10
99.12280211
 20
144.12377626
 30
0.0
 11
99.12280211
 21
102.52377626
 31
0.0
  0
LINE
  8
0
  6
CONTINUOUS
 62
       7
  5
110
 10
97.12280211
 20
143.12377626
 30
0.0
 11
98.12280211
 21
144.12377626
 31
0.0
  0
LINE
  8
0
  6
CONTINUOUS
 62
       7
  5
111
 10
98.12280211
 20
144.12377626
 30
0.0
 11
99.12280211
 21
144.12377626
 31
0.0
  0
LINE
  8
0
  6
CONTINUOUS
 62
       7
  5
112
 10
99.32280211
 20
143.32377626
 30
0.0
 11
100.12280211
 21
144.12377626
 31
0.0
  0
LINE
  8
0
  6
CONTINUOUS
 62
       7
  5
113
 10
97.12280211
 20
103.52377626
 30
0.0
 11
98.12280211
 21
102.52377626
 31
0.0
  0
LINE
  8
0
  6
CONTINUOUS
 62
       7
  5
114
 10
98.12280211
 20
102.52377626
 30
0.0
 11
99.12280211
 21
102.52377626
 31
0.0
  0
LINE
  8
0
  6
CONTINUOUS
 62
       7
  5
115
 10
99.32280211
 20
103.32377626
 30
0.0
 11
100.12280211
 21
102.52377626
 31
0.0
  0
LINE
  8
0
  6
CONTINUOUS
 62
       7
  5
116
 10
99.12280211
 20
143.32377626
 30
0.0
 11
99.32280211
 21
143.32377626
 31
0.0
  0
LINE
  8
0
  6
CONTINUOUS
 62
       7
  5
117
 10
99.12280211
 20
103.32377626
 30
0.0
 11
99.32280211
 21
103.32377626
 31
0.0
  0
LINE
  8
0
  6
CONTINUOUS
 62
       7
  5
118
 10
84.12280211
 20
102.52377626
 30
0.0
 11
97.12280211
 21
102.52377626
 31
0.0
  0
LINE
  8
0
  6
CONTINUOUS
 62
       7
  5
119
 10
84.12280211
 20
144.12377626
 30
0.0
 11
97.12280211
 21
144.12377626
 31
0.0
  0
LINE
  8
0
  6
CONTINUOUS
 62
       7
  5
11A
 10
80.62280211
 20
141.32377626
 30
0.0
 11
84.12280211
 21
141.32377626
 31
0.0
  0
LINE
  8
0
  6
CONTINUOUS
 62
       7
  5
11B
 10
80.62280211
 20
105.32377626
 30
0.0
 11
84.12280211
 21
105.32377626
 31
0.0
  0
LINE
  8
0
  6
CONTINUOUS
 62
       7
  5
11C
 10
84.12280211
 20
144.12377626
 30
0.0
 11
84.12280211
 21
102.52377626
 31
0.0
  0
LINE
  8
0
  6
CONTINUOUS
 62
       7
  5
11D
 10
77.12280211
 20
144.12377626
 30
0.0
 11
77.12280211
 21
102.52377626
 31
0.0
  0
LINE
  8
0
  6
CONTINUOUS
 62
       7
  5
11E
 10
-78.87719789
 20
102.52377626
 30
0.0
 11
61.12280211
 21
102.52377626
 31
0.0
  0
LINE
  8
0
  6
CONTINUOUS
 62
       7
  5
11F
 10
-78.87719789
 20
144.12377626
 30
0.0
 11
61.12280211
 21
144.12377626
 31
0.0
  0
LINE
  8
0
  6
CONTINUOUS
 62
       7
  5
120
 10
64.12280211
 20
144.12377626
 30
0.0
 11
64.12280211
 21
102.52377626
 31
0.0
  0
LINE
  8
0
  6
CONTINUOUS
 62
       7
  5
121
 10
62.12280211
 20
144.12377626
 30
0.0
 11
62.12280211
 21
102.52377626
 31
0.0
  0
LINE
  8
0
  6
CONTINUOUS
 62
       7
  5
122
 10
64.12280211
 20
143.12377626
 30
0.0
 11
63.12280211
 21
144.12377626
 31
0.0
  0
LINE
  8
0
  6
CONTINUOUS
 62
       7
  5
123
 10
63.12280211
 20
144.12377626
 30
0.0
 11
62.12280211
 21
144.12377626
 31
0.0
  0
LINE
  8
0
  6
CONTINUOUS
 62
       7
  5
124
 10
61.92280211
 20
143.32377626
 30
0.0
 11
61.12280211
 21
144.12377626
 31
0.0
  0
LINE
  8
0
  6
CONTINUOUS
 62
       7
  5
125
 10
64.12280211
 20
103.52377626
 30
0.0
 11
63.12280211
 21
102.52377626
 31
0.0
  0
LINE
  8
0
  6
CONTINUOUS
 62
       7
  5
126
 10
63.12280211
 20
102.52377626
 30
0.0
 11
62.12280211
 21
102.52377626
 31
0.0
  0
LINE
  8
0
  6
CONTINUOUS
 62
       7
  5
127
 10
61.92280211
 20
103.32377626
 30
0.0
 11
61.12280211
 21
102.52377626
 31
0.0
  0
LINE
  8
0
  6
DASHED
 62
       2
  5
128
 10
75.12280211
 20
143.12377626
 30
0.0
 11
66.95280211
 21
143.16377626
 31
0.0
  0
LINE
  8
0
  6
DASHED
 62
       2
  5
129
 10
66.95280211
 20
135.62377626
 30
0.0
 11
66.95280211
 21
143.16377626
 31
0.0
  0
LINE
  8
0
  6
DASHED
 62
       2
  5
12A
 10
66.95280211
 20
143.16377626
 30
0.0
 11
66.00280211
 21
144.12377626
 31
0.0
  0
LINE
  8
0
  6
DASHED
 62
       2
  5
12B
 10
66.37280211
 20
137.12377626
 30
0.0
 11
66.00280211
 21
144.12377626
 31
0.0
  0
LINE
  8
0
  6
DASHED
 62
       2
  5
12C
 10
75.75280211
 20
137.12377626
 30
0.0
 11
76.12280211
 21
144.12377626
 31
0.0
  0
LINE
  8
0
  6
DASHED
 62
       2
  5
12D
 10
75.12280211
 20
135.62377626
 30
0.0
 11
75.12280211
 21
143.12377626
 31
0.0
  0
LINE
  8
0
  6
DASHED
 62
       2
  5
12E
 10
75.12280211
 20
143.12377626
 30
0.0
 11
76.12280211
 21
144.12377626
 31
0.0
  0
LINE
  8
0
  6
CENTER
 62
       2
  5
12F
 10
71.12280211
 20
134.77377626
 30
0.0
 11
71.12280211
 21
148.45377626
 31
0.0
  0
LINE
  8
0
  6
CONTINUOUS
 62
       7
  5
130
 10
62.12280211
 20
143.32377626
 30
0.0
 11
61.92280211
 21
143.32377626
 31
0.0
  0
LINE
  8
0
  6
CONTINUOUS
 62
       7
  5
131
 10
62.12280211
 20
103.32377626
 30
0.0
 11
61.92280211
 21
103.32377626
 31
0.0
  0
LINE
  8
0
  6
CONTINUOUS
 62
       7
  5
132
 10
77.12280211
 20
102.52377626
 30
0.0
 11
64.12280211
 21
102.52377626
 31
0.0
  0
LINE
  8
0
  6
CONTINUOUS
 62
       7
  5
133
 10
77.12280211
 20
144.12377626
 30
0.0
 11
64.12280211
 21
144.12377626
 31
0.0
  0
LINE
  8
0
  6
CONTINUOUS
 62
       7
  5
134
 10
80.62280211
 20
141.32377626
 30
0.0
 11
77.12280211
 21
141.32377626
 31
0.0
  0
LINE
  8
0
  6
CONTINUOUS
 62
       7
  5
135
 10
80.62280211
 20
105.32377626
 30
0.0
 11
77.12280211
 21
105.32377626
 31
0.0
  0
LINE
  8
0
  6
CENTER
 62
       2
  5
136
 10
-240.87719789
 20
130.32377626
 30
0.0
 11
-234.37719789
 21
130.32377626
 31
0.0
  0
LINE
  8
0
  6
CENTER
 62
       2
  5
137
 10
-240.87719789
 20
116.32377626
 30
0.0
 11
-234.37719789
 21
116.32377626
 31
0.0
  0
LINE
  8
0
  6
CONTINUOUS
 62
       7
  5
138
 10
-118.87719789
 20
130.32377626
 30
0.0
 11
-118.87719789
 21
116.32377626
 31
0.0
  0
LINE
  8
0
  6
CONTINUOUS
 62
       7
  5
139
 10
-116.87719789
 20
116.32377626
 30
0.0
 11
-116.87719789
 21
130.32377626
 31
0.0
  0
LINE
  8
0
  6
CONTINUOUS
 62
       7
  5
13A
 10
-116.87719789
 20
130.32377626
 30
0.0
 11
-115.87719789
 21
131.32377626
 31
0.0
  0
LINE
  8
0
  6
CONTINUOUS
 62
       7
  5
13B
 10
-116.87719789
 20
116.32377626
 30
0.0
 11
-115.87719789
 21
115.32377626
 31
0.0
  0
LINE
  8
0
  6
CONTINUOUS
 62
       7
  5
13C
 10
-115.87719789
 20
127.19377626
 30
0.0
 11
-115.87719789
 21
131.32377626
 31
0.0
  0
LINE
  8
0
  6
CONTINUOUS
 62
       7
  5
13D
 10
-111.87719789
 20
119.44377626
 30
0.0
 11
-111.87719789
 21
127.19377626
 31
0.0
  0
LINE
  8
0
  6
CONTINUOUS
 62
       7
  5
13E
 10
-115.87719789
 20
127.19377626
 30
0.0
 11
-111.87719789
 21
127.19377626
 31
0.0
  0
LINE
  8
0
  6
CONTINUOUS
 62
       7
  5
13F
 10
-115.87719789
 20
119.44377626
 30
0.0
 11
-111.87719789
 21
119.44377626
 31
0.0
  0
LINE
  8
0
  6
CONTINUOUS
 62
       2
  5
140
 10
-115.87719789
 20
127.19377626
 30
0.0
 11
-111.87719789
 21
119.44377626
 31
0.0
  0
LINE
  8
0
  6
CONTINUOUS
 62
       2
  5
141
 10
-111.87719789
 20
127.19377626
 30
0.0
 11
-115.87719789
 21
119.44377626
 31
0.0
  0
LINE
  8
0
  6
CONTINUOUS
 62
       7
  5
142
 10
-115.87719789
 20
115.32377626
 30
0.0
 11
-115.87719789
 21
119.44377626
 31
0.0
  0
LINE
  8
0
  6
CONTINUOUS
 62
       7
  5
143
 10
-126.37719789
 20
116.32377626
 30
0.0
 11
-116.87719789
 21
116.32377626
 31
0.0
  0
LINE
  8
0
  6
CONTINUOUS
 62
       7
  5
144
 10
-126.37719789
 20
130.32377626
 30
0.0
 11
-116.87719789
 21
130.32377626
 31
0.0
  0
LINE
  8
0
  6
CONTINUOUS
 62
       7
  5
145
 10
-96.87719789
 20
144.12377626
 30
0.0
 11
-96.87719789
 21
102.52377626
 31
0.0
  0
LINE
  8
0
  6
CONTINUOUS
 62
       7
  5
146
 10
-96.87719789
 20
102.52377626
 30
0.0
 11
-81.87719789
 21
102.52377626
 31
0.0
  0
LINE
  8
0
  6
CONTINUOUS
 62
       7
  5
147
 10
-109.61719789
 20
139.82377626
 30
0.0
 11
-109.37719789
 21
139.82377626
 31
0.0
  0
LINE
  8
0
  6
CONTINUOUS
 62
       7
  5
148
 10
-109.61719789
 20
106.82377626
 30
0.0
 11
-109.37719789
 21
106.82377626
 31
0.0
  0
LINE
  8
0
  6
CONTINUOUS
 62
       7
  5
149
 10
-110.87719789
 20
138.32377626
 30
0.0
 11
-109.61719789
 21
139.82377626
 31
0.0
  0
LINE
  8
0
  6
CONTINUOUS
 62
       7
  5
14A
 10
-110.87719789
 20
108.32377626
 30
0.0
 11
-109.61719789
 21
106.82377626
 31
0.0
  0
LINE
  8
0
  6
CONTINUOUS
 62
       7
  5
14B
 10
-98.87719789
 20
139.82377626
 30
0.0
 11
-98.87719789
 21
138.82377626
 31
0.0
  0
LINE
  8
0
  6
CONTINUOUS
 62
       2
  5
14C
 10
-110.45719789
 20
107.82377626
 30
0.0
 11
-109.37719789
 21
107.82377626
 31
0.0
  0
LINE
  8
0
  6
CONTINUOUS
 62
       2
  5
14D
 10
-110.45719789
 20
138.82377626
 30
0.0
 11
-109.37719789
 21
138.82377626
 31
0.0
  0
LINE
  8
0
  6
CONTINUOUS
 62
       2
  5
14E
 10
-99.87719789
 20
107.82377626
 30
0.0
 11
-98.87719789
 21
107.82377626
 31
0.0
  0
LINE
  8
0
  6
CONTINUOUS
 62
       2
  5
14F
 10
-99.87719789
 20
138.82377626
 30
0.0
 11
-98.87719789
 21
138.82377626
 31
0.0
  0
LINE
  8
0
  6
CONTINUOUS
 62
       2
  5
150
 10
-98.87719789
 20
138.82377626
 30
0.0
 11
-97.13719789
 21
139.82377626
 31
0.0
  0
LINE
  8
0
  6
CONTINUOUS
 62
       2
  5
151
 10
-98.87719789
 20
107.82377626
 30
0.0
 11
-97.13719789
 21
106.82377626
 31
0.0
  0
LINE
  8
0
  6
CONTINUOUS
 62
       7
  5
152
 10
-81.87719789
 20
143.12377626
 30
0.0
 11
-80.87719789
 21
144.12377626
 31
0.0
  0
LINE
  8
0
  6
CONTINUOUS
 62
       7
  5
153
 10
-79.67719789
 20
143.32377626
 30
0.0
 11
-78.87719789
 21
144.12377626
 31
0.0
  0
LINE
  8
0
  6
CONTINUOUS
 62
       7
  5
154
 10
-80.87719789
 20
144.12377626
 30
0.0
 11
-79.87719789
 21
144.12377626
 31
0.0
  0
LINE
  8
0
  6
CONTINUOUS
 62
       7
  5
155
 10
-81.87719789
 20
103.52377626
 30
0.0
 11
-80.87719789
 21
102.52377626
 31
0.0
  0
LINE
  8
0
  6
CONTINUOUS
 62
       7
  5
156
 10
-79.67719789
 20
103.32377626
 30
0.0
 11
-78.87719789
 21
102.52377626
 31
0.0
  0
LINE
  8
0
  6
CONTINUOUS
 62
       7
  5
157
 10
-80.87719789
 20
102.52377626
 30
0.0
 11
-79.87719789
 21
102.52377626
 31
0.0
  0
LINE
  8
0
  6
CONTINUOUS
 62
       7
  5
158
 10
-96.87719789
 20
144.12377626
 30
0.0
 11
-81.87719789
 21
144.12377626
 31
0.0
  0
LINE
  8
0
  6
CONTINUOUS
 62
       7
  5
159
 10
-133.52719789
 20
134.29377626
 30
0.0
 11
-127.21719789
 21
134.29377626
 31
0.0
  0
LINE
  8
0
  6
CONTINUOUS
 62
       7
  5
15A
 10
-133.52719789
 20
112.35377626
 30
0.0
 11
-127.21719789
 21
112.35377626
 31
0.0
  0
LINE
  8
0
  6
CONTINUOUS
 62
       7
  5
15B
 10
-133.52719789
 20
134.29377626
 30
0.0
 11
-134.37719789
 21
132.82377626
 31
0.0
  0
LINE
  8
0
  6
CONTINUOUS
 62
       7
  5
15C
 10
-127.21719789
 20
134.29377626
 30
0.0
 11
-126.37719789
 21
132.82377626
 31
0.0
  0
LINE
  8
0
  6
CONTINUOUS
 62
       7
  5
15D
 10
-127.21719789
 20
112.35377626
 30
0.0
 11
-126.37719789
 21
113.82377626
 31
0.0
  0
LINE
  8
0
  6
CONTINUOUS
 62
       7
  5
15E
 10
-134.37719789
 20
117.83377626
 30
0.0
 11
-134.37719789
 21
132.82377626
 31
0.0
  0
LINE
  8
0
  6
CONTINUOUS
 62
       7
  5
15F
 10
-134.37719789
 20
113.82377626
 30
0.0
 11
-134.37719789
 21
117.83377626
 31
0.0
  0
LINE
  8
0
  6
CONTINUOUS
 62
       7
  5
160
 10
-134.37719789
 20
113.82377626
 30
0.0
 11
-133.52719789
 21
112.35377626
 31
0.0
  0
LINE
  8
0
  6
CONTINUOUS
 62
       7
  5
161
 10
-133.52719789
 20
117.83377626
 30
0.0
 11
-127.21719789
 21
117.83377626
 31
0.0
  0
LINE
  8
0
  6
CONTINUOUS
 62
       7
  5
162
 10
-133.52719789
 20
128.80377626
 30
0.0
 11
-127.21719789
 21
128.80377626
 31
0.0
  0
LINE
  8
0
  6
CONTINUOUS
 62
       7
  5
163
 10
-126.37719789
 20
113.82377626
 30
0.0
 11
-126.37719789
 21
132.82377626
 31
0.0
  0
LINE
  8
0
  6
CENTER
 62
       2
  5
164
 10
-241.87719789
 20
129.32377626
 30
0.0
 11
-234.37719789
 21
129.32377626
 31
0.0
  0
LINE
  8
0
  6
CENTER
 62
       2
  5
165
 10
-241.87719789
 20
117.32377626
 30
0.0
 11
-234.37719789
 21
117.32377626
 31
0.0
  0
LINE
  8
0
  6
CONTINUOUS
 62
       2
  5
166
 10
-126.37719789
 20
129.32377626
 30
0.0
 11
-118.87719789
 21
129.32377626
 31
0.0
  0
LINE
  8
0
  6
CENTER
 62
       2
  5
167
 10
-240.87719789
 20
130.32377626
 30
0.0
 11
-240.87719789
 21
116.32377626
 31
0.0
  0
LINE
  8
0
  6
CONTINUOUS
 62
       2
  5
168
 10
-118.87719789
 20
129.32377626
 30
0.0
 11
-117.13719789
 21
130.32377626
 31
0.0
  0
LINE
  8
0
  6
CONTINUOUS
 62
       2
  5
169
 10
-118.87719789
 20
117.32377626
 30
0.0
 11
-117.13719789
 21
116.32377626
 31
0.0
  0
LINE
  8
0
  6
CONTINUOUS
 62
       2
  5
16A
 10
-126.37719789
 20
117.32377626
 30
0.0
 11
-118.87719789
 21
117.32377626
 31
0.0
  0
LINE
  8
0
  6
CENTER
 62
       2
  5
16B
 10
-240.87719789
 20
130.32377626
 30
0.0
 11
-241.87719789
 21
129.32377626
 31
0.0
  0
LINE
  8
0
  6
CENTER
 62
       2
  5
16C
 10
-241.87719789
 20
129.32377626
 30
0.0
 11
-241.87719789
 21
117.32377626
 31
0.0
  0
LINE
  8
0
  6
CENTER
 62
       2
  5
16D
 10
-241.87719789
 20
117.32377626
 30
0.0
 11
-240.87719789
 21
116.32377626
 31
0.0
  0
LINE
  8
0
  6
CONTINUOUS
 62
       7
  5
16E
 10
-98.87719789
 20
107.82377626
 30
0.0
 11
-98.87719789
 21
106.82377626
 31
0.0
  0
LINE
  8
0
  6
CONTINUOUS
 62
       7
  5
16F
 10
-81.87719789
 20
144.12377626
 30
0.0
 11
-81.87719789
 21
102.52377626
 31
0.0
  0
LINE
  8
0
  6
CONTINUOUS
 62
       7
  5
170
 10
-79.87719789
 20
144.12377626
 30
0.0
 11
-79.87719789
 21
102.52377626
 31
0.0
  0
LINE
  8
0
  6
CONTINUOUS
 62
       7
  5
171
 10
-79.87719789
 20
143.32377626
 30
0.0
 11
-79.67719789
 21
143.32377626
 31
0.0
  0
LINE
  8
0
  6
CONTINUOUS
 62
       7
  5
172
 10
-79.87719789
 20
103.32377626
 30
0.0
 11
-79.67719789
 21
103.32377626
 31
0.0
  0
LINE
  8
0
  6
DASHED
 62
       2
  5
173
 10
-84.87719789
 20
143.12377626
 30
0.0
 11
-93.04719789
 21
143.16377626
 31
0.0
  0
LINE
  8
0
  6
DASHED
 62
       2
  5
174
 10
-93.04719789
 20
135.62377626
 30
0.0
 11
-93.04719789
 21
143.16377626
 31
0.0
  0
LINE
  8
0
  6
DASHED
 62
       2
  5
175
 10
-93.04719789
 20
143.16377626
 30
0.0
 11
-93.99719789
 21
144.12377626
 31
0.0
  0
LINE
  8
0
  6
DASHED
 62
       2
  5
176
 10
-93.62719789
 20
137.12377626
 30
0.0
 11
-93.99719789
 21
144.12377626
 31
0.0
  0
LINE
  8
0
  6
DASHED
 62
       2
  5
177
 10
-84.23719789
 20
137.12377626
 30
0.0
 11
-83.87719789
 21
144.12377626
 31
0.0
  0
LINE
  8
0
  6
DASHED
 62
       2
  5
178
 10
-84.87719789
 20
135.62377626
 30
0.0
 11
-84.87719789
 21
143.12377626
 31
0.0
  0
LINE
  8
0
  6
DASHED
 62
       2
  5
179
 10
-84.87719789
 20
143.12377626
 30
0.0
 11
-83.87719789
 21
144.12377626
 31
0.0
  0
LINE
  8
0
  6
CENTER
 62
       2
  5
17A
 10
-88.87719789
 20
134.48377626
 30
0.0
 11
-88.87719789
 21
150.52377626
 31
0.0
  0
LINE
  8
0
  6
DASHED
 62
       2
  5
17B
 10
85.47280211
 20
106.52377626
 30
0.0
 11
85.47280211
 21
102.52377626
 31
0.0
  0
LINE
  8
0
  6
DASHED
 62
       2
  5
17C
 10
94.77280211
 20
106.52377626
 30
0.0
 11
94.77280211
 21
102.52377626
 31
0.0
  0
LINE
  8
0
  6
CONTINUOUS
 62
       7
  5
17D
 10
100.12280211
 20
144.12377626
 30
0.0
 11
181.62280211
 21
144.12377626
 31
0.0
  0
LINE
  8
0
  6
CENTER
 62
       2
  5
17E
 10
191.62280211
 20
134.25377626
 30
0.0
 11
191.62280211
 21
150.38377626
 31
0.0
  0
LINE
  8
0
  6
CONTINUOUS
 62
       7
  5
17F
 10
98.12280211
 20
144.12377626
 30
0.0
 11
98.12280211
 21
102.52377626
 31
0.0
  0
LINE
  8
0
  6
CONTINUOUS
 62
       7
  5
180
 10
100.12280211
 20
144.12377626
 30
0.0
 11
100.12280211
 21
102.52377626
 31
0.0
  0
LINE
  8
0
  6
CONTINUOUS
 62
       7
  5
181
 10
61.12280211
 20
144.12377626
 30
0.0
 11
61.12280211
 21
102.52377626
 31
0.0
  0
LINE
  8
0
  6
CONTINUOUS
 62
       7
  5
182
 10
63.12280211
 20
144.12377626
 30
0.0
 11
63.12280211
 21
102.52377626
 31
0.0
  0
LINE
  8
0
  6
CONTINUOUS
 62
       7
  5
183
 10
-78.87719789
 20
144.12377626
 30
0.0
 11
-78.87719789
 21
102.52377626
 31
0.0
  0
LINE
  8
0
  6
CONTINUOUS
 62
       7
  5
184
 10
-80.87719789
 20
144.12377626
 30
0.0
 11
-80.87719789
 21
102.52377626
 31
0.0
  0
LINE
  8
0
  6
CONTINUOUS
 62
       7
  5
185
 10
-99.87719789
 20
139.82377626
 30
0.0
 11
-96.87719789
 21
139.82377626
 31
0.0
  0
LINE
  8
0
  6
CONTINUOUS
 62
       7
  5
186
 10
-99.87719789
 20
106.82377626
 30
0.0
 11
-96.87719789
 21
106.82377626
 31
0.0
  0
LINE
  8
0
  6
CONTINUOUS
 62
       7
  5
187
 10
-107.53719789
 20
99.64377626
 30
0.0
 11
-100.37719789
 21
99.64377626
 31
0.0
  0
LINE
  8
0
  6
CONTINUOUS
 62
       7
  5
188
 10
-109.37719789
 20
143.82377626
 30
0.0
 11
-109.37719789
 21
102.82377626
 31
0.0
  0
LINE
  8
0
  6
CONTINUOUS
 62
       7
  5
189
 10
-109.37719789
 20
143.82377626
 30
0.0
 11
-107.53719789
 21
146.99377626
 31
0.0
  0
LINE
  8
0
  6
CONTINUOUS
 62
       7
  5
18A
 10
-109.37719789
 20
102.82377626
 30
0.0
 11
-107.53719789
 21
99.64377626
 31
0.0
  0
LINE
  8
0
  6
CONTINUOUS
 62
       7
  5
18B
 10
-100.37719789
 20
102.82377626
 30
0.0
 11
-99.87719789
 21
102.82377626
 31
0.0
  0
LINE
  8
0
  6
CONTINUOUS
 62
       7
  5
18C
 10
-99.87719789
 20
143.82377626
 30
0.0
 11
-99.87719789
 21
102.82377626
 31
0.0
  0
LINE
  8
0
  6
CONTINUOUS
 62
       7
  5
18D
 10
-100.37719789
 20
146.99377626
 30
0.0
 11
-100.37719789
 21
99.64377626
 31
0.0
  0
LINE
  8
0
  6
CONTINUOUS
 62
       7
  5
18E
 10
-100.37719789
 20
143.82377626
 30
0.0
 11
-99.87719789
 21
143.82377626
 31
0.0
  0
LINE
  8
0
  6
CONTINUOUS
 62
       7
  5
18F
 10
-107.53719789
 20
146.99377626
 30
0.0
 11
-100.37719789
 21
146.99377626
 31
0.0
  0
LINE
  8
0
  6
CONTINUOUS
 62
       7
  5
190
 10
-107.53719789
 20
111.48377626
 30
0.0
 11
-100.37719789
 21
111.48377626
 31
0.0
  0
LINE
  8
0
  6
CONTINUOUS
 62
       7
  5
191
 10
-107.53719789
 20
135.15377626
 30
0.0
 11
-100.37719789
 21
135.15377626
 31
0.0
  0
LINE
  8
0
  6
CONTINUOUS
 62
       7
  5
192
 10
-110.87719789
 20
108.32377626
 30
0.0
 11
-110.87719789
 21
138.32377626
 31
0.0
  0
LINE
  8
0
  6
CONTINUOUS
 62
       7
  5
193
 10
-115.87719789
 20
131.32377626
 30
0.0
 11
-110.87719789
 21
131.32377626
 31
0.0
  0
LINE
  8
0
  6
CONTINUOUS
 62
       7
  5
194
 10
-115.87719789
 20
115.32377626
 30
0.0
 11
-110.87719789
 21
115.32377626
 31
0.0
  0
LINE
  8
0
  6
CONTINUOUS
 62
       7
  5
195
 10
226.62280211
 20
138.32377626
 30
0.0
 11
226.62280211
 21
108.32377626
 31
0.0
  0
LINE
  8
0
  6
CONTINUOUS
 62
       7
  5
196
 10
224.83280211
 20
139.82377626
 30
0.0
 11
226.62280211
 21
138.32377626
 31
0.0
  0
LINE
  8
0
  6
CONTINUOUS
 62
       7
  5
197
 10
224.83280211
 20
106.82377626
 30
0.0
 11
226.62280211
 21
108.32377626
 31
0.0
  0
LINE
  8
0
  6
CONTINUOUS
 62
       7
  5
198
 10
199.62280211
 20
106.82377626
 30
0.0
 11
224.83280211
 21
106.82377626
 31
0.0
  0
LINE
  8
0
  6
CONTINUOUS
 62
       7
  5
199
 10
200.62280211
 20
110.19377626
 30
0.0
 11
224.83280211
 21
110.19377626
 31
0.0
  0
LINE
  8
0
  6
CONTINUOUS
 62
       7
  5
19A
 10
224.83280211
 20
106.82377626
 30
0.0
 11
224.83280211
 21
110.19377626
 31
0.0
  0
LINE
  8
0
  6
CONTINUOUS
 62
       7
  5
19B
 10
224.83280211
 20
136.44377626
 30
0.0
 11
224.83280211
 21
139.82377626
 31
0.0
  0
LINE
  8
0
  6
CONTINUOUS
 62
       7
  5
19C
 10
199.62280211
 20
139.82377626
 30
0.0
 11
224.83280211
 21
139.82377626
 31
0.0
  0
LINE
  8
0
  6
CONTINUOUS
 62
       2
  5
19D
 10
201.62280211
 20
138.82377626
 30
0.0
 11
226.02280211
 21
138.82377626
 31
0.0
  0
LINE
  8
0
  6
CONTINUOUS
 62
       2
  5
19E
 10
201.62280211
 20
107.82377626
 30
0.0
 11
226.02280211
 21
107.82377626
 31
0.0
  0
LINE
  8
0
  6
CONTINUOUS
 62
       7
  5
19F
 10
201.62280211
 20
139.82377626
 30
0.0
 11
201.62280211
 21
136.44377626
 31
0.0
  0
LINE
  8
0
  6
CONTINUOUS
 62
       7
  5
1A0
 10
201.62280211
 20
110.19377626
 30
0.0
 11
201.62280211
 21
106.82377626
 31
0.0
  0
LINE
  8
0
  6
CONTINUOUS
 62
       7
  5
1A1
 10
200.62280211
 20
136.44377626
 30
0.0
 11
224.83280211
 21
136.44377626
 31
0.0
  0
LINE
  8
0
  6
CONTINUOUS
 62
       7
  5
1A2
 10
200.62280211
 20
136.44377626
 30
0.0
 11
200.62280211
 21
110.19377626
 31
0.0
  0
LINE
  8
0
  6
CONTINUOUS
 62
       2
  5
1A3
 10
201.62280211
 20
138.82377626
 30
0.0
 11
199.88280211
 21
139.82377626
 31
0.0
  0
LINE
  8
0
  6
CONTINUOUS
 62
       2
  5
1A4
 10
201.62280211
 20
107.82377626
 30
0.0
 11
199.88280211
 21
106.82377626
 31
0.0
  0
LINE
  8
0
  6
CENTER
 62
       2
  5
1A5
 10
214.62280211
 20
131.32377321
 30
0.0
 11
214.62280211
 21
115.32377321
 31
0.0
  0
LINE
  8
0
  6
CONTINUOUS
 62
       7
  5
1A6
 10
224.83280211
 20
136.44377626
 30
0.0
 11
226.62280211
 21
134.65377626
 31
0.0
  0
LINE
  8
0
  6
CONTINUOUS
 62
       7
  5
1A7
 10
224.83280211
 20
110.19377626
 30
0.0
 11
226.62280211
 21
111.98377626
 31
0.0
  0
LINE
  8
0
  6
CONTINUOUS
 62
       2
  5
1A8
 10
226.62280211
 20
134.65377626
 30
0.0
 11
218.23280211
 21
126.77377626
 31
0.0
  0
LINE
  8
0
  6
CONTINUOUS
 62
       2
  5
1A9
 10
200.62280211
 20
136.44377626
 30
0.0
 11
210.95280211
 21
126.72377626
 31
0.0
  0
LINE
  8
0
  6
CONTINUOUS
 62
       2
  5
1AA
 10
218.23280211
 20
119.86377626
 30
0.0
 11
226.62280211
 21
111.98377626
 31
0.0
  0
LINE
  8
0
  6
CONTINUOUS
 62
       2
  5
1AB
 10
210.95280211
 20
119.91377626
 30
0.0
 11
200.62280211
 21
110.19377626
 31
0.0
  0
LINE
  8
0
  6
DASHED
 62
       2
  5
1AC
 10
85.47280211
 20
103.52377626
 30
0.0
 11
94.77280211
 21
103.52377626
 31
0.0
  0
LINE
  8
0
  6
DASHED
 62
       2
  5
1AD
 10
85.47280211
 20
106.52377626
 30
0.0
 11
94.77280211
 21
106.52377626
 31
0.0
  0
LINE
  8
0
  6
CENTER
 62
       2
  5
1AE
 10
320.62280211
 20
148.12377626
 30
0.0
 11
320.62280211
 21
99.93377626
 31
0.0
  0
LINE
  8
0
  6
CONTINUOUS
 62
       7
  5
1AF
 10
310.62280211
 20
136.44377626
 30
0.0
 11
310.62280211
 21
110.19377626
 31
0.0
  0
LINE
  8
0
  6
CONTINUOUS
 62
       7
  5
1B0
 10
330.62280211
 20
136.44377626
 30
0.0
 11
330.62280211
 21
110.19377626
 31
0.0
  0
LINE
  8
0
  6
CENTER
 62
       2
  5
1B1
 10
90.12280211
 20
108.08377626
 30
0.0
 11
90.12280211
 21
98.03377626
 31
0.0
  0
LINE
  8
0
  6
CONTINUOUS
 62
       7
  5
1B2
 10
100.12280211
 20
102.52377626
 30
0.0
 11
181.62280211
 21
102.52377626
 31
0.0
  0
LINE
  8
0
  6
CONTINUOUS
 62
       7
  5
1B3
 10
-141.87719789
 20
129.32377626
 30
0.0
 11
-141.87719789
 21
117.32377626
 31
0.0
  0
LINE
  8
0
  6
CONTINUOUS
 62
       7
  5
1B4
 10
-141.87719789
 20
117.32377626
 30
0.0
 11
-140.87719789
 21
116.32377626
 31
0.0
  0
LINE
  8
0
  6
CONTINUOUS
 62
       7
  5
1B5
 10
-140.87719789
 20
130.32377626
 30
0.0
 11
-141.87719789
 21
129.32377626
 31
0.0
  0
LINE
  8
0
  6
CONTINUOUS
 62
       7
  5
1B6
 10
-140.87719789
 20
130.32377626
 30
0.0
 11
-140.87719789
 21
116.32377626
 31
0.0
  0
LINE
  8
0
  6
CONTINUOUS
 62
       2
  5
1B7
 10
-141.87719789
 20
129.32377626
 30
0.0
 11
-134.37719789
 21
129.32377626
 31
0.0
  0
LINE
  8
0
  6
CONTINUOUS
 62
       7
  5
1B8
 10
-140.87719789
 20
130.32377626
 30
0.0
 11
-134.37719789
 21
130.32377626
 31
0.0
  0
LINE
  8
0
  6
CONTINUOUS
 62
       2
  5
1B9
 10
-141.87719789
 20
117.32377626
 30
0.0
 11
-134.37719789
 21
117.32377626
 31
0.0
  0
LINE
  8
0
  6
CONTINUOUS
 62
       7
  5
1BA
 10
-140.87719789
 20
116.32377626
 30
0.0
 11
-134.37719789
 21
116.32377626
 31
0.0
  0
LINE
  8
0
  6
CENTER
 62
       2
  5
1BB
 10
-191.87719789
 20
129.32377626
 30
0.0
 11
-191.87719789
 21
117.32377626
 31
0.0
  0
LINE
  8
0
  6
CENTER
 62
       2
  5
1BC
 10
-191.87719789
 20
117.32377626
 30
0.0
 11
-190.87719789
 21
116.32377626
 31
0.0
  0
LINE
  8
0
  6
CENTER
 62
       2
  5
1BD
 10
-190.87719789
 20
130.32377626
 30
0.0
 11
-191.87719789
 21
129.32377626
 31
0.0
  0
LINE
  8
0
  6
CENTER
 62
       2
  5
1BE
 10
-190.87719789
 20
130.32377626
 30
0.0
 11
-190.87719789
 21
116.32377626
 31
0.0
  0
LINE
  8
0
  6
CENTER
 62
       2
  5
1BF
 10
-191.87719789
 20
129.32377626
 30
0.0
 11
-184.37719789
 21
129.32377626
 31
0.0
  0
LINE
  8
0
  6
CENTER
 62
       2
  5
1C0
 10
-190.87719789
 20
130.32377626
 30
0.0
 11
-184.37719789
 21
130.32377626
 31
0.0
  0
LINE
  8
0
  6
CENTER
 62
       2
  5
1C1
 10
-191.87719789
 20
117.32377626
 30
0.0
 11
-184.37719789
 21
117.32377626
 31
0.0
  0
LINE
  8
0
  6
CENTER
 62
       2
  5
1C2
 10
-190.87719789
 20
116.32377626
 30
0.0
 11
-184.37719789
 21
116.32377626
 31
0.0
  0
LINE
  8
0
  6
CONTINUOUS
 62
       7
  5
1C3
 10
184.62280211
 20
144.12377626
 30
0.0
 11
184.62280211
 21
102.52377626
 31
0.0
  0
LINE
  8
0
  6
CONTINUOUS
 62
       7
  5
1C4
 10
182.62280211
 20
144.12377626
 30
0.0
 11
182.62280211
 21
102.52377626
 31
0.0
  0
LINE
  8
0
  6
CONTINUOUS
 62
       7
  5
1C5
 10
184.62280211
 20
143.12377626
 30
0.0
 11
183.62280211
 21
144.12377626
 31
0.0
  0
LINE
  8
0
  6
CONTINUOUS
 62
       7
  5
1C6
 10
183.62280211
 20
144.12377626
 30
0.0
 11
182.62280211
 21
144.12377626
 31
0.0
  0
LINE
  8
0
  6
CONTINUOUS
 62
       7
  5
1C7
 10
182.42280211
 20
143.32377626
 30
0.0
 11
181.62280211
 21
144.12377626
 31
0.0
  0
LINE
  8
0
  6
CONTINUOUS
 62
       7
  5
1C8
 10
199.62280211
 20
144.12377626
 30
0.0
 11
184.62280211
 21
144.12377626
 31
0.0
  0
LINE
  8
0
  6
CONTINUOUS
 62
       7
  5
1C9
 10
184.62280211
 20
103.52377626
 30
0.0
 11
183.62280211
 21
102.52377626
 31
0.0
  0
LINE
  8
0
  6
CONTINUOUS
 62
       7
  5
1CA
 10
183.62280211
 20
102.52377626
 30
0.0
 11
182.62280211
 21
102.52377626
 31
0.0
  0
LINE
  8
0
  6
CONTINUOUS
 62
       7
  5
1CB
 10
182.42280211
 20
103.32377626
 30
0.0
 11
181.62280211
 21
102.52377626
 31
0.0
  0
LINE
  8
0
  6
CONTINUOUS
 62
       7
  5
1CC
 10
199.62280211
 20
102.52377626
 30
0.0
 11
184.62280211
 21
102.52377626
 31
0.0
  0
LINE
  8
0
  6
DASHED
 62
       2
  5
1CD
 10
195.62280211
 20
143.12377626
 30
0.0
 11
187.44280211
 21
143.16377626
 31
0.0
  0
LINE
  8
0
  6
DASHED
 62
       2
  5
1CE
 10
187.44280211
 20
135.62377626
 30
0.0
 11
187.44280211
 21
143.16377626
 31
0.0
  0
LINE
  8
0
  6
DASHED
 62
       2
  5
1CF
 10
187.44280211
 20
143.16377626
 30
0.0
 11
186.49280211
 21
144.12377626
 31
0.0
  0
LINE
  8
0
  6
DASHED
 62
       2
  5
1D0
 10
186.86280211
 20
137.12377626
 30
0.0
 11
186.49280211
 21
144.12377626
 31
0.0
  0
LINE
  8
0
  6
DASHED
 62
       2
  5
1D1
 10
196.25280211
 20
137.12377626
 30
0.0
 11
196.62280211
 21
144.12377626
 31
0.0
  0
LINE
  8
0
  6
DASHED
 62
       2
  5
1D2
 10
195.62280211
 20
135.62377626
 30
0.0
 11
195.62280211
 21
143.12377626
 31
0.0
  0
LINE
  8
0
  6
DASHED
 62
       2
  5
1D3
 10
195.62280211
 20
143.12377626
 30
0.0
 11
196.62280211
 21
144.12377626
 31
0.0
  0
LINE
  8
0
  6
CONTINUOUS
 62
       7
  5
1D4
 10
199.62280211
 20
144.12377626
 30
0.0
 11
199.62280211
 21
102.52377626
 31
0.0
  0
LINE
  8
0
  6
CONTINUOUS
 62
       7
  5
1D5
 10
182.62280211
 20
143.32377626
 30
0.0
 11
182.42280211
 21
143.32377626
 31
0.0
  0
LINE
  8
0
  6
CONTINUOUS
 62
       7
  5
1D6
 10
182.62280211
 20
103.32377626
 30
0.0
 11
182.42280211
 21
103.32377626
 31
0.0
  0
LINE
  8
0
  6
CONTINUOUS
 62
       7
  5
1D7
 10
181.62280211
 20
144.12377626
 30
0.0
 11
181.62280211
 21
102.52377626
 31
0.0
  0
LINE
  8
0
  6
CONTINUOUS
 62
       7
  5
1D8
 10
183.62280211
 20
144.12377626
 30
0.0
 11
183.62280211
 21
102.52377626
 31
0.0
  0
LINE
  8
0
  6
DASHED
 62
       2
  5
1D9
 10
310.62280211
 20
118.32377626
 30
0.0
 11
330.62280211
 21
118.32377626
 31
0.0
  0
LINE
  8
0
  6
DASHED
 62
       2
  5
1DA
 10
310.62280211
 20
128.32377626
 30
0.0
 11
330.62280211
 21
128.32377626
 31
0.0
  0
CIRCLE
  8
0
  6
CONTINUOUS
 62
       7
  5
1DB
 10
214.62279906
 20
123.32377321
 30
0.0
 40
5.0
  0
ARC
  8
0
  6
CONTINUOUS
 62
       2
  5
1DC
 10
320.62280211
 20
123.32377321
 30
0.0
 40
15.49792477
 50
49.81575182
 51
130.18424818
  0
CIRCLE
  8
0
  6
CONTINUOUS
 62
       7
  5
1DD
 10
320.62279906
 20
123.32377321
 30
0.0
 40
16.5
  0
CIRCLE
  8
0
  6
CONTINUOUS
 62
       7
  5
1DE
 10
320.62279906
 20
123.32377321
 30
0.0
 40
20.79998779
  0
ARC
  8
0
  6
CONTINUOUS
 62
       2
  5
1DF
 10
320.62280211
 20
123.32377321
 30
0.0
 40
15.50556119
 50
229.8395803
 51
310.1604197
  0
POLYLINE
  8
0
  6
CONTINUOUS
 62
       7
  5
1E0
 66
       1
 10
0.0
 20
0.0
 30
0.0
  0
VERTEX
  8
0
  6
CONTINUOUS
 62
       7
  5
369
 10
-111.87719789
 20
127.19377626
 30
0.0
  0
VERTEX
  8
0
  6
CONTINUOUS
 62
       7
  5
36A
 10
-111.76514999
 20
126.96981374
 30
0.0
  0
VERTEX
  8
0
  6
CONTINUOUS
 62
       7
  5
36B
 10
-111.65858277
 20
126.74234711
 30
0.0
  0
VERTEX
  8
0
  6
CONTINUOUS
 62
       7
  5
36C
 10
-111.55773745
 20
126.51161548
 30
0.0
  0
VERTEX
  8
0
  6
CONTINUOUS
 62
       7
  5
36D
 10
-111.46285526
 20
126.27785792
 30
0.0
  0
VERTEX
  8
0
  6
CONTINUOUS
 62
       7
  5
36E
 10
-111.37417742
 20
126.04131355
 30
0.0
  0
VERTEX
  8
0
  6
CONTINUOUS
 62
       7
  5
36F
 10
-111.29194515
 20
125.80222145
 30
0.0
  0
VERTEX
  8
0
  6
CONTINUOUS
 62
       7
  5
370
 10
-111.21639968
 20
125.56082072
 30
0.0
  0
VERTEX
  8
0
  6
CONTINUOUS
 62
       7
  5
371
 10
-111.14778222
 20
125.31735046
 30
0.0
  0
VERTEX
  8
0
  6
CONTINUOUS
 62
       7
  5
372
 10
-111.086334
 20
125.07204975
 30
0.0
  0
VERTEX
  8
0
  6
CONTINUOUS
 62
       7
  5
373
 10
-111.03229625
 20
124.82515768
 30
0.0
  0
VERTEX
  8
0
  6
CONTINUOUS
 62
       7
  5
374
 10
-110.98591018
 20
124.57691337
 30
0.0
  0
VERTEX
  8
0
  6
CONTINUOUS
 62
       7
  5
375
 10
-110.94741701
 20
124.32755589
 30
0.0
  0
VERTEX
  8
0
  6
CONTINUOUS
 62
       7
  5
376
 10
-110.91705798
 20
124.07732435
 30
0.0
  0
VERTEX
  8
0
  6
CONTINUOUS
 62
       7
  5
377
 10
-110.8950743
 20
123.82645783
 30
0.0
  0
VERTEX
  8
0
  6
CONTINUOUS
 62
       7
  5
378
 10
-110.88170719
 20
123.57519544
 30
0.0
  0
VERTEX
  8
0
  6
CONTINUOUS
 62
       7
  5
379
 10
-110.87719789
 20
123.32377626
 30
0.0
  0
VERTEX
  8
0
  6
CONTINUOUS
 62
       7
  5
37A
 10
-110.88170719
 20
123.07170949
 30
0.0
  0
VERTEX
  8
0
  6
CONTINUOUS
 62
       7
  5
37B
 10
-110.8950743
 20
122.81973241
 30
0.0
  0
VERTEX
  8
0
  6
CONTINUOUS
 62
       7
  5
37C
 10
-110.91705798
 20
122.56809914
 30
0.0
  0
VERTEX
  8
0
  6
CONTINUOUS
 62
       7
  5
37D
 10
-110.94741701
 20
122.31706379
 30
0.0
  0
VERTEX
  8
0
  6
CONTINUOUS
 62
       7
  5
37E
 10
-110.98591017
 20
122.06688049
 30
0.0
  0
VERTEX
  8
0
  6
CONTINUOUS
 62
       7
  5
37F
 10
-111.03229624
 20
121.81780335
 30
0.0
  0
VERTEX
  8
0
  6
CONTINUOUS
 62
       7
  5
380
 10
-111.08633399
 20
121.57008649
 30
0.0
  0
VERTEX
  8
0
  6
CONTINUOUS
 62
       7
  5
381
 10
-111.14778221
 20
121.32398401
 30
0.0
  0
VERTEX
  8
0
  6
CONTINUOUS
 62
       7
  5
382
 10
-111.21639967
 20
121.07975005
 30
0.0
  0
VERTEX
  8
0
  6
CONTINUOUS
 62
       7
  5
383
 10
-111.29194514
 20
120.8376387
 30
0.0
  0
VERTEX
  8
0
  6
CONTINUOUS
 62
       7
  5
384
 10
-111.37417741
 20
120.5979041
 30
0.0
  0
VERTEX
  8
0
  6
CONTINUOUS
 62
       7
  5
385
 10
-111.46285525
 20
120.36080036
 30
0.0
  0
VERTEX
  8
0
  6
CONTINUOUS
 62
       7
  5
386
 10
-111.55773744
 20
120.12658158
 30
0.0
  0
VERTEX
  8
0
  6
CONTINUOUS
 62
       7
  5
387
 10
-111.65858276
 20
119.8955019
 30
0.0
  0
VERTEX
  8
0
  6
CONTINUOUS
 62
       7
  5
388
 10
-111.76514998
 20
119.66781542
 30
0.0
  0
VERTEX
  8
0
  6
CONTINUOUS
 62
       7
  5
389
 10
-111.87719789
 20
119.44377626
 30
0.0
  0
SEQEND
  8
0
  6
CONTINUOUS
 62
       7
  5
38A
  0
POLYLINE
  8
0
  6
CONTINUOUS
 62
       7
  5
1E1
 66
       1
 10
0.0
 20
0.0
 30
0.0
  0
VERTEX
  8
0
  6
CONTINUOUS
 62
       7
  5
38B
 10
-115.87719789
 20
127.19377626
 30
0.0
  0
VERTEX
  8
0
  6
CONTINUOUS
 62
       7
  5
38C
 10
-115.98924579
 20
126.96981374
 30
0.0
  0
VERTEX
  8
0
  6
CONTINUOUS
 62
       7
  5
38D
 10
-116.095813
 20
126.74234711
 30
0.0
  0
VERTEX
  8
0
  6
CONTINUOUS
 62
       7
  5
38E
 10
-116.19665832
 20
126.51161548
 30
0.0
  0
VERTEX
  8
0
  6
CONTINUOUS
 62
       7
  5
38F
 10
-116.29154051
 20
126.27785792
 30
0.0
  0
VERTEX
  8
0
  6
CONTINUOUS
 62
       7
  5
390
 10
-116.38021835
 20
126.04131355
 30
0.0
  0
VERTEX
  8
0
  6
CONTINUOUS
 62
       7
  5
391
 10
-116.46245062
 20
125.80222145
 30
0.0
  0
VERTEX
  8
0
  6
CONTINUOUS
 62
       7
  5
392
 10
-116.53799609
 20
125.56082072
 30
0.0
  0
VERTEX
  8
0
  6
CONTINUOUS
 62
       7
  5
393
 10
-116.60661355
 20
125.31735046
 30
0.0
  0
VERTEX
  8
0
  6
CONTINUOUS
 62
       7
  5
394
 10
-116.66806177
 20
125.07204975
 30
0.0
  0
VERTEX
  8
0
  6
CONTINUOUS
 62
       7
  5
395
 10
-116.72209953
 20
124.82515768
 30
0.0
  0
VERTEX
  8
0
  6
CONTINUOUS
 62
       7
  5
396
 10
-116.7684856
 20
124.57691337
 30
0.0
  0
VERTEX
  8
0
  6
CONTINUOUS
 62
       7
  5
397
 10
-116.80697876
 20
124.32755589
 30
0.0
  0
VERTEX
  8
0
  6
CONTINUOUS
 62
       7
  5
398
 10
-116.83733779
 20
124.07732435
 30
0.0
  0
VERTEX
  8
0
  6
CONTINUOUS
 62
       7
  5
399
 10
-116.85932147
 20
123.82645783
 30
0.0
  0
VERTEX
  8
0
  6
CONTINUOUS
 62
       7
  5
39A
 10
-116.87268858
 20
123.57519544
 30
0.0
  0
VERTEX
  8
0
  6
CONTINUOUS
 62
       7
  5
39B
 10
-116.87719789
 20
123.32377626
 30
0.0
  0
VERTEX
  8
0
  6
CONTINUOUS
 62
       7
  5
39C
 10
-116.87268858
 20
123.07170949
 30
0.0
  0
VERTEX
  8
0
  6
CONTINUOUS
 62
       7
  5
39D
 10
-116.85932148
 20
122.81973241
 30
0.0
  0
VERTEX
  8
0
  6
CONTINUOUS
 62
       7
  5
39E
 10
-116.8373378
 20
122.56809914
 30
0.0
  0
VERTEX
  8
0
  6
CONTINUOUS
 62
       7
  5
39F
 10
-116.80697876
 20
122.31706379
 30
0.0
  0
VERTEX
  8
0
  6
CONTINUOUS
 62
       7
  5
3A0
 10
-116.7684856
 20
122.06688049
 30
0.0
  0
VERTEX
  8
0
  6
CONTINUOUS
 62
       7
  5
3A1
 10
-116.72209953
 20
121.81780335
 30
0.0
  0
VERTEX
  8
0
  6
CONTINUOUS
 62
       7
  5
3A2
 10
-116.66806178
 20
121.57008649
 30
0.0
  0
VERTEX
  8
0
  6
CONTINUOUS
 62
       7
  5
3A3
 10
-116.60661356
 20
121.32398401
 30
0.0
  0
VERTEX
  8
0
  6
CONTINUOUS
 62
       7
  5
3A4
 10
-116.5379961
 20
121.07975005
 30
0.0
  0
VERTEX
  8
0
  6
CONTINUOUS
 62
       7
  5
3A5
 10
-116.46245063
 20
120.8376387
 30
0.0
  0
VERTEX
  8
0
  6
CONTINUOUS
 62
       7
  5
3A6
 10
-116.38021836
 20
120.5979041
 30
0.0
  0
VERTEX
  8
0
  6
CONTINUOUS
 62
       7
  5
3A7
 10
-116.29154052
 20
120.36080036
 30
0.0
  0
VERTEX
  8
0
  6
CONTINUOUS
 62
       7
  5
3A8
 10
-116.19665833
 20
120.12658158
 30
0.0
  0
VERTEX
  8
0
  6
CONTINUOUS
 62
       7
  5
3A9
 10
-116.09581301
 20
119.8955019
 30
0.0
  0
VERTEX
  8
0
  6
CONTINUOUS
 62
       7
  5
3AA
 10
-115.98924579
 20
119.66781542
 30
0.0
  0
VERTEX
  8
0
  6
CONTINUOUS
 62
       7
  5
3AB
 10
-115.87719789
 20
119.44377626
 30
0.0
  0
SEQEND
  8
0
  6
CONTINUOUS
 62
       7
  5
3AC
  0
POLYLINE
  8
0
  6
CONTINUOUS
 62
       7
  5
1E2
 66
       1
 10
0.0
 20
0.0
 30
0.0
  0
VERTEX
  8
0
  6
CONTINUOUS
 62
       7
  5
3AD
 10
-133.52719789
 20
128.80377626
 30
0.0
  0
VERTEX
  8
0
  6
CONTINUOUS
 62
       7
  5
3AE
 10
-133.62685753
 20
128.47136508
 30
0.0
  0
VERTEX
  8
0
  6
CONTINUOUS
 62
       7
  5
3AF
 10
-133.7207195
 20
128.13698229
 30
0.0
  0
VERTEX
  8
0
  6
CONTINUOUS
 62
       7
  5
3B0
 10
-133.80869658
 20
127.80076213
 30
0.0
  0
VERTEX
  8
0
  6
CONTINUOUS
 62
       7
  5
3B1
 10
-133.89070158
 20
127.46283884
 30
0.0
  0
VERTEX
  8
0
  6
CONTINUOUS
 62
       7
  5
3B2
 10
-133.9666473
 20
127.12334664
 30
0.0
  0
VERTEX
  8
0
  6
CONTINUOUS
 62
       7
  5
3B3
 10
-134.03644654
 20
126.78241978
 30
0.0
  0
VERTEX
  8
0
  6
CONTINUOUS
 62
       7
  5
3B4
 10
-134.10001209
 20
126.44019249
 30
0.0
  0
VERTEX
  8
0
  6
CONTINUOUS
 62
       7
  5
3B5
 10
-134.15725675
 20
126.096799
 30
0.0
  0
VERTEX
  8
0
  6
CONTINUOUS
 62
       7
  5
3B6
 10
-134.20809332
 20
125.75237355
 30
0.0
  0
VERTEX
  8
0
  6
CONTINUOUS
 62
       7
  5
3B7
 10
-134.2524346
 20
125.40705038
 30
0.0
  0
VERTEX
  8
0
  6
CONTINUOUS
 62
       7
  5
3B8
 10
-134.29019338
 20
125.06096372
 30
0.0
  0
VERTEX
  8
0
  6
CONTINUOUS
 62
       7
  5
3B9
 10
-134.32128248
 20
124.7142478
 30
0.0
  0
VERTEX
  8
0
  6
CONTINUOUS
 62
       7
  5
3BA
 10
-134.34561468
 20
124.36703685
 30
0.0
  0
VERTEX
  8
0
  6
CONTINUOUS
 62
       7
  5
3BB
 10
-134.36310278
 20
124.01946513
 30
0.0
  0
VERTEX
  8
0
  6
CONTINUOUS
 62
       7
  5
3BC
 10
-134.37365958
 20
123.67166685
 30
0.0
  0
VERTEX
  8
0
  6
CONTINUOUS
 62
       7
  5
3BD
 10
-134.37719789
 20
123.32377626
 30
0.0
  0
VERTEX
  8
0
  6
CONTINUOUS
 62
       7
  5
3BE
 10
-134.37365956
 20
122.97522849
 30
0.0
  0
VERTEX
  8
0
  6
CONTINUOUS
 62
       7
  5
3BF
 10
-134.36310273
 20
122.62670841
 30
0.0
  0
VERTEX
  8
0
  6
CONTINUOUS
 62
       7
  5
3C0
 10
-134.34561461
 20
122.27836501
 30
0.0
  0
VERTEX
  8
0
  6
CONTINUOUS
 62
       7
  5
3C1
 10
-134.3212824
 20
121.93034731
 30
0.0
  0
VERTEX
  8
0
  6
CONTINUOUS
 62
       7
  5
3C2
 10
-134.29019329
 20
121.5828043
 30
0.0
  0
VERTEX
  8
0
  6
CONTINUOUS
 62
       7
  5
3C3
 10
-134.25243449
 20
121.23588498
 30
0.0
  0
VERTEX
  8
0
  6
CONTINUOUS
 62
       7
  5
3C4
 10
-134.20809321
 20
120.88973838
 30
0.0
  0
VERTEX
  8
0
  6
CONTINUOUS
 62
       7
  5
3C5
 10
-134.15725663
 20
120.54451348
 30
0.0
  0
VERTEX
  8
0
  6
CONTINUOUS
 62
       7
  5
3C6
 10
-134.10001197
 20
120.20035929
 30
0.0
  0
VERTEX
  8
0
  6
CONTINUOUS
 62
       7
  5
3C7
 10
-134.03644643
 20
119.85742482
 30
0.0
  0
VERTEX
  8
0
  6
CONTINUOUS
 62
       7
  5
3C8
 10
-133.9666472
 20
119.51585907
 30
0.0
  0
VERTEX
  8
0
  6
CONTINUOUS
 62
       7
  5
3C9
 10
-133.8907015
 20
119.17581104
 30
0.0
  0
VERTEX
  8
0
  6
CONTINUOUS
 62
       7
  5
3CA
 10
-133.80869651
 20
118.83742975
 30
0.0
  0
VERTEX
  8
0
  6
CONTINUOUS
 62
       7
  5
3CB
 10
-133.72071945
 20
118.50086418
 30
0.0
  0
VERTEX
  8
0
  6
CONTINUOUS
 62
       7
  5
3CC
 10
-133.6268575
 20
118.16626335
 30
0.0
  0
VERTEX
  8
0
  6
CONTINUOUS
 62
       7
  5
3CD
 10
-133.52719789
 20
117.83377626
 30
0.0
  0
SEQEND
  8
0
  6
CONTINUOUS
 62
       7
  5
3CE
  0
POLYLINE
  8
0
  6
CONTINUOUS
 62
       7
  5
1E3
 66
       1
 10
0.0
 20
0.0
 30
0.0
  0
VERTEX
  8
0
  6
CONTINUOUS
 62
       7
  5
3CF
 10
-127.21719789
 20
128.80377626
 30
0.0
  0
VERTEX
  8
0
  6
CONTINUOUS
 62
       7
  5
3D0
 10
-127.11765036
 20
128.4713651
 30
0.0
  0
VERTEX
  8
0
  6
CONTINUOUS
 62
       7
  5
3D1
 10
-127.02410564
 20
128.13698228
 30
0.0
  0
VERTEX
  8
0
  6
CONTINUOUS
 62
       7
  5
3D2
 10
-126.93662162
 20
127.80076206
 30
0.0
  0
VERTEX
  8
0
  6
CONTINUOUS
 62
       7
  5
3D3
 10
-126.85525621
 20
127.46283867
 30
0.0
  0
VERTEX
  8
0
  6
CONTINUOUS
 62
       7
  5
3D4
 10
-126.7800673
 20
127.12334635
 30
0.0
  0
VERTEX
  8
0
  6
CONTINUOUS
 62
       7
  5
3D5
 10
-126.7111128
 20
126.78241937
 30
0.0
  0
VERTEX
  8
0
  6
CONTINUOUS
 62
       7
  5
3D6
 10
-126.6484506
 20
126.44019195
 30
0.0
  0
VERTEX
  8
0
  6
CONTINUOUS
 62
       7
  5
3D7
 10
-126.5921386
 20
126.09679835
 30
0.0
  0
VERTEX
  8
0
  6
CONTINUOUS
 62
       7
  5
3D8
 10
-126.5422347
 20
125.75237281
 30
0.0
  0
VERTEX
  8
0
  6
CONTINUOUS
 62
       7
  5
3D9
 10
-126.49879681
 20
125.40704957
 30
0.0
  0
VERTEX
  8
0
  6
CONTINUOUS
 62
       7
  5
3DA
 10
-126.46188282
 20
125.06096289
 30
0.0
  0
VERTEX
  8
0
  6
CONTINUOUS
 62
       7
  5
3DB
 10
-126.43155063
 20
124.71424699
 30
0.0
  0
VERTEX
  8
0
  6
CONTINUOUS
 62
       7
  5
3DC
 10
-126.40785814
 20
124.36703614
 30
0.0
  0
VERTEX
  8
0
  6
CONTINUOUS
 62
       7
  5
3DD
 10
-126.39086326
 20
124.01946457
 30
0.0
  0
VERTEX
  8
0
  6
CONTINUOUS
 62
       7
  5
3DE
 10
-126.38062387
 20
123.67166653
 30
0.0
  0
VERTEX
  8
0
  6
CONTINUOUS
 62
       7
  5
3DF
 10
-126.37719789
 20
123.32377626
 30
0.0
  0
VERTEX
  8
0
  6
CONTINUOUS
 62
       7
  5
3E0
 10
-126.3806239
 20
122.97522852
 30
0.0
  0
VERTEX
  8
0
  6
CONTINUOUS
 62
       7
  5
3E1
 10
-126.39086331
 20
122.62670844
 30
0.0
  0
VERTEX
  8
0
  6
CONTINUOUS
 62
       7
  5
3E2
 10
-126.40785822
 20
122.27836503
 30
0.0
  0
VERTEX
  8
0
  6
CONTINUOUS
 62
       7
  5
3E3
 10
-126.43155072
 20
121.93034731
 30
0.0
  0
VERTEX
  8
0
  6
CONTINUOUS
 62
       7
  5
3E4
 10
-126.46188292
 20
121.58280428
 30
0.0
  0
VERTEX
  8
0
  6
CONTINUOUS
 62
       7
  5
3E5
 10
-126.49879692
 20
121.23588494
 30
0.0
  0
VERTEX
  8
0
  6
CONTINUOUS
 62
       7
  5
3E6
 10
-126.54223482
 20
120.8897383
 30
0.0
  0
VERTEX
  8
0
  6
CONTINUOUS
 62
       7
  5
3E7
 10
-126.59213872
 20
120.54451337
 30
0.0
  0
VERTEX
  8
0
  6
CONTINUOUS
 62
       7
  5
3E8
 10
-126.64845071
 20
120.20035915
 30
0.0
  0
VERTEX
  8
0
  6
CONTINUOUS
 62
       7
  5
3E9
 10
-126.71111291
 20
119.85742466
 30
0.0
  0
VERTEX
  8
0
  6
CONTINUOUS
 62
       7
  5
3EA
 10
-126.7800674
 20
119.5158589
 30
0.0
  0
VERTEX
  8
0
  6
CONTINUOUS
 62
       7
  5
3EB
 10
-126.8552563
 20
119.17581087
 30
0.0
  0
VERTEX
  8
0
  6
CONTINUOUS
 62
       7
  5
3EC
 10
-126.9366217
 20
118.83742959
 30
0.0
  0
VERTEX
  8
0
  6
CONTINUOUS
 62
       7
  5
3ED
 10
-127.02410569
 20
118.50086405
 30
0.0
  0
VERTEX
  8
0
  6
CONTINUOUS
 62
       7
  5
3EE
 10
-127.11765039
 20
118.16626328
 30
0.0
  0
VERTEX
  8
0
  6
CONTINUOUS
 62
       7
  5
3EF
 10
-127.21719789
 20
117.83377626
 30
0.0
  0
SEQEND
  8
0
  6
CONTINUOUS
 62
       7
  5
3F0
  0
POLYLINE
  8
0
  6
CONTINUOUS
 62
       7
  5
1E4
 66
       1
 10
0.0
 20
0.0
 30
0.0
  0
VERTEX
  8
0
  6
CONTINUOUS
 62
       7
  5
3F1
 10
-133.52719789
 20
134.29377626
 30
0.0
  0
VERTEX
  8
0
  6
CONTINUOUS
 62
       7
  5
3F2
 10
-133.61972133
 20
134.13942859
 30
0.0
  0
VERTEX
  8
0
  6
CONTINUOUS
 62
       7
  5
3F3
 10
-133.70828664
 20
133.98167617
 30
0.0
  0
VERTEX
  8
0
  6
CONTINUOUS
 62
       7
  5
3F4
 10
-133.79261633
 20
133.82074783
 30
0.0
  0
VERTEX
  8
0
  6
CONTINUOUS
 62
       7
  5
3F5
 10
-133.8724329
 20
133.65687235
 30
0.0
  0
VERTEX
  8
0
  6
CONTINUOUS
 62
       7
  5
3F6
 10
-133.94745884
 20
133.49027855
 30
0.0
  0
VERTEX
  8
0
  6
CONTINUOUS
 62
       7
  5
3F7
 10
-134.01741665
 20
133.32119524
 30
0.0
  0
VERTEX
  8
0
  6
CONTINUOUS
 62
       7
  5
3F8
 10
-134.08202883
 20
133.14985122
 30
0.0
  0
VERTEX
  8
0
  6
CONTINUOUS
 62
       7
  5
3F9
 10
-134.1410179
 20
132.9764753
 30
0.0
  0
VERTEX
  8
0
  6
CONTINUOUS
 62
       7
  5
3FA
 10
-134.19410633
 20
132.80129628
 30
0.0
  0
VERTEX
  8
0
  6
CONTINUOUS
 62
       7
  5
3FB
 10
-134.24101664
 20
132.62454298
 30
0.0
  0
VERTEX
  8
0
  6
CONTINUOUS
 62
       7
  5
3FC
 10
-134.28147133
 20
132.44644419
 30
0.0
  0
VERTEX
  8
0
  6
CONTINUOUS
 62
       7
  5
3FD
 10
-134.31519289
 20
132.26722873
 30
0.0
  0
VERTEX
  8
0
  6
CONTINUOUS
 62
       7
  5
3FE
 10
-134.34190383
 20
132.0871254
 30
0.0
  0
VERTEX
  8
0
  6
CONTINUOUS
 62
       7
  5
3FF
 10
-134.36132664
 20
131.90636301
 30
0.0
  0
VERTEX
  8
0
  6
CONTINUOUS
 62
       7
  5
400
 10
-134.37318382
 20
131.72517036
 30
0.0
  0
VERTEX
  8
0
  6
CONTINUOUS
 62
       7
  5
401
 10
-134.37719789
 20
131.54377626
 30
0.0
  0
VERTEX
  8
0
  6
CONTINUOUS
 62
       7
  5
402
 10
-134.37318382
 20
131.36302364
 30
0.0
  0
VERTEX
  8
0
  6
CONTINUOUS
 62
       7
  5
403
 10
-134.36132664
 20
131.18254113
 30
0.0
  0
VERTEX
  8
0
  6
CONTINUOUS
 62
       7
  5
404
 10
-134.34190382
 20
131.00254237
 30
0.0
  0
VERTEX
  8
0
  6
CONTINUOUS
 62
       7
  5
405
 10
-134.31519289
 20
130.82324097
 30
0.0
  0
VERTEX
  8
0
  6
CONTINUOUS
 62
       7
  5
406
 10
-134.28147133
 20
130.64485055
 30
0.0
  0
VERTEX
  8
0
  6
CONTINUOUS
 62
       7
  5
407
 10
-134.24101664
 20
130.46758473
 30
0.0
  0
VERTEX
  8
0
  6
CONTINUOUS
 62
       7
  5
408
 10
-134.19410633
 20
130.29165713
 30
0.0
  0
VERTEX
  8
0
  6
CONTINUOUS
 62
       7
  5
409
 10
-134.14101789
 20
130.11728138
 30
0.0
  0
VERTEX
  8
0
  6
CONTINUOUS
 62
       7
  5
40A
 10
-134.08202883
 20
129.94467109
 30
0.0
  0
VERTEX
  8
0
  6
CONTINUOUS
 62
       7
  5
40B
 10
-134.01741665
 20
129.77403989
 30
0.0
  0
VERTEX
  8
0
  6
CONTINUOUS
 62
       7
  5
40C
 10
-133.94745883
 20
129.6056014
 30
0.0
  0
VERTEX
  8
0
  6
CONTINUOUS
 62
       7
  5
40D
 10
-133.8724329
 20
129.43956923
 30
0.0
  0
VERTEX
  8
0
  6
CONTINUOUS
 62
       7
  5
40E
 10
-133.79261633
 20
129.27615702
 30
0.0
  0
VERTEX
  8
0
  6
CONTINUOUS
 62
       7
  5
40F
 10
-133.70828664
 20
129.11557837
 30
0.0
  0
VERTEX
  8
0
  6
CONTINUOUS
 62
       7
  5
410
 10
-133.61972133
 20
128.95804691
 30
0.0
  0
VERTEX
  8
0
  6
CONTINUOUS
 62
       7
  5
411
 10
-133.52719789
 20
128.80377626
 30
0.0
  0
SEQEND
  8
0
  6
CONTINUOUS
 62
       7
  5
412
  0
POLYLINE
  8
0
  6
CONTINUOUS
 62
       7
  5
1E5
 66
       1
 10
0.0
 20
0.0
 30
0.0
  0
VERTEX
  8
0
  6
CONTINUOUS
 62
       7
  5
413
 10
-127.21719789
 20
134.29377626
 30
0.0
  0
VERTEX
  8
0
  6
CONTINUOUS
 62
       7
  5
414
 10
-127.1247866
 20
134.13942872
 30
0.0
  0
VERTEX
  8
0
  6
CONTINUOUS
 62
       7
  5
415
 10
-127.03653855
 20
133.98167655
 30
0.0
  0
VERTEX
  8
0
  6
CONTINUOUS
 62
       7
  5
416
 10
-126.95270194
 20
133.82074854
 30
0.0
  0
VERTEX
  8
0
  6
CONTINUOUS
 62
       7
  5
417
 10
-126.87352498
 20
133.65687345
 30
0.0
  0
VERTEX
  8
0
  6
CONTINUOUS
 62
       7
  5
418
 10
-126.79925586
 20
133.49028007
 30
0.0
  0
VERTEX
  8
0
  6
CONTINUOUS
 62
       7
  5
419
 10
-126.73014278
 20
133.32119718
 30
0.0
  0
VERTEX
  8
0
  6
CONTINUOUS
 62
       7
  5
41A
 10
-126.66643393
 20
133.14985355
 30
0.0
  0
VERTEX
  8
0
  6
CONTINUOUS
 62
       7
  5
41B
 10
-126.60837753
 20
132.97647796
 30
0.0
  0
VERTEX
  8
0
  6
CONTINUOUS
 62
       7
  5
41C
 10
-126.55622176
 20
132.8012992
 30
0.0
  0
VERTEX
  8
0
  6
CONTINUOUS
 62
       7
  5
41D
 10
-126.51021482
 20
132.62454604
 30
0.0
  0
VERTEX
  8
0
  6
CONTINUOUS
 62
       7
  5
41E
 10
-126.47060492
 20
132.44644725
 30
0.0
  0
VERTEX
  8
0
  6
CONTINUOUS
 62
       7
  5
41F
 10
-126.43764025
 20
132.26723163
 30
0.0
  0
VERTEX
  8
0
  6
CONTINUOUS
 62
       7
  5
420
 10
-126.41156901
 20
132.08712794
 30
0.0
  0
VERTEX
  8
0
  6
CONTINUOUS
 62
       7
  5
421
 10
-126.39263941
 20
131.90636496
 30
0.0
  0
VERTEX
  8
0
  6
CONTINUOUS
 62
       7
  5
422
 10
-126.38109963
 20
131.72517148
 30
0.0
  0
VERTEX
  8
0
  6
CONTINUOUS
 62
       7
  5
423
 10
-126.37719789
 20
131.54377626
 30
0.0
  0
VERTEX
  8
0
  6
CONTINUOUS
 62
       7
  5
424
 10
-126.38109963
 20
131.36302361
 30
0.0
  0
VERTEX
  8
0
  6
CONTINUOUS
 62
       7
  5
425
 10
-126.39263941
 20
131.18254108
 30
0.0
  0
VERTEX
  8
0
  6
CONTINUOUS
 62
       7
  5
426
 10
-126.41156902
 20
131.00254229
 30
0.0
  0
VERTEX
  8
0
  6
CONTINUOUS
 62
       7
  5
427
 10
-126.43764025
 20
130.82324085
 30
0.0
  0
VERTEX
  8
0
  6
CONTINUOUS
 62
       7
  5
428
 10
-126.47060492
 20
130.64485041
 30
0.0
  0
VERTEX
  8
0
  6
CONTINUOUS
 62
       7
  5
429
 10
-126.51021482
 20
130.46758457
 30
0.0
  0
VERTEX
  8
0
  6
CONTINUOUS
 62
       7
  5
42A
 10
-126.55622176
 20
130.29165695
 30
0.0
  0
VERTEX
  8
0
  6
CONTINUOUS
 62
       7
  5
42B
 10
-126.60837753
 20
130.11728119
 30
0.0
  0
VERTEX
  8
0
  6
CONTINUOUS
 62
       7
  5
42C
 10
-126.66643393
 20
129.9446709
 30
0.0
  0
VERTEX
  8
0
  6
CONTINUOUS
 62
       7
  5
42D
 10
-126.73014278
 20
129.7740397
 30
0.0
  0
VERTEX
  8
0
  6
CONTINUOUS
 62
       7
  5
42E
 10
-126.79925586
 20
129.60560121
 30
0.0
  0
VERTEX
  8
0
  6
CONTINUOUS
 62
       7
  5
42F
 10
-126.87352498
 20
129.43956906
 30
0.0
  0
VERTEX
  8
0
  6
CONTINUOUS
 62
       7
  5
430
 10
-126.95270194
 20
129.27615687
 30
0.0
  0
VERTEX
  8
0
  6
CONTINUOUS
 62
       7
  5
431
 10
-127.03653855
 20
129.11557826
 30
0.0
  0
VERTEX
  8
0
  6
CONTINUOUS
 62
       7
  5
432
 10
-127.1247866
 20
128.95804685
 30
0.0
  0
VERTEX
  8
0
  6
CONTINUOUS
 62
       7
  5
433
 10
-127.21719789
 20
128.80377626
 30
0.0
  0
SEQEND
  8
0
  6
CONTINUOUS
 62
       7
  5
434
  0
POLYLINE
  8
0
  6
CONTINUOUS
 62
       7
  5
1E6
 66
       1
 10
0.0
 20
0.0
 30
0.0
  0
VERTEX
  8
0
  6
CONTINUOUS
 62
       7
  5
435
 10
-133.52719789
 20
117.83377626
 30
0.0
  0
VERTEX
  8
0
  6
CONTINUOUS
 62
       7
  5
436
 10
-133.61972135
 20
117.67950548
 30
0.0
  0
VERTEX
  8
0
  6
CONTINUOUS
 62
       7
  5
437
 10
-133.70828669
 20
117.52197393
 30
0.0
  0
VERTEX
  8
0
  6
CONTINUOUS
 62
       7
  5
438
 10
-133.7926164
 20
117.36139521
 30
0.0
  0
VERTEX
  8
0
  6
CONTINUOUS
 62
       7
  5
439
 10
-133.87243297
 20
117.19798295
 30
0.0
  0
VERTEX
  8
0
  6
CONTINUOUS
 62
       7
  5
43A
 10
-133.94745891
 20
117.03195077
 30
0.0
  0
VERTEX
  8
0
  6
CONTINUOUS
 62
       7
  5
43B
 10
-134.01741673
 20
116.86351228
 30
0.0
  0
VERTEX
  8
0
  6
CONTINUOUS
 62
       7
  5
43C
 10
-134.08202892
 20
116.6928811
 30
0.0
  0
VERTEX
  8
0
  6
CONTINUOUS
 62
       7
  5
43D
 10
-134.14101797
 20
116.52027085
 30
0.0
  0
VERTEX
  8
0
  6
CONTINUOUS
 62
       7
  5
43E
 10
-134.1941064
 20
116.34589514
 30
0.0
  0
VERTEX
  8
0
  6
CONTINUOUS
 62
       7
  5
43F
 10
-134.24101671
 20
116.16996759
 30
0.0
  0
VERTEX
  8
0
  6
CONTINUOUS
 62
       7
  5
440
 10
-134.28147138
 20
115.99270182
 30
0.0
  0
VERTEX
  8
0
  6
CONTINUOUS
 62
       7
  5
441
 10
-134.31519293
 20
115.81431145
 30
0.0
  0
VERTEX
  8
0
  6
CONTINUOUS
 62
       7
  5
442
 10
-134.34190386
 20
115.63501009
 30
0.0
  0
VERTEX
  8
0
  6
CONTINUOUS
 62
       7
  5
443
 10
-134.36132666
 20
115.45501136
 30
0.0
  0
VERTEX
  8
0
  6
CONTINUOUS
 62
       7
  5
444
 10
-134.37318383
 20
115.27452888
 30
0.0
  0
VERTEX
  8
0
  6
CONTINUOUS
 62
       7
  5
445
 10
-134.37719789
 20
115.09377626
 30
0.0
  0
VERTEX
  8
0
  6
CONTINUOUS
 62
       7
  5
446
 10
-134.37318382
 20
114.91302364
 30
0.0
  0
VERTEX
  8
0
  6
CONTINUOUS
 62
       7
  5
447
 10
-134.36132662
 20
114.73254115
 30
0.0
  0
VERTEX
  8
0
  6
CONTINUOUS
 62
       7
  5
448
 10
-134.34190381
 20
114.5525424
 30
0.0
  0
VERTEX
  8
0
  6
CONTINUOUS
 62
       7
  5
449
 10
-134.31519287
 20
114.37324102
 30
0.0
  0
VERTEX
  8
0
  6
CONTINUOUS
 62
       7
  5
44A
 10
-134.28147132
 20
114.19485063
 30
0.0
  0
VERTEX
  8
0
  6
CONTINUOUS
 62
       7
  5
44B
 10
-134.24101663
 20
114.01758483
 30
0.0
  0
VERTEX
  8
0
  6
CONTINUOUS
 62
       7
  5
44C
 10
-134.19410633
 20
113.84165726
 30
0.0
  0
VERTEX
  8
0
  6
CONTINUOUS
 62
       7
  5
44D
 10
-134.1410179
 20
113.66728153
 30
0.0
  0
VERTEX
  8
0
  6
CONTINUOUS
 62
       7
  5
44E
 10
-134.08202884
 20
113.49467126
 30
0.0
  0
VERTEX
  8
0
  6
CONTINUOUS
 62
       7
  5
44F
 10
-134.01741666
 20
113.32404007
 30
0.0
  0
VERTEX
  8
0
  6
CONTINUOUS
 62
       7
  5
450
 10
-133.94745885
 20
113.15560158
 30
0.0
  0
VERTEX
  8
0
  6
CONTINUOUS
 62
       7
  5
451
 10
-133.87243291
 20
112.9895694
 30
0.0
  0
VERTEX
  8
0
  6
CONTINUOUS
 62
       7
  5
452
 10
-133.79261635
 20
112.82615716
 30
0.0
  0
VERTEX
  8
0
  6
CONTINUOUS
 62
       7
  5
453
 10
-133.70828666
 20
112.66557848
 30
0.0
  0
VERTEX
  8
0
  6
CONTINUOUS
 62
       7
  5
454
 10
-133.61972134
 20
112.50804697
 30
0.0
  0
VERTEX
  8
0
  6
CONTINUOUS
 62
       7
  5
455
 10
-133.52719789
 20
112.35377626
 30
0.0
  0
SEQEND
  8
0
  6
CONTINUOUS
 62
       7
  5
456
  0
POLYLINE
  8
0
  6
CONTINUOUS
 62
       7
  5
1E7
 66
       1
 10
0.0
 20
0.0
 30
0.0
  0
VERTEX
  8
0
  6
CONTINUOUS
 62
       7
  5
457
 10
-127.21719789
 20
117.83377626
 30
0.0
  0
VERTEX
  8
0
  6
CONTINUOUS
 62
       7
  5
458
 10
-127.12478658
 20
117.67950556
 30
0.0
  0
VERTEX
  8
0
  6
CONTINUOUS
 62
       7
  5
459
 10
-127.03653852
 20
117.52197405
 30
0.0
  0
VERTEX
  8
0
  6
CONTINUOUS
 62
       7
  5
45A
 10
-126.9527019
 20
117.36139534
 30
0.0
  0
VERTEX
  8
0
  6
CONTINUOUS
 62
       7
  5
45B
 10
-126.87352493
 20
117.19798307
 30
0.0
  0
VERTEX
  8
0
  6
CONTINUOUS
 62
       7
  5
45C
 10
-126.7992558
 20
117.03195085
 30
0.0
  0
VERTEX
  8
0
  6
CONTINUOUS
 62
       7
  5
45D
 10
-126.73014271
 20
116.86351231
 30
0.0
  0
VERTEX
  8
0
  6
CONTINUOUS
 62
       7
  5
45E
 10
-126.66643386
 20
116.69288107
 30
0.0
  0
VERTEX
  8
0
  6
CONTINUOUS
 62
       7
  5
45F
 10
-126.60837745
 20
116.52027076
 30
0.0
  0
VERTEX
  8
0
  6
CONTINUOUS
 62
       7
  5
460
 10
-126.55622168
 20
116.34589499
 30
0.0
  0
VERTEX
  8
0
  6
CONTINUOUS
 62
       7
  5
461
 10
-126.51021475
 20
116.16996739
 30
0.0
  0
VERTEX
  8
0
  6
CONTINUOUS
 62
       7
  5
462
 10
-126.47060486
 20
115.99270159
 30
0.0
  0
VERTEX
  8
0
  6
CONTINUOUS
 62
       7
  5
463
 10
-126.4376402
 20
115.8143112
 30
0.0
  0
VERTEX
  8
0
  6
CONTINUOUS
 62
       7
  5
464
 10
-126.41156897
 20
115.63500985
 30
0.0
  0
VERTEX
  8
0
  6
CONTINUOUS
 62
       7
  5
465
 10
-126.39263938
 20
115.45501116
 30
0.0
  0
VERTEX
  8
0
  6
CONTINUOUS
 62
       7
  5
466
 10
-126.38109962
 20
115.27452876
 30
0.0
  0
VERTEX
  8
0
  6
CONTINUOUS
 62
       7
  5
467
 10
-126.37719789
 20
115.09377626
 30
0.0
  0
VERTEX
  8
0
  6
CONTINUOUS
 62
       7
  5
468
 10
-126.38109965
 20
114.91302376
 30
0.0
  0
VERTEX
  8
0
  6
CONTINUOUS
 62
       7
  5
469
 10
-126.39263944
 20
114.73254135
 30
0.0
  0
VERTEX
  8
0
  6
CONTINUOUS
 62
       7
  5
46A
 10
-126.41156906
 20
114.55254265
 30
0.0
  0
VERTEX
  8
0
  6
CONTINUOUS
 62
       7
  5
46B
 10
-126.43764031
 20
114.37324129
 30
0.0
  0
VERTEX
  8
0
  6
CONTINUOUS
 62
       7
  5
46C
 10
-126.47060499
 20
114.19485088
 30
0.0
  0
VERTEX
  8
0
  6
CONTINUOUS
 62
       7
  5
46D
 10
-126.51021489
 20
114.01758506
 30
0.0
  0
VERTEX
  8
0
  6
CONTINUOUS
 62
       7
  5
46E
 10
-126.55622183
 20
113.84165744
 30
0.0
  0
VERTEX
  8
0
  6
CONTINUOUS
 62
       7
  5
46F
 10
-126.60837761
 20
113.66728166
 30
0.0
  0
VERTEX
  8
0
  6
CONTINUOUS
 62
       7
  5
470
 10
-126.66643401
 20
113.49467133
 30
0.0
  0
VERTEX
  8
0
  6
CONTINUOUS
 62
       7
  5
471
 10
-126.73014285
 20
113.32404009
 30
0.0
  0
VERTEX
  8
0
  6
CONTINUOUS
 62
       7
  5
472
 10
-126.79925593
 20
113.15560155
 30
0.0
  0
VERTEX
  8
0
  6
CONTINUOUS
 62
       7
  5
473
 10
-126.87352504
 20
112.98956933
 30
0.0
  0
VERTEX
  8
0
  6
CONTINUOUS
 62
       7
  5
474
 10
-126.952702
 20
112.82615707
 30
0.0
  0
VERTEX
  8
0
  6
CONTINUOUS
 62
       7
  5
475
 10
-127.03653859
 20
112.66557839
 30
0.0
  0
VERTEX
  8
0
  6
CONTINUOUS
 62
       7
  5
476
 10
-127.12478662
 20
112.50804691
 30
0.0
  0
VERTEX
  8
0
  6
CONTINUOUS
 62
       7
  5
477
 10
-127.21719789
 20
112.35377626
 30
0.0
  0
SEQEND
  8
0
  6
CONTINUOUS
 62
       7
  5
478
  0
POLYLINE
  8
0
  6
CONTINUOUS
 62
       7
  5
1E8
 66
       1
 10
0.0
 20
0.0
 30
0.0
  0
VERTEX
  8
0
  6
CONTINUOUS
 62
       7
  5
479
 10
-107.53719789
 20
135.15377626
 30
0.0
  0
VERTEX
  8
0
  6
CONTINUOUS
 62
       7
  5
47A
 10
-107.75231808
 20
134.43645689
 30
0.0
  0
VERTEX
  8
0
  6
CONTINUOUS
 62
       7
  5
47B
 10
-107.95504618
 20
133.71485871
 30
0.0
  0
VERTEX
  8
0
  6
CONTINUOUS
 62
       7
  5
47C
 10
-108.14517705
 20
132.98926845
 30
0.0
  0
VERTEX
  8
0
  6
CONTINUOUS
 62
       7
  5
47D
 10
-108.32250558
 20
132.25997285
 30
0.0
  0
VERTEX
  8
0
  6
CONTINUOUS
 62
       7
  5
47E
 10
-108.48682662
 20
131.52725862
 30
0.0
  0
VERTEX
  8
0
  6
CONTINUOUS
 62
       7
  5
47F
 10
-108.63793506
 20
130.79141249
 30
0.0
  0
VERTEX
  8
0
  6
CONTINUOUS
 62
       7
  5
480
 10
-108.77562577
 20
130.05272119
 30
0.0
  0
VERTEX
  8
0
  6
CONTINUOUS
 62
       7
  5
481
 10
-108.89969361
 20
129.31147143
 30
0.0
  0
VERTEX
  8
0
  6
CONTINUOUS
 62
       7
  5
482
 10
-109.00993346
 20
128.56794995
 30
0.0
  0
VERTEX
  8
0
  6
CONTINUOUS
 62
       7
  5
483
 10
-109.10614019
 20
127.82244348
 30
0.0
  0
VERTEX
  8
0
  6
CONTINUOUS
 62
       7
  5
484
 10
-109.18810867
 20
127.07523873
 30
0.0
  0
VERTEX
  8
0
  6
CONTINUOUS
 62
       7
  5
485
 10
-109.25563378
 20
126.32662243
 30
0.0
  0
VERTEX
  8
0
  6
CONTINUOUS
 62
       7
  5
486
 10
-109.30851038
 20
125.57688131
 30
0.0
  0
VERTEX
  8
0
  6
CONTINUOUS
 62
       7
  5
487
 10
-109.34653335
 20
124.82630209
 30
0.0
  0
VERTEX
  8
0
  6
CONTINUOUS
 62
       7
  5
488
 10
-109.36949756
 20
124.0751715
 30
0.0
  0
VERTEX
  8
0
  6
CONTINUOUS
 62
       7
  5
489
 10
-109.37719789
 20
123.32377626
 30
0.0
  0
VERTEX
  8
0
  6
CONTINUOUS
 62
       7
  5
48A
 10
-109.36949757
 20
122.57172363
 30
0.0
  0
VERTEX
  8
0
  6
CONTINUOUS
 62
       7
  5
48B
 10
-109.34653336
 20
121.81987107
 30
0.0
  0
VERTEX
  8
0
  6
CONTINUOUS
 62
       7
  5
48C
 10
-109.30851039
 20
121.06852009
 30
0.0
  0
VERTEX
  8
0
  6
CONTINUOUS
 62
       7
  5
48D
 10
-109.25563379
 20
120.31797216
 30
0.0
  0
VERTEX
  8
0
  6
CONTINUOUS
 62
       7
  5
48E
 10
-109.18810868
 20
119.56852877
 30
0.0
  0
VERTEX
  8
0
  6
CONTINUOUS
 62
       7
  5
48F
 10
-109.1061402
 20
118.8204914
 30
0.0
  0
VERTEX
  8
0
  6
CONTINUOUS
 62
       7
  5
490
 10
-109.00993347
 20
118.07416155
 30
0.0
  0
VERTEX
  8
0
  6
CONTINUOUS
 62
       7
  5
491
 10
-108.89969362
 20
117.3298407
 30
0.0
  0
VERTEX
  8
0
  6
CONTINUOUS
 62
       7
  5
492
 10
-108.77562577
 20
116.58783034
 30
0.0
  0
VERTEX
  8
0
  6
CONTINUOUS
 62
       7
  5
493
 10
-108.63793507
 20
115.84843195
 30
0.0
  0
VERTEX
  8
0
  6
CONTINUOUS
 62
       7
  5
494
 10
-108.48682663
 20
115.11194702
 30
0.0
  0
VERTEX
  8
0
  6
CONTINUOUS
 62
       7
  5
495
 10
-108.32250558
 20
114.37867703
 30
0.0
  0
VERTEX
  8
0
  6
CONTINUOUS
 62
       7
  5
496
 10
-108.14517705
 20
113.64892347
 30
0.0
  0
VERTEX
  8
0
  6
CONTINUOUS
 62
       7
  5
497
 10
-107.95504618
 20
112.92298784
 30
0.0
  0
VERTEX
  8
0
  6
CONTINUOUS
 62
       7
  5
498
 10
-107.75231808
 20
112.2011716
 30
0.0
  0
VERTEX
  8
0
  6
CONTINUOUS
 62
       7
  5
499
 10
-107.53719789
 20
111.48377626
 30
0.0
  0
SEQEND
  8
0
  6
CONTINUOUS
 62
       7
  5
49A
  0
POLYLINE
  8
0
  6
CONTINUOUS
 62
       7
  5
1E9
 66
       1
 10
0.0
 20
0.0
 30
0.0
  0
VERTEX
  8
0
  6
CONTINUOUS
 62
       7
  5
49B
 10
-107.53719789
 20
146.99377626
 30
0.0
  0
VERTEX
  8
0
  6
CONTINUOUS
 62
       7
  5
49C
 10
-107.73691891
 20
146.66079366
 30
0.0
  0
VERTEX
  8
0
  6
CONTINUOUS
 62
       7
  5
49D
 10
-107.92821739
 20
146.32062356
 30
0.0
  0
VERTEX
  8
0
  6
CONTINUOUS
 62
       7
  5
49E
 10
-108.11047758
 20
145.97374851
 30
0.0
  0
VERTEX
  8
0
  6
CONTINUOUS
 62
       7
  5
49F
 10
-108.28308368
 20
145.62065103
 30
0.0
  0
VERTEX
  8
0
  6
CONTINUOUS
 62
       7
  5
4A0
 10
-108.44541994
 20
145.26181368
 30
0.0
  0
VERTEX
  8
0
  6
CONTINUOUS
 62
       7
  5
4A1
 10
-108.59687058
 20
144.89771898
 30
0.0
  0
VERTEX
  8
0
  6
CONTINUOUS
 62
       7
  5
4A2
 10
-108.73681982
 20
144.52884947
 30
0.0
  0
VERTEX
  8
0
  6
CONTINUOUS
 62
       7
  5
4A3
 10
-108.8646519
 20
144.15568769
 30
0.0
  0
VERTEX
  8
0
  6
CONTINUOUS
 62
       7
  5
4A4
 10
-108.97975104
 20
143.77871618
 30
0.0
  0
VERTEX
  8
0
  6
CONTINUOUS
 62
       7
  5
4A5
 10
-109.08150148
 20
143.39841748
 30
0.0
  0
VERTEX
  8
0
  6
CONTINUOUS
 62
       7
  5
4A6
 10
-109.16928742
 20
143.01527412
 30
0.0
  0
VERTEX
  8
0
  6
CONTINUOUS
 62
       7
  5
4A7
 10
-109.24249312
 20
142.62976864
 30
0.0
  0
VERTEX
  8
0
  6
CONTINUOUS
 62
       7
  5
4A8
 10
-109.30050278
 20
142.24238357
 30
0.0
  0
VERTEX
  8
0
  6
CONTINUOUS
 62
       7
  5
4A9
 10
-109.34270065
 20
141.85360147
 30
0.0
  0
VERTEX
  8
0
  6
CONTINUOUS
 62
       7
  5
4AA
 10
-109.36847094
 20
141.46390485
 30
0.0
  0
VERTEX
  8
0
  6
CONTINUOUS
 62
       7
  5
4AB
 10
-109.37719789
 20
141.07377626
 30
0.0
  0
VERTEX
  8
0
  6
CONTINUOUS
 62
       7
  5
4AC
 10
-109.36847097
 20
140.68364768
 30
0.0
  0
VERTEX
  8
0
  6
CONTINUOUS
 62
       7
  5
4AD
 10
-109.34270071
 20
140.29395108
 30
0.0
  0
VERTEX
  8
0
  6
CONTINUOUS
 62
       7
  5
4AE
 10
-109.30050287
 20
139.90516898
 30
0.0
  0
VERTEX
  8
0
  6
CONTINUOUS
 62
       7
  5
4AF
 10
-109.24249322
 20
139.51778394
 30
0.0
  0
VERTEX
  8
0
  6
CONTINUOUS
 62
       7
  5
4B0
 10
-109.16928754
 20
139.13227849
 30
0.0
  0
VERTEX
  8
0
  6
CONTINUOUS
 62
       7
  5
4B1
 10
-109.0815016
 20
138.74913515
 30
0.0
  0
VERTEX
  8
0
  6
CONTINUOUS
 62
       7
  5
4B2
 10
-108.97975118
 20
138.36883647
 30
0.0
  0
VERTEX
  8
0
  6
CONTINUOUS
 62
       7
  5
4B3
 10
-108.86465204
 20
137.99186499
 30
0.0
  0
VERTEX
  8
0
  6
CONTINUOUS
 62
       7
  5
4B4
 10
-108.73681995
 20
137.61870323
 30
0.0
  0
VERTEX
  8
0
  6
CONTINUOUS
 62
       7
  5
4B5
 10
-108.5968707
 20
137.24983373
 30
0.0
  0
VERTEX
  8
0
  6
CONTINUOUS
 62
       7
  5
4B6
 10
-108.44542005
 20
136.88573903
 30
0.0
  0
VERTEX
  8
0
  6
CONTINUOUS
 62
       7
  5
4B7
 10
-108.28308378
 20
136.52690167
 30
0.0
  0
VERTEX
  8
0
  6
CONTINUOUS
 62
       7
  5
4B8
 10
-108.11047765
 20
136.17380417
 30
0.0
  0
VERTEX
  8
0
  6
CONTINUOUS
 62
       7
  5
4B9
 10
-107.92821745
 20
135.82692908
 30
0.0
  0
VERTEX
  8
0
  6
CONTINUOUS
 62
       7
  5
4BA
 10
-107.73691893
 20
135.48675893
 30
0.0
  0
VERTEX
  8
0
  6
CONTINUOUS
 62
       7
  5
4BB
 10
-107.53719789
 20
135.15377626
 30
0.0
  0
SEQEND
  8
0
  6
CONTINUOUS
 62
       7
  5
4BC
  0
POLYLINE
  8
0
  6
CONTINUOUS
 62
       7
  5
1EA
 66
       1
 10
0.0
 20
0.0
 30
0.0
  0
VERTEX
  8
0
  6
CONTINUOUS
 62
       7
  5
4BD
 10
-107.53719789
 20
111.48377626
 30
0.0
  0
VERTEX
  8
0
  6
CONTINUOUS
 62
       7
  5
4BE
 10
-107.73691891
 20
111.15079353
 30
0.0
  0
VERTEX
  8
0
  6
CONTINUOUS
 62
       7
  5
4BF
 10
-107.92821741
 20
110.81062317
 30
0.0
  0
VERTEX
  8
0
  6
CONTINUOUS
 62
       7
  5
4C0
 10
-108.11047761
 20
110.46374775
 30
0.0
  0
VERTEX
  8
0
  6
CONTINUOUS
 62
       7
  5
4C1
 10
-108.28308373
 20
110.11064984
 30
0.0
  0
VERTEX
  8
0
  6
CONTINUOUS
 62
       7
  5
4C2
 10
-108.44542
 20
109.751812
 30
0.0
  0
VERTEX
  8
0
  6
CONTINUOUS
 62
       7
  5
4C3
 10
-108.59687065
 20
109.38771682
 30
0.0
  0
VERTEX
  8
0
  6
CONTINUOUS
 62
       7
  5
4C4
 10
-108.7368199
 20
109.01884686
 30
0.0
  0
VERTEX
  8
0
  6
CONTINUOUS
 62
       7
  5
4C5
 10
-108.86465199
 20
108.64568468
 30
0.0
  0
VERTEX
  8
0
  6
CONTINUOUS
 62
       7
  5
4C6
 10
-108.97975114
 20
108.26871287
 30
0.0
  0
VERTEX
  8
0
  6
CONTINUOUS
 62
       7
  5
4C7
 10
-109.08150157
 20
107.888414
 30
0.0
  0
VERTEX
  8
0
  6
CONTINUOUS
 62
       7
  5
4C8
 10
-109.16928751
 20
107.50527062
 30
0.0
  0
VERTEX
  8
0
  6
CONTINUOUS
 62
       7
  5
4C9
 10
-109.2424932
 20
107.11976532
 30
0.0
  0
VERTEX
  8
0
  6
CONTINUOUS
 62
       7
  5
4CA
 10
-109.30050285
 20
106.73238066
 30
0.0
  0
VERTEX
  8
0
  6
CONTINUOUS
 62
       7
  5
4CB
 10
-109.3427007
 20
106.34359922
 30
0.0
  0
VERTEX
  8
0
  6
CONTINUOUS
 62
       7
  5
4CC
 10
-109.36847097
 20
105.95390356
 30
0.0
  0
VERTEX
  8
0
  6
CONTINUOUS
 62
       7
  5
4CD
 10
-109.37719789
 20
105.56377626
 30
0.0
  0
VERTEX
  8
0
  6
CONTINUOUS
 62
       7
  5
4CE
 10
-109.36847094
 20
105.17364896
 30
0.0
  0
VERTEX
  8
0
  6
CONTINUOUS
 62
       7
  5
4CF
 10
-109.34270065
 20
104.78395329
 30
0.0
  0
VERTEX
  8
0
  6
CONTINUOUS
 62
       7
  5
4D0
 10
-109.30050279
 20
104.39517184
 30
0.0
  0
VERTEX
  8
0
  6
CONTINUOUS
 62
       7
  5
4D1
 10
-109.24249312
 20
104.00778717
 30
0.0
  0
VERTEX
  8
0
  6
CONTINUOUS
 62
       7
  5
4D2
 10
-109.16928743
 20
103.62228185
 30
0.0
  0
VERTEX
  8
0
  6
CONTINUOUS
 62
       7
  5
4D3
 10
-109.08150148
 20
103.23913846
 30
0.0
  0
VERTEX
  8
0
  6
CONTINUOUS
 62
       7
  5
4D4
 10
-108.97975105
 20
102.85883957
 30
0.0
  0
VERTEX
  8
0
  6
CONTINUOUS
 62
       7
  5
4D5
 10
-108.86465191
 20
102.48186775
 30
0.0
  0
VERTEX
  8
0
  6
CONTINUOUS
 62
       7
  5
4D6
 10
-108.73681983
 20
102.10870557
 30
0.0
  0
VERTEX
  8
0
  6
CONTINUOUS
 62
       7
  5
4D7
 10
-108.59687058
 20
101.7398356
 30
0.0
  0
VERTEX
  8
0
  6
CONTINUOUS
 62
       7
  5
4D8
 10
-108.44541994
 20
101.37574041
 30
0.0
  0
VERTEX
  8
0
  6
CONTINUOUS
 62
       7
  5
4D9
 10
-108.28308368
 20
101.01690259
 30
0.0
  0
VERTEX
  8
0
  6
CONTINUOUS
 62
       7
  5
4DA
 10
-108.11047758
 20
100.66380468
 30
0.0
  0
VERTEX
  8
0
  6
CONTINUOUS
 62
       7
  5
4DB
 10
-107.92821739
 20
100.31692928
 30
0.0
  0
VERTEX
  8
0
  6
CONTINUOUS
 62
       7
  5
4DC
 10
-107.73691891
 20
99.97675895
 30
0.0
  0
VERTEX
  8
0
  6
CONTINUOUS
 62
       7
  5
4DD
 10
-107.53719789
 20
99.64377626
 30
0.0
  0
SEQEND
  8
0
  6
CONTINUOUS
 62
       7
  5
4DE
  0
LINE
  8
0
  6
CENTER
 62
       2
  5
1EB
 10
-246.65719789
 20
123.32377626
 30
0.0
 11
229.53280211
 21
123.32377626
 31
0.0
  0
LINE
  8
0
  6
CENTER
 62
       2
  5
1EC
 10
295.39280211
 20
123.32377626
 30
0.0
 11
345.15280211
 21
123.32377626
 31
0.0
  0
TEXT
  8
0
  6
CONTINUOUS
 62
       7
  5
1ED
 10
-386.57531309
 20
253.3499999
 30
0.0
 40
6.30000019
  1
MODEL:DAT40×50×50
 41
1.04722792
  7
MX_NOTE_STANDARD
 11
-386.57531309
 21
256.5
 31
0.0
 73
       2
  0
LINE
  8
0
  6
CONTINUOUS
 62
       7
  5
1EE
 10
-399.52490234
 20
-276.5
 30
0.0
 11
399.52490234
 21
-276.5
 31
0.0
  0
LINE
  8
0
  6
CONTINUOUS
 62
       7
  5
1EF
 10
-399.52490234
 20
276.5
 30
0.0
 11
399.52490234
 21
276.5
 31
0.0
  0
LINE
  8
0
  6
CONTINUOUS
 62
       7
  5
1F0
 10
-399.52490234
 20
276.5
 30
0.0
 11
-399.52490234
 21
-276.5
 31
0.0
  0
LINE
  8
0
  6
CONTINUOUS
 62
       7
  5
1F1
 10
399.52490234
 20
276.5
 30
0.0
 11
399.52490234
 21
-276.5
 31
0.0
  0
ENDSEC
  0
EOF
