  0
SECTION
  2
HEADER
  9
$ACADVER
  1
AC1009
  9
$DWGCODEPAGE
  3
dos932
  9
$INSBASE
 10
0.0
 20
0.0
 30
0.0
  9
$EXTMIN
 10
-194.25
 20
-133.5
 30
0.0
  9
$EXTMAX
 10
194.800003
 20
132.600006
 30
0.0
  9
$LIMMIN
 10
-210.0
 20
-148.5
  9
$LIMMAX
 10
210.0
 20
148.5
  9
$ORTHOMODE
 70
     0
  9
$REGENMODE
 70
     1
  9
$FILLMODE
 70
     1
  9
$QTEXTMODE
 70
     0
  9
$MIRRTEXT
 70
     1
  9
$DRAGMODE
 70
     2
  9
$LTSCALE
 40
1.0
  9
$OSMODE
 70
     0
  9
$ATTMODE
 70
     1
  9
$TEXTSIZE
 40
3.2
  9
$TRACEWID
 40
0.05
  9
$TEXTSTYLE
  7
MX_NOTE_STANDARD
  9
$CLAYER
  8
0
  9
$CELTYPE
  6
CONTINUOUS
  9
$CECOLOR
 62
   256
  9
$DIMSCALE
 40
1.0
  9
$DIMASZ
 40
2.5
  9
$DIMEXO
 40
1.5
  9
$DIMDLI
 40
3.75
  9
$DIMRND
 40
0.0
  9
$DIMDLE
 40
0.0
  9
$DIMEXE
 40
1.5
  9
$DIMTP
 40
0.0
  9
$DIMTM
 40
0.0
  9
$DIMTXT
 40
3.2
  9
$DIMCEN
 40
2.5
  9
$DIMTSZ
 40
0.0
  9
$DIMTOL
 70
     0
  9
$DIMLIM
 70
     0
  9
$DIMTIH
 70
     0
  9
$DIMTOH
 70
     0
  9
$DIMSE1
 70
     0
  9
$DIMSE2
 70
     0
  9
$DIMTAD
 70
     1
  9
$DIMZIN
 70
     8
  9
$DIMBLK
  1

  9
$DIMASO
 70
     1
  9
$DIMSHO
 70
     1
  9
$DIMPOST
  1

  9
$DIMAPOST
  1

  9
$DIMALT
 70
     0
  9
$DIMALTD
 70
     4
  9
$DIMALTF
 40
0.03937
  9
$DIMLFAC
 40
1.0
  9
$DIMTOFL
 70
     1
  9
$DIMTVP
 40
0.0
  9
$DIMTIX
 70
     0
  9
$DIMSOXD
 70
     0
  9
$DIMSAH
 70
     1
  9
$DIMBLK1
  1
_OPEN30
  9
$DIMBLK2
  1
_OPEN30
  9
$DIMSTYLE
  2
MXDIMSTYLE
  9
$DIMCLRD
 70
     0
  9
$DIMCLRE
 70
     0
  9
$DIMCLRT
 70
     0
  9
$DIMTFAC
 40
1.0
  9
$DIMGAP
 40
1.0
  9
$LUNITS
 70
     2
  9
$LUPREC
 70
     4
  9
$AXISMODE
 70
     0
  9
$AXISUNIT
 10
0.0
 20
0.0
  9
$SKETCHINC
 40
0.1
  9
$FILLETRAD
 40
0.0
  9
$AUNITS
 70
     0
  9
$AUPREC
 70
     0
  9
$MENU
  1
acad
  9
$ELEVATION
 40
0.0
  9
$PELEVATION
 40
0.0
  9
$THICKNESS
 40
0.0
  9
$LIMCHECK
 70
     0
  9
$BLIPMODE
 70
     1
  9
$CHAMFERA
 40
0.0
  9
$CHAMFERB
 40
0.0
  9
$SKPOLY
 70
     0
  9
$TDCREATE
 40
2453838.702372685
  9
$TDUPDATE
 40
2453838.702372685
  9
$TDINDWG
 40
0.0000000000
  9
$TDUSRTIMER
 40
0.0000000000
  9
$USRTIMER
 70
     1
  9
$ANGBASE
 50
0.0
  9
$ANGDIR
 70
     0
  9
$PDMODE
 70
     0
  9
$PDSIZE
 40
0.0
  9
$PLINEWID
 40
0.0
  9
$COORDS
 70
     1
  9
$SPLFRAME
 70
     0
  9
$SPLINETYPE
 70
     6
  9
$SPLINESEGS
 70
     8
  9
$ATTDIA
 70
     0
  9
$ATTREQ
 70
     1
  9
$HANDLING
 70
     1
  9
$HANDSEED
  5
1AA
  9
$SURFTAB1
 70
     6
  9
$SURFTAB2
 70
     6
  9
$SURFTYPE
 70
     6
  9
$SURFU
 70
     6
  9
$SURFV
 70
     6
  9
$UCSNAME
  2

  9
$UCSORG
 10
0.0
 20
0.0
 30
0.0
  9
$UCSXDIR
 10
1.0
 20
0.0
 30
0.0
  9
$UCSYDIR
 10
0.0
 20
1.0
 30
0.0
  9
$PUCSNAME
  2

  9
$PUCSORG
 10
0.0
 20
0.0
 30
0.0
  9
$PUCSXDIR
 10
1.0
 20
0.0
 30
0.0
  9
$PUCSYDIR
 10
0.0
 20
1.0
 30
0.0
  9
$USERI1
 70
     0
  9
$USERI2
 70
     0
  9
$USERI3
 70
     0
  9
$USERI4
 70
     0
  9
$USERI5
 70
     0
  9
$USERR1
 40
0.0
  9
$USERR2
 40
0.0
  9
$USERR3
 40
0.0
  9
$USERR4
 40
0.0
  9
$USERR5
 40
0.0
  9
$WORLDVIEW
 70
     1
  9
$SHADEDGE
 70
     3
  9
$SHADEDIF
 70
    70
  9
$TILEMODE
 70
     1
  9
$MAXACTVP
 70
    16
  9
$PINSBASE
 10
0.0
 20
0.0
 30
0.0
  9
$PLIMCHECK
 70
     0
  9
$PEXTMIN
 10
1.000000E+20
 20
1.000000E+20
 30
1.000000E+20
  9
$PEXTMAX
 10
-1.000000E+20
 20
-1.000000E+20
 30
-1.000000E+20
  9
$PLIMMIN
 10
0.0
 20
0.0
  9
$PLIMMAX
 10
12.0
 20
9.0
  9
$UNITMODE
 70
     0
  9
$VISRETAIN
 70
     0
  9
$PLINEGEN
 70
     1
  9
$PSLTSCALE
 70
     0
  9
$TREEDEPTH
 70
  3020
  0
ENDSEC
  0
SECTION
  2
TABLES
  0
TABLE
  2
VPORT
 70
     1
  0
VPORT
  2
*ACTIVE
 70
     0
 10
0.0
 20
0.0
 11
1.0
 21
1.0
 12
0.0
 22
0.0
 13
0.0
 23
0.0
 14
1.0
 24
1.0
 15
0.0
 25
0.0
 16
0.0
 26
0.0
 36
1.0
 17
0.0
 27
0.0
 37
0.0
 40
299.97
 41
1.732051
 42
50.0
 43
0.0
 44
0.0
 50
0.0
 51
0.0
 71
     0
 72
   100
 73
     1
 74
     1
 75
     0
 76
     0
 77
     0
 78
     0
  0
ENDTAB
  0
TABLE
  2
LTYPE
 70
     1
  0
LTYPE
  2
CONTINUOUS
 70
    64
  3
Solid line
 72
    65
 73
     0
 40
0.0
  0
ENDTAB
  0
TABLE
  2
LAYER
 70
     2
  0
LAYER
  2
0
 70
     0
 62
     7
  6
CONTINUOUS
  0
LAYER
  2
DEFPOINTS
 70
     0
 62
     7
  6
CONTINUOUS
  0
ENDTAB
  0
TABLE
  2
STYLE
 70
     1
  0
STYLE
  2
MX_NOTE_STANDARD
 70
     0
 40
0.0
 41
1.0
 50
0.0
 71
     0
 42
3.2
  3
txt.shx
  4
extfont.shx
  0
ENDTAB
  0
TABLE
  2
VIEW
 70
     0
  0
ENDTAB
  0
TABLE
  2
UCS
 70
     0
  0
ENDTAB
  0
TABLE
  2
APPID
 70
     1
  0
APPID
  2
ACAD
 70
     0
  0
ENDTAB
  0
TABLE
  2
DIMSTYLE
 70
     1
  0
DIMSTYLE
  2
MXDIMSTYLE
 70
     0
  3

  4

  5

  6
_OPEN30
  7
_OPEN30
 40
1.0
 41
2.5
 42
1.5
 43
3.75
 44
1.5
 45
0.0
 46
0.0
 47
0.0
 48
0.0
 71
     0
 72
     0
 73
     0
 74
     0
 75
     0
 76
     0
 77
     1
 78
     8
140
3.2
141
2.5
142
0.0
143
0.03937
144
1.0
145
0.0
146
1.0
147
1.0
170
     0
171
     4
172
     1
173
     1
174
     0
175
     0
176
     0
177
     0
178
     0
  0
ENDTAB
  0
ENDSEC
  0
SECTION
  2
BLOCKS
  0
BLOCK
  8
0
  6
BYBLOCK
 62
     0
  5
1F
  2
_OPEN30
 70
     2
 10
0.0
 20
0.0
 30
0.0
  3
_OPEN30
  0
LINE
  8
0
  6
BYBLOCK
 62
     0
  5
20
 10
-1.0
 20
0.267949
 30
0.0
 11
0.0
 21
0.0
 31
0.0
  0
LINE
  8
0
  6
BYBLOCK
 62
     0
  5
21
 10
0.0
 20
0.0
 30
0.0
 11
-1.0
 21
-0.267949
 31
0.0
  0
LINE
  8
0
  6
BYBLOCK
 62
     0
  5
22
 10
0.0
 20
0.0
 30
0.0
 11
-1.0
 21
0.0
 31
0.0
  0
ENDBLK
  8
0
  6
BYBLOCK
 62
     0
  5
23
  0
ENDSEC
  0
SECTION
  2
ENTITIES
  0
ARC
  8
0
  6
CONTINUOUS
 62
   254
  5
24
 10
163.981092
 20
-9.223979
 30
0.0
 40
4.791324
 50
329.962155
 51
34.654486
  0
ARC
  8
0
  6
CONTINUOUS
 62
   254
  5
25
 10
165.611846
 20
-9.224326
 30
0.0
 40
4.83943
 50
145.733316
 51
209.744881
  0
ARC
  8
0
  6
CONTINUOUS
 62
   254
  5
26
 10
163.963851
 20
7.20034
 30
0.0
 40
4.808566
 50
325.409662
 51
30.037845
  0
ARC
  8
0
  6
CONTINUOUS
 62
   254
  5
27
 10
165.629282
 20
7.200683
 30
0.0
 40
4.856865
 50
150.255119
 51
214.203225
  0
ARC
  8
0
  6
CONTINUOUS
 62
   254
  5
28
 10
133.416081
 20
-18.742359
 30
0.0
 40
10.356335
 50
330.080791
 51
34.681182
  0
ARC
  8
0
  6
CONTINUOUS
 62
   254
  5
29
 10
133.434443
 20
16.70761
 30
0.0
 40
10.337974
 50
325.287056
 51
30.132664
  0
LINE
  8
0
  6
CONTINUOUS
 62
   254
  5
2A
 10
4.272416
 20
-21.809506
 30
0.0
 11
-37.727584
 21
-21.809506
 31
0.0
  0
LINE
  8
0
  6
CONTINUOUS
 62
   254
  5
2B
 10
-37.727584
 20
19.790494
 30
0.0
 11
4.272416
 21
19.790494
 31
0.0
  0
LINE
  8
0
  6
CONTINUOUS
 62
   254
  5
2C
 10
43.272416
 20
-21.809506
 30
0.0
 11
113.272416
 21
-21.809506
 31
0.0
  0
LINE
  8
0
  6
CONTINUOUS
 62
   254
  5
2D
 10
113.272416
 20
19.790494
 30
0.0
 11
43.272416
 21
19.790494
 31
0.0
  0
ARC
  8
0
  6
CONTINUOUS
 62
   254
  5
2E
 10
-90.067013
 20
-9.224326
 30
0.0
 40
4.83943
 50
330.255119
 51
34.266684
  0
ARC
  8
0
  6
CONTINUOUS
 62
   254
  5
2F
 10
-88.43626
 20
-9.223979
 30
0.0
 40
4.791324
 50
145.345514
 51
210.037845
  0
ARC
  8
0
  6
CONTINUOUS
 62
   254
  5
30
 10
-90.084449
 20
7.200683
 30
0.0
 40
4.856865
 50
325.796775
 51
29.744881
  0
ARC
  8
0
  6
CONTINUOUS
 62
   254
  5
31
 10
-88.419018
 20
7.20034
 30
0.0
 40
4.808566
 50
149.962155
 51
214.590338
  0
ARC
  8
0
  6
CONTINUOUS
 62
   254
  5
32
 10
-57.893787
 20
-18.735317
 30
0.0
 40
10.333797
 50
145.279819
 51
210.054376
  0
ARC
  8
0
  6
CONTINUOUS
 62
   254
  5
33
 10
-57.88961
 20
16.70761
 30
0.0
 40
10.337974
 50
149.867336
 51
214.712944
  0
POLYLINE
  8
0
  6
CONTINUOUS
 62
   254
  5
34
 66
     1
 10
0.0
 20
0.0
 30
0.0
  0
VERTEX
  8
0
  6
CONTINUOUS
 62
   254
  5
111
 10
161.612416
 20
4.470494
 30
0.0
  0
VERTEX
  8
0
  6
CONTINUOUS
 62
   254
  5
112
 10
161.360324
 20
3.579749
 30
0.0
  0
VERTEX
  8
0
  6
CONTINUOUS
 62
   254
  5
113
 10
161.151605
 20
2.676574
 30
0.0
  0
VERTEX
  8
0
  6
CONTINUOUS
 62
   254
  5
114
 10
160.987357
 20
1.763516
 30
0.0
  0
VERTEX
  8
0
  6
CONTINUOUS
 62
   254
  5
115
 10
160.868677
 20
0.843119
 30
0.0
  0
VERTEX
  8
0
  6
CONTINUOUS
 62
   254
  5
116
 10
160.796665
 20
-0.08207
 30
0.0
  0
VERTEX
  8
0
  6
CONTINUOUS
 62
   254
  5
117
 10
160.772416
 20
-1.009506
 30
0.0
  0
VERTEX
  8
0
  6
CONTINUOUS
 62
   254
  5
118
 10
160.796665
 20
-1.938832
 30
0.0
  0
VERTEX
  8
0
  6
CONTINUOUS
 62
   254
  5
119
 10
160.868678
 20
-2.866195
 30
0.0
  0
VERTEX
  8
0
  6
CONTINUOUS
 62
   254
  5
11A
 10
160.987357
 20
-3.78877
 30
0.0
  0
VERTEX
  8
0
  6
CONTINUOUS
 62
   254
  5
11B
 10
161.151605
 20
-4.70373
 30
0.0
  0
VERTEX
  8
0
  6
CONTINUOUS
 62
   254
  5
11C
 10
161.360324
 20
-5.608251
 30
0.0
  0
VERTEX
  8
0
  6
CONTINUOUS
 62
   254
  5
11D
 10
161.612416
 20
-6.499506
 30
0.0
  0
SEQEND
  8
0
  6
CONTINUOUS
 62
   254
  5
11E
  0
POLYLINE
  8
0
  6
CONTINUOUS
 62
   254
  5
35
 66
     1
 10
0.0
 20
0.0
 30
0.0
  0
VERTEX
  8
0
  6
CONTINUOUS
 62
   254
  5
11F
 10
167.922416
 20
4.470494
 30
0.0
  0
VERTEX
  8
0
  6
CONTINUOUS
 62
   254
  5
120
 10
168.175249
 20
3.579749
 30
0.0
  0
VERTEX
  8
0
  6
CONTINUOUS
 62
   254
  5
121
 10
168.385819
 20
2.676575
 30
0.0
  0
VERTEX
  8
0
  6
CONTINUOUS
 62
   254
  5
122
 10
168.552475
 20
1.763517
 30
0.0
  0
VERTEX
  8
0
  6
CONTINUOUS
 62
   254
  5
123
 10
168.673562
 20
0.84312
 30
0.0
  0
VERTEX
  8
0
  6
CONTINUOUS
 62
   254
  5
124
 10
168.747427
 20
-0.082069
 30
0.0
  0
VERTEX
  8
0
  6
CONTINUOUS
 62
   254
  5
125
 10
168.772416
 20
-1.009506
 30
0.0
  0
VERTEX
  8
0
  6
CONTINUOUS
 62
   254
  5
126
 10
168.747427
 20
-1.938832
 30
0.0
  0
VERTEX
  8
0
  6
CONTINUOUS
 62
   254
  5
127
 10
168.673562
 20
-2.866195
 30
0.0
  0
VERTEX
  8
0
  6
CONTINUOUS
 62
   254
  5
128
 10
168.552475
 20
-3.788769
 30
0.0
  0
VERTEX
  8
0
  6
CONTINUOUS
 62
   254
  5
129
 10
168.385819
 20
-4.70373
 30
0.0
  0
VERTEX
  8
0
  6
CONTINUOUS
 62
   254
  5
12A
 10
168.175248
 20
-5.608251
 30
0.0
  0
VERTEX
  8
0
  6
CONTINUOUS
 62
   254
  5
12B
 10
167.922416
 20
-6.499506
 30
0.0
  0
SEQEND
  8
0
  6
CONTINUOUS
 62
   254
  5
12C
  0
POLYLINE
  8
0
  6
CONTINUOUS
 62
   254
  5
36
 66
     1
 10
0.0
 20
0.0
 30
0.0
  0
VERTEX
  8
0
  6
CONTINUOUS
 62
   254
  5
12D
 10
141.932416
 20
10.820494
 30
0.0
  0
VERTEX
  8
0
  6
CONTINUOUS
 62
   254
  5
12E
 10
142.2165
 20
9.863103
 30
0.0
  0
VERTEX
  8
0
  6
CONTINUOUS
 62
   254
  5
12F
 10
142.478431
 20
8.898275
 30
0.0
  0
VERTEX
  8
0
  6
CONTINUOUS
 62
   254
  5
130
 10
142.717724
 20
7.92669
 30
0.0
  0
VERTEX
  8
0
  6
CONTINUOUS
 62
   254
  5
131
 10
142.933893
 20
6.949028
 30
0.0
  0
VERTEX
  8
0
  6
CONTINUOUS
 62
   254
  5
132
 10
143.126451
 20
5.965967
 30
0.0
  0
VERTEX
  8
0
  6
CONTINUOUS
 62
   254
  5
133
 10
143.294912
 20
4.978189
 30
0.0
  0
VERTEX
  8
0
  6
CONTINUOUS
 62
   254
  5
134
 10
143.43879
 20
3.986372
 30
0.0
  0
VERTEX
  8
0
  6
CONTINUOUS
 62
   254
  5
135
 10
143.557599
 20
2.991195
 30
0.0
  0
VERTEX
  8
0
  6
CONTINUOUS
 62
   254
  5
136
 10
143.650852
 20
1.99334
 30
0.0
  0
VERTEX
  8
0
  6
CONTINUOUS
 62
   254
  5
137
 10
143.718064
 20
0.993485
 30
0.0
  0
VERTEX
  8
0
  6
CONTINUOUS
 62
   254
  5
138
 10
143.758747
 20
-0.007691
 30
0.0
  0
VERTEX
  8
0
  6
CONTINUOUS
 62
   254
  5
139
 10
143.772416
 20
-1.009506
 30
0.0
  0
VERTEX
  8
0
  6
CONTINUOUS
 62
   254
  5
13A
 10
143.758747
 20
-2.012214
 30
0.0
  0
VERTEX
  8
0
  6
CONTINUOUS
 62
   254
  5
13B
 10
143.718064
 20
-3.014387
 30
0.0
  0
VERTEX
  8
0
  6
CONTINUOUS
 62
   254
  5
13C
 10
143.650852
 20
-4.01531
 30
0.0
  0
VERTEX
  8
0
  6
CONTINUOUS
 62
   254
  5
13D
 10
143.557599
 20
-5.014271
 30
0.0
  0
VERTEX
  8
0
  6
CONTINUOUS
 62
   254
  5
13E
 10
143.43879
 20
-6.010553
 30
0.0
  0
VERTEX
  8
0
  6
CONTINUOUS
 62
   254
  5
13F
 10
143.294912
 20
-7.003442
 30
0.0
  0
VERTEX
  8
0
  6
CONTINUOUS
 62
   254
  5
140
 10
143.126451
 20
-7.992224
 30
0.0
  0
VERTEX
  8
0
  6
CONTINUOUS
 62
   254
  5
141
 10
142.933893
 20
-8.976183
 30
0.0
  0
VERTEX
  8
0
  6
CONTINUOUS
 62
   254
  5
142
 10
142.717724
 20
-9.954606
 30
0.0
  0
VERTEX
  8
0
  6
CONTINUOUS
 62
   254
  5
143
 10
142.478431
 20
-10.926777
 30
0.0
  0
VERTEX
  8
0
  6
CONTINUOUS
 62
   254
  5
144
 10
142.2165
 20
-11.891982
 30
0.0
  0
VERTEX
  8
0
  6
CONTINUOUS
 62
   254
  5
145
 10
141.932416
 20
-12.849506
 30
0.0
  0
SEQEND
  8
0
  6
CONTINUOUS
 62
   254
  5
146
  0
POLYLINE
  8
0
  6
CONTINUOUS
 62
   254
  5
37
 66
     1
 10
0.0
 20
0.0
 30
0.0
  0
VERTEX
  8
0
  6
CONTINUOUS
 62
   254
  5
147
 10
150.272416
 20
2.860494
 30
0.0
  0
VERTEX
  8
0
  6
CONTINUOUS
 62
   254
  5
148
 10
150.686759
 20
1.944575
 30
0.0
  0
VERTEX
  8
0
  6
CONTINUOUS
 62
   254
  5
149
 10
151.001832
 20
0.984067
 30
0.0
  0
VERTEX
  8
0
  6
CONTINUOUS
 62
   254
  5
14A
 10
151.202197
 20
-0.005727
 30
0.0
  0
VERTEX
  8
0
  6
CONTINUOUS
 62
   254
  5
14B
 10
151.272416
 20
-1.009506
 30
0.0
  0
VERTEX
  8
0
  6
CONTINUOUS
 62
   254
  5
14C
 10
151.227147
 20
-1.815446
 30
0.0
  0
VERTEX
  8
0
  6
CONTINUOUS
 62
   254
  5
14D
 10
151.096608
 20
-2.614743
 30
0.0
  0
VERTEX
  8
0
  6
CONTINUOUS
 62
   254
  5
14E
 10
150.888703
 20
-3.39907
 30
0.0
  0
VERTEX
  8
0
  6
CONTINUOUS
 62
   254
  5
14F
 10
150.611338
 20
-4.1601
 30
0.0
  0
VERTEX
  8
0
  6
CONTINUOUS
 62
   254
  5
150
 10
150.272416
 20
-4.889506
 30
0.0
  0
SEQEND
  8
0
  6
CONTINUOUS
 62
   254
  5
151
  0
POLYLINE
  8
0
  6
CONTINUOUS
 62
   254
  5
38
 66
     1
 10
0.0
 20
0.0
 30
0.0
  0
VERTEX
  8
0
  6
CONTINUOUS
 62
   254
  5
152
 10
146.272416
 20
2.860494
 30
0.0
  0
VERTEX
  8
0
  6
CONTINUOUS
 62
   254
  5
153
 10
145.858074
 20
1.944575
 30
0.0
  0
VERTEX
  8
0
  6
CONTINUOUS
 62
   254
  5
154
 10
145.543001
 20
0.984067
 30
0.0
  0
VERTEX
  8
0
  6
CONTINUOUS
 62
   254
  5
155
 10
145.342635
 20
-0.005727
 30
0.0
  0
VERTEX
  8
0
  6
CONTINUOUS
 62
   254
  5
156
 10
145.272416
 20
-1.009506
 30
0.0
  0
VERTEX
  8
0
  6
CONTINUOUS
 62
   254
  5
157
 10
145.317686
 20
-1.815446
 30
0.0
  0
VERTEX
  8
0
  6
CONTINUOUS
 62
   254
  5
158
 10
145.448225
 20
-2.614743
 30
0.0
  0
VERTEX
  8
0
  6
CONTINUOUS
 62
   254
  5
159
 10
145.656129
 20
-3.39907
 30
0.0
  0
VERTEX
  8
0
  6
CONTINUOUS
 62
   254
  5
15A
 10
145.933495
 20
-4.1601
 30
0.0
  0
VERTEX
  8
0
  6
CONTINUOUS
 62
   254
  5
15B
 10
146.272416
 20
-4.889506
 30
0.0
  0
SEQEND
  8
0
  6
CONTINUOUS
 62
   254
  5
15C
  0
POLYLINE
  8
0
  6
CONTINUOUS
 62
   254
  5
39
 66
     1
 10
0.0
 20
0.0
 30
0.0
  0
VERTEX
  8
0
  6
CONTINUOUS
 62
   254
  5
15D
 10
-86.067584
 20
4.470494
 30
0.0
  0
VERTEX
  8
0
  6
CONTINUOUS
 62
   254
  5
15E
 10
-85.815492
 20
3.579749
 30
0.0
  0
VERTEX
  8
0
  6
CONTINUOUS
 62
   254
  5
15F
 10
-85.606773
 20
2.676574
 30
0.0
  0
VERTEX
  8
0
  6
CONTINUOUS
 62
   254
  5
160
 10
-85.442524
 20
1.763516
 30
0.0
  0
VERTEX
  8
0
  6
CONTINUOUS
 62
   254
  5
161
 10
-85.323845
 20
0.843119
 30
0.0
  0
VERTEX
  8
0
  6
CONTINUOUS
 62
   254
  5
162
 10
-85.251832
 20
-0.08207
 30
0.0
  0
VERTEX
  8
0
  6
CONTINUOUS
 62
   254
  5
163
 10
-85.227584
 20
-1.009506
 30
0.0
  0
VERTEX
  8
0
  6
CONTINUOUS
 62
   254
  5
164
 10
-85.251832
 20
-1.938832
 30
0.0
  0
VERTEX
  8
0
  6
CONTINUOUS
 62
   254
  5
165
 10
-85.323845
 20
-2.866195
 30
0.0
  0
VERTEX
  8
0
  6
CONTINUOUS
 62
   254
  5
166
 10
-85.442525
 20
-3.78877
 30
0.0
  0
VERTEX
  8
0
  6
CONTINUOUS
 62
   254
  5
167
 10
-85.606773
 20
-4.70373
 30
0.0
  0
VERTEX
  8
0
  6
CONTINUOUS
 62
   254
  5
168
 10
-85.815492
 20
-5.608251
 30
0.0
  0
VERTEX
  8
0
  6
CONTINUOUS
 62
   254
  5
169
 10
-86.067584
 20
-6.499506
 30
0.0
  0
SEQEND
  8
0
  6
CONTINUOUS
 62
   254
  5
16A
  0
POLYLINE
  8
0
  6
CONTINUOUS
 62
   254
  5
3A
 66
     1
 10
0.0
 20
0.0
 30
0.0
  0
VERTEX
  8
0
  6
CONTINUOUS
 62
   254
  5
16B
 10
-92.377584
 20
4.470494
 30
0.0
  0
VERTEX
  8
0
  6
CONTINUOUS
 62
   254
  5
16C
 10
-92.630416
 20
3.579749
 30
0.0
  0
VERTEX
  8
0
  6
CONTINUOUS
 62
   254
  5
16D
 10
-92.840987
 20
2.676575
 30
0.0
  0
VERTEX
  8
0
  6
CONTINUOUS
 62
   254
  5
16E
 10
-93.007643
 20
1.763517
 30
0.0
  0
VERTEX
  8
0
  6
CONTINUOUS
 62
   254
  5
16F
 10
-93.12873
 20
0.84312
 30
0.0
  0
VERTEX
  8
0
  6
CONTINUOUS
 62
   254
  5
170
 10
-93.202595
 20
-0.082069
 30
0.0
  0
VERTEX
  8
0
  6
CONTINUOUS
 62
   254
  5
171
 10
-93.227584
 20
-1.009506
 30
0.0
  0
VERTEX
  8
0
  6
CONTINUOUS
 62
   254
  5
172
 10
-93.202595
 20
-1.938832
 30
0.0
  0
VERTEX
  8
0
  6
CONTINUOUS
 62
   254
  5
173
 10
-93.12873
 20
-2.866195
 30
0.0
  0
VERTEX
  8
0
  6
CONTINUOUS
 62
   254
  5
174
 10
-93.007642
 20
-3.788769
 30
0.0
  0
VERTEX
  8
0
  6
CONTINUOUS
 62
   254
  5
175
 10
-92.840987
 20
-4.70373
 30
0.0
  0
VERTEX
  8
0
  6
CONTINUOUS
 62
   254
  5
176
 10
-92.630416
 20
-5.608251
 30
0.0
  0
VERTEX
  8
0
  6
CONTINUOUS
 62
   254
  5
177
 10
-92.377584
 20
-6.499506
 30
0.0
  0
SEQEND
  8
0
  6
CONTINUOUS
 62
   254
  5
178
  0
POLYLINE
  8
0
  6
CONTINUOUS
 62
   254
  5
3B
 66
     1
 10
0.0
 20
0.0
 30
0.0
  0
VERTEX
  8
0
  6
CONTINUOUS
 62
   254
  5
179
 10
-66.387584
 20
10.820494
 30
0.0
  0
VERTEX
  8
0
  6
CONTINUOUS
 62
   254
  5
17A
 10
-66.671667
 20
9.863103
 30
0.0
  0
VERTEX
  8
0
  6
CONTINUOUS
 62
   254
  5
17B
 10
-66.933598
 20
8.898275
 30
0.0
  0
VERTEX
  8
0
  6
CONTINUOUS
 62
   254
  5
17C
 10
-67.172891
 20
7.92669
 30
0.0
  0
VERTEX
  8
0
  6
CONTINUOUS
 62
   254
  5
17D
 10
-67.38906
 20
6.949028
 30
0.0
  0
VERTEX
  8
0
  6
CONTINUOUS
 62
   254
  5
17E
 10
-67.581618
 20
5.965967
 30
0.0
  0
VERTEX
  8
0
  6
CONTINUOUS
 62
   254
  5
17F
 10
-67.750079
 20
4.978189
 30
0.0
  0
VERTEX
  8
0
  6
CONTINUOUS
 62
   254
  5
180
 10
-67.893958
 20
3.986372
 30
0.0
  0
VERTEX
  8
0
  6
CONTINUOUS
 62
   254
  5
181
 10
-68.012766
 20
2.991195
 30
0.0
  0
VERTEX
  8
0
  6
CONTINUOUS
 62
   254
  5
182
 10
-68.10602
 20
1.99334
 30
0.0
  0
VERTEX
  8
0
  6
CONTINUOUS
 62
   254
  5
183
 10
-68.173231
 20
0.993485
 30
0.0
  0
VERTEX
  8
0
  6
CONTINUOUS
 62
   254
  5
184
 10
-68.213915
 20
-0.007691
 30
0.0
  0
VERTEX
  8
0
  6
CONTINUOUS
 62
   254
  5
185
 10
-68.227584
 20
-1.009506
 30
0.0
  0
VERTEX
  8
0
  6
CONTINUOUS
 62
   254
  5
186
 10
-68.213915
 20
-2.012214
 30
0.0
  0
VERTEX
  8
0
  6
CONTINUOUS
 62
   254
  5
187
 10
-68.173231
 20
-3.014387
 30
0.0
  0
VERTEX
  8
0
  6
CONTINUOUS
 62
   254
  5
188
 10
-68.10602
 20
-4.01531
 30
0.0
  0
VERTEX
  8
0
  6
CONTINUOUS
 62
   254
  5
189
 10
-68.012766
 20
-5.014271
 30
0.0
  0
VERTEX
  8
0
  6
CONTINUOUS
 62
   254
  5
18A
 10
-67.893958
 20
-6.010553
 30
0.0
  0
VERTEX
  8
0
  6
CONTINUOUS
 62
   254
  5
18B
 10
-67.750079
 20
-7.003442
 30
0.0
  0
VERTEX
  8
0
  6
CONTINUOUS
 62
   254
  5
18C
 10
-67.581618
 20
-7.992224
 30
0.0
  0
VERTEX
  8
0
  6
CONTINUOUS
 62
   254
  5
18D
 10
-67.38906
 20
-8.976183
 30
0.0
  0
VERTEX
  8
0
  6
CONTINUOUS
 62
   254
  5
18E
 10
-67.172891
 20
-9.954606
 30
0.0
  0
VERTEX
  8
0
  6
CONTINUOUS
 62
   254
  5
18F
 10
-66.933598
 20
-10.926777
 30
0.0
  0
VERTEX
  8
0
  6
CONTINUOUS
 62
   254
  5
190
 10
-66.671667
 20
-11.891982
 30
0.0
  0
VERTEX
  8
0
  6
CONTINUOUS
 62
   254
  5
191
 10
-66.387584
 20
-12.849506
 30
0.0
  0
SEQEND
  8
0
  6
CONTINUOUS
 62
   254
  5
192
  0
POLYLINE
  8
0
  6
CONTINUOUS
 62
   254
  5
3C
 66
     1
 10
0.0
 20
0.0
 30
0.0
  0
VERTEX
  8
0
  6
CONTINUOUS
 62
   254
  5
193
 10
-74.727584
 20
2.860494
 30
0.0
  0
VERTEX
  8
0
  6
CONTINUOUS
 62
   254
  5
194
 10
-75.141926
 20
1.944575
 30
0.0
  0
VERTEX
  8
0
  6
CONTINUOUS
 62
   254
  5
195
 10
-75.456999
 20
0.984067
 30
0.0
  0
VERTEX
  8
0
  6
CONTINUOUS
 62
   254
  5
196
 10
-75.657365
 20
-0.005727
 30
0.0
  0
VERTEX
  8
0
  6
CONTINUOUS
 62
   254
  5
197
 10
-75.727584
 20
-1.009506
 30
0.0
  0
VERTEX
  8
0
  6
CONTINUOUS
 62
   254
  5
198
 10
-75.682314
 20
-1.815446
 30
0.0
  0
VERTEX
  8
0
  6
CONTINUOUS
 62
   254
  5
199
 10
-75.551775
 20
-2.614743
 30
0.0
  0
VERTEX
  8
0
  6
CONTINUOUS
 62
   254
  5
19A
 10
-75.343871
 20
-3.39907
 30
0.0
  0
VERTEX
  8
0
  6
CONTINUOUS
 62
   254
  5
19B
 10
-75.066505
 20
-4.1601
 30
0.0
  0
VERTEX
  8
0
  6
CONTINUOUS
 62
   254
  5
19C
 10
-74.727584
 20
-4.889506
 30
0.0
  0
SEQEND
  8
0
  6
CONTINUOUS
 62
   254
  5
19D
  0
POLYLINE
  8
0
  6
CONTINUOUS
 62
   254
  5
3D
 66
     1
 10
0.0
 20
0.0
 30
0.0
  0
VERTEX
  8
0
  6
CONTINUOUS
 62
   254
  5
19E
 10
-70.727584
 20
2.860494
 30
0.0
  0
VERTEX
  8
0
  6
CONTINUOUS
 62
   254
  5
19F
 10
-70.313241
 20
1.944575
 30
0.0
  0
VERTEX
  8
0
  6
CONTINUOUS
 62
   254
  5
1A0
 10
-69.998168
 20
0.984067
 30
0.0
  0
VERTEX
  8
0
  6
CONTINUOUS
 62
   254
  5
1A1
 10
-69.797803
 20
-0.005727
 30
0.0
  0
VERTEX
  8
0
  6
CONTINUOUS
 62
   254
  5
1A2
 10
-69.727584
 20
-1.009506
 30
0.0
  0
VERTEX
  8
0
  6
CONTINUOUS
 62
   254
  5
1A3
 10
-69.772853
 20
-1.815446
 30
0.0
  0
VERTEX
  8
0
  6
CONTINUOUS
 62
   254
  5
1A4
 10
-69.903392
 20
-2.614743
 30
0.0
  0
VERTEX
  8
0
  6
CONTINUOUS
 62
   254
  5
1A5
 10
-70.111297
 20
-3.39907
 30
0.0
  0
VERTEX
  8
0
  6
CONTINUOUS
 62
   254
  5
1A6
 10
-70.388662
 20
-4.1601
 30
0.0
  0
VERTEX
  8
0
  6
CONTINUOUS
 62
   254
  5
1A7
 10
-70.727584
 20
-4.889506
 30
0.0
  0
SEQEND
  8
0
  6
CONTINUOUS
 62
   254
  5
1A8
  0
LINE
  8
0
  6
CONTINUOUS
 62
   254
  5
3E
 10
27.272416
 20
19.790494
 30
0.0
 11
27.272416
 21
-21.809506
 31
0.0
  0
LINE
  8
0
  6
CONTINUOUS
 62
   254
  5
3F
 10
176.272416
 20
-7.009506
 30
0.0
 11
175.272416
 21
-8.009506
 31
0.0
  0
LINE
  8
0
  6
CONTINUOUS
 62
   254
  5
40
 10
176.272416
 20
4.990494
 30
0.0
 11
176.272416
 21
-7.009506
 31
0.0
  0
LINE
  8
0
  6
CONTINUOUS
 62
   254
  5
41
 10
175.272416
 20
5.990494
 30
0.0
 11
176.272416
 21
4.990494
 31
0.0
  0
LINE
  8
0
  6
CONTINUOUS
 62
   116
  5
42
 10
160.772416
 20
-7.009506
 30
0.0
 11
153.272416
 21
-7.009506
 31
0.0
  0
LINE
  8
0
  6
CONTINUOUS
 62
   116
  5
43
 10
153.272416
 20
-7.009506
 30
0.0
 11
151.532416
 21
-8.009506
 31
0.0
  0
LINE
  8
0
  6
CONTINUOUS
 62
   116
  5
44
 10
153.272416
 20
4.990494
 30
0.0
 11
151.532416
 21
5.990494
 31
0.0
  0
LINE
  8
0
  6
CONTINUOUS
 62
   254
  5
45
 10
175.272416
 20
5.990494
 30
0.0
 11
175.272416
 21
-8.009506
 31
0.0
  0
LINE
  8
0
  6
CONTINUOUS
 62
   116
  5
46
 10
160.772416
 20
4.990494
 30
0.0
 11
153.272416
 21
4.990494
 31
0.0
  0
LINE
  8
0
  6
CONTINUOUS
 62
   116
  5
47
 10
176.272416
 20
-7.009506
 30
0.0
 11
168.772416
 21
-7.009506
 31
0.0
  0
LINE
  8
0
  6
CONTINUOUS
 62
   116
  5
48
 10
176.272416
 20
4.990494
 30
0.0
 11
168.772416
 21
4.990494
 31
0.0
  0
LINE
  8
0
  6
CONTINUOUS
 62
   254
  5
49
 10
160.772416
 20
-10.509506
 30
0.0
 11
160.772416
 21
8.490494
 31
0.0
  0
LINE
  8
0
  6
CONTINUOUS
 62
   254
  5
4A
 10
167.922416
 20
4.470494
 30
0.0
 11
161.612416
 21
4.470494
 31
0.0
  0
LINE
  8
0
  6
CONTINUOUS
 62
   254
  5
4B
 10
167.922416
 20
-6.499506
 30
0.0
 11
161.612416
 21
-6.499506
 31
0.0
  0
LINE
  8
0
  6
CONTINUOUS
 62
   254
  5
4C
 10
168.772416
 20
-10.509506
 30
0.0
 11
167.922416
 21
-11.979506
 31
0.0
  0
LINE
  8
0
  6
CONTINUOUS
 62
   254
  5
4D
 10
168.772416
 20
-10.509506
 30
0.0
 11
168.772416
 21
-6.499506
 31
0.0
  0
LINE
  8
0
  6
CONTINUOUS
 62
   254
  5
4E
 10
168.772416
 20
-6.499506
 30
0.0
 11
168.772416
 21
8.490494
 31
0.0
  0
LINE
  8
0
  6
CONTINUOUS
 62
   254
  5
4F
 10
161.612416
 20
-11.979506
 30
0.0
 11
160.772416
 21
-10.509506
 31
0.0
  0
LINE
  8
0
  6
CONTINUOUS
 62
   254
  5
50
 10
161.612416
 20
9.960494
 30
0.0
 11
160.772416
 21
8.490494
 31
0.0
  0
LINE
  8
0
  6
CONTINUOUS
 62
   254
  5
51
 10
167.922416
 20
9.960494
 30
0.0
 11
168.772416
 21
8.490494
 31
0.0
  0
LINE
  8
0
  6
CONTINUOUS
 62
   254
  5
52
 10
167.922416
 20
-11.979506
 30
0.0
 11
161.612416
 21
-11.979506
 31
0.0
  0
LINE
  8
0
  6
CONTINUOUS
 62
   254
  5
53
 10
167.922416
 20
9.960494
 30
0.0
 11
161.612416
 21
9.960494
 31
0.0
  0
LINE
  8
0
  6
CONTINUOUS
 62
   254
  5
54
 10
27.272416
 20
-21.809506
 30
0.0
 11
40.272416
 21
-21.809506
 31
0.0
  0
LINE
  8
0
  6
CONTINUOUS
 62
   254
  5
55
 10
42.272416
 20
-20.809506
 30
0.0
 11
43.272416
 21
-21.809506
 31
0.0
  0
LINE
  8
0
  6
CONTINUOUS
 62
   254
  5
56
 10
41.272416
 20
-21.809506
 30
0.0
 11
42.272416
 21
-21.809506
 31
0.0
  0
LINE
  8
0
  6
CONTINUOUS
 62
   254
  5
57
 10
40.272416
 20
-20.809506
 30
0.0
 11
41.272416
 21
-21.809506
 31
0.0
  0
LINE
  8
0
  6
CONTINUOUS
 62
   254
  5
58
 10
27.272416
 20
19.790494
 30
0.0
 11
40.272416
 21
19.790494
 31
0.0
  0
LINE
  8
0
  6
CONTINUOUS
 62
   254
  5
59
 10
42.272416
 20
18.790494
 30
0.0
 11
43.272416
 21
19.790494
 31
0.0
  0
LINE
  8
0
  6
CONTINUOUS
 62
   254
  5
5A
 10
41.272416
 20
19.790494
 30
0.0
 11
42.272416
 21
19.790494
 31
0.0
  0
LINE
  8
0
  6
CONTINUOUS
 62
   254
  5
5B
 10
40.272416
 20
18.790494
 30
0.0
 11
41.272416
 21
19.790494
 31
0.0
  0
LINE
  8
0
  6
CONTINUOUS
 62
   254
  5
5C
 10
43.272416
 20
19.790494
 30
0.0
 11
43.272416
 21
-21.809506
 31
0.0
  0
LINE
  8
0
  6
CONTINUOUS
 62
   254
  5
5D
 10
42.272416
 20
19.790494
 30
0.0
 11
42.272416
 21
-21.809506
 31
0.0
  0
LINE
  8
0
  6
CONTINUOUS
 62
   254
  5
5E
 10
41.272416
 20
19.790494
 30
0.0
 11
41.272416
 21
-21.809506
 31
0.0
  0
LINE
  8
0
  6
CONTINUOUS
 62
   254
  5
5F
 10
40.272416
 20
19.790494
 30
0.0
 11
40.272416
 21
-21.809506
 31
0.0
  0
LINE
  8
0
  6
CONTINUOUS
 62
   254
  5
60
 10
131.272416
 20
19.790494
 30
0.0
 11
116.272416
 21
19.790494
 31
0.0
  0
LINE
  8
0
  6
CONTINUOUS
 62
   254
  5
61
 10
115.272416
 20
-21.809506
 30
0.0
 11
114.272416
 21
-21.809506
 31
0.0
  0
LINE
  8
0
  6
CONTINUOUS
 62
   254
  5
62
 10
114.272416
 20
-20.809506
 30
0.0
 11
113.272416
 21
-21.809506
 31
0.0
  0
LINE
  8
0
  6
CONTINUOUS
 62
   254
  5
63
 10
116.272416
 20
-20.809506
 30
0.0
 11
115.272416
 21
-21.809506
 31
0.0
  0
LINE
  8
0
  6
CONTINUOUS
 62
   254
  5
64
 10
115.272416
 20
19.790494
 30
0.0
 11
114.272416
 21
19.790494
 31
0.0
  0
LINE
  8
0
  6
CONTINUOUS
 62
   254
  5
65
 10
114.272416
 20
18.790494
 30
0.0
 11
113.272416
 21
19.790494
 31
0.0
  0
LINE
  8
0
  6
CONTINUOUS
 62
   254
  5
66
 10
116.272416
 20
18.790494
 30
0.0
 11
115.272416
 21
19.790494
 31
0.0
  0
LINE
  8
0
  6
CONTINUOUS
 62
   254
  5
67
 10
113.272416
 20
19.790494
 30
0.0
 11
113.272416
 21
-21.809506
 31
0.0
  0
LINE
  8
0
  6
CONTINUOUS
 62
   254
  5
68
 10
114.272416
 20
19.790494
 30
0.0
 11
114.272416
 21
-21.809506
 31
0.0
  0
LINE
  8
0
  6
CONTINUOUS
 62
   254
  5
69
 10
115.272416
 20
19.790494
 30
0.0
 11
115.272416
 21
-21.809506
 31
0.0
  0
LINE
  8
0
  6
CONTINUOUS
 62
   116
  5
6A
 10
133.272416
 20
-16.509506
 30
0.0
 11
131.532416
 21
-17.509506
 31
0.0
  0
LINE
  8
0
  6
CONTINUOUS
 62
   116
  5
6B
 10
133.272416
 20
14.490494
 30
0.0
 11
131.532416
 21
15.490494
 31
0.0
  0
LINE
  8
0
  6
CONTINUOUS
 62
   116
  5
6C
 10
134.272416
 20
14.490494
 30
0.0
 11
133.272416
 21
14.490494
 31
0.0
  0
LINE
  8
0
  6
CONTINUOUS
 62
   116
  5
6D
 10
134.272416
 20
-16.509506
 30
0.0
 11
133.272416
 21
-16.509506
 31
0.0
  0
LINE
  8
0
  6
CONTINUOUS
 62
   116
  5
6E
 10
144.852416
 20
14.490494
 30
0.0
 11
143.772416
 21
14.490494
 31
0.0
  0
LINE
  8
0
  6
CONTINUOUS
 62
   116
  5
6F
 10
144.852416
 20
-16.509506
 30
0.0
 11
143.772416
 21
-16.509506
 31
0.0
  0
LINE
  8
0
  6
CONTINUOUS
 62
   254
  5
70
 10
133.272416
 20
15.490494
 30
0.0
 11
133.272416
 21
-17.509506
 31
0.0
  0
LINE
  8
0
  6
CONTINUOUS
 62
   254
  5
71
 10
145.272416
 20
-16.009506
 30
0.0
 11
144.012416
 21
-17.509506
 31
0.0
  0
LINE
  8
0
  6
CONTINUOUS
 62
   254
  5
72
 10
145.272416
 20
13.990494
 30
0.0
 11
144.012416
 21
15.490494
 31
0.0
  0
LINE
  8
0
  6
CONTINUOUS
 62
   254
  5
73
 10
134.272416
 20
-17.509506
 30
0.0
 11
131.272416
 21
-17.509506
 31
0.0
  0
LINE
  8
0
  6
CONTINUOUS
 62
   254
  5
74
 10
134.272416
 20
15.490494
 30
0.0
 11
131.272416
 21
15.490494
 31
0.0
  0
LINE
  8
0
  6
CONTINUOUS
 62
   254
  5
75
 10
144.012416
 20
-17.509506
 30
0.0
 11
143.772416
 21
-17.509506
 31
0.0
  0
LINE
  8
0
  6
CONTINUOUS
 62
   254
  5
76
 10
144.012416
 20
15.490494
 30
0.0
 11
143.772416
 21
15.490494
 31
0.0
  0
LINE
  8
0
  6
CONTINUOUS
 62
   254
  5
77
 10
116.272416
 20
19.790494
 30
0.0
 11
116.272416
 21
-21.809506
 31
0.0
  0
LINE
  8
0
  6
CONTINUOUS
 62
   254
  5
78
 10
131.272416
 20
-21.809506
 30
0.0
 11
116.272416
 21
-21.809506
 31
0.0
  0
LINE
  8
0
  6
CONTINUOUS
 62
   254
  5
79
 10
141.932416
 20
10.820494
 30
0.0
 11
134.772416
 21
10.820494
 31
0.0
  0
LINE
  8
0
  6
CONTINUOUS
 62
   254
  5
7A
 10
141.932416
 20
-12.849506
 30
0.0
 11
134.772416
 21
-12.849506
 31
0.0
  0
LINE
  8
0
  6
CONTINUOUS
 62
   254
  5
7B
 10
141.932416
 20
22.660494
 30
0.0
 11
134.772416
 21
22.660494
 31
0.0
  0
LINE
  8
0
  6
CONTINUOUS
 62
   254
  5
7C
 10
134.772416
 20
19.490494
 30
0.0
 11
134.272416
 21
19.490494
 31
0.0
  0
LINE
  8
0
  6
CONTINUOUS
 62
   254
  5
7D
 10
134.772416
 20
22.660494
 30
0.0
 11
134.772416
 21
-24.689506
 31
0.0
  0
LINE
  8
0
  6
CONTINUOUS
 62
   254
  5
7E
 10
134.272416
 20
19.490494
 30
0.0
 11
134.272416
 21
-21.509506
 31
0.0
  0
LINE
  8
0
  6
CONTINUOUS
 62
   254
  5
7F
 10
134.772416
 20
-21.509506
 30
0.0
 11
134.272416
 21
-21.509506
 31
0.0
  0
LINE
  8
0
  6
CONTINUOUS
 62
   254
  5
80
 10
143.772416
 20
-21.509506
 30
0.0
 11
141.942416
 21
-24.689506
 31
0.0
  0
LINE
  8
0
  6
CONTINUOUS
 62
   254
  5
81
 10
143.772416
 20
19.490494
 30
0.0
 11
141.932416
 21
22.660494
 31
0.0
  0
LINE
  8
0
  6
CONTINUOUS
 62
   254
  5
82
 10
143.772416
 20
19.490494
 30
0.0
 11
143.772416
 21
-21.509506
 31
0.0
  0
LINE
  8
0
  6
CONTINUOUS
 62
   254
  5
83
 10
141.932416
 20
-24.689506
 30
0.0
 11
134.772416
 21
-24.689506
 31
0.0
  0
LINE
  8
0
  6
CONTINUOUS
 62
   254
  5
84
 10
145.272416
 20
13.990494
 30
0.0
 11
145.272416
 21
-16.009506
 31
0.0
  0
LINE
  8
0
  6
CONTINUOUS
 62
   254
  5
85
 10
131.272416
 20
-21.809506
 30
0.0
 11
131.272416
 21
19.790494
 31
0.0
  0
LINE
  8
0
  6
CONTINUOUS
 62
   254
  5
86
 10
160.772416
 20
5.990494
 30
0.0
 11
151.272416
 21
5.990494
 31
0.0
  0
LINE
  8
0
  6
CONTINUOUS
 62
   254
  5
87
 10
160.772416
 20
-8.009506
 30
0.0
 11
151.272416
 21
-8.009506
 31
0.0
  0
LINE
  8
0
  6
CONTINUOUS
 62
   254
  5
88
 10
150.272416
 20
-9.009506
 30
0.0
 11
145.272416
 21
-9.009506
 31
0.0
  0
LINE
  8
0
  6
CONTINUOUS
 62
   254
  5
89
 10
150.272416
 20
6.990494
 30
0.0
 11
145.272416
 21
6.990494
 31
0.0
  0
LINE
  8
0
  6
CONTINUOUS
 62
   254
  5
8A
 10
150.272416
 20
-9.009506
 30
0.0
 11
150.272416
 21
-4.889506
 31
0.0
  0
LINE
  8
0
  6
CONTINUOUS
 62
   116
  5
8B
 10
146.272416
 20
2.860494
 30
0.0
 11
150.272416
 21
-4.889506
 31
0.0
  0
LINE
  8
0
  6
CONTINUOUS
 62
   116
  5
8C
 10
150.272416
 20
2.860494
 30
0.0
 11
146.272416
 21
-4.889506
 31
0.0
  0
LINE
  8
0
  6
CONTINUOUS
 62
   254
  5
8D
 10
150.272416
 20
-4.889506
 30
0.0
 11
146.272416
 21
-4.889506
 31
0.0
  0
LINE
  8
0
  6
CONTINUOUS
 62
   254
  5
8E
 10
150.272416
 20
2.860494
 30
0.0
 11
146.272416
 21
2.860494
 31
0.0
  0
LINE
  8
0
  6
CONTINUOUS
 62
   254
  5
8F
 10
146.272416
 20
-4.889506
 30
0.0
 11
146.272416
 21
2.860494
 31
0.0
  0
LINE
  8
0
  6
CONTINUOUS
 62
   254
  5
90
 10
150.272416
 20
2.860494
 30
0.0
 11
150.272416
 21
6.990494
 31
0.0
  0
LINE
  8
0
  6
CONTINUOUS
 62
   254
  5
91
 10
151.272416
 20
-8.009506
 30
0.0
 11
150.272416
 21
-9.009506
 31
0.0
  0
LINE
  8
0
  6
CONTINUOUS
 62
   254
  5
92
 10
151.272416
 20
5.990494
 30
0.0
 11
150.272416
 21
6.990494
 31
0.0
  0
LINE
  8
0
  6
CONTINUOUS
 62
   254
  5
93
 10
151.272416
 20
-8.009506
 30
0.0
 11
151.272416
 21
5.990494
 31
0.0
  0
LINE
  8
0
  6
CONTINUOUS
 62
   254
  5
94
 10
153.272416
 20
5.990494
 30
0.0
 11
153.272416
 21
-8.009506
 31
0.0
  0
LINE
  8
0
  6
CONTINUOUS
 62
   254
  5
95
 10
175.272416
 20
-8.009506
 30
0.0
 11
168.772416
 21
-8.009506
 31
0.0
  0
LINE
  8
0
  6
CONTINUOUS
 62
   254
  5
96
 10
175.272416
 20
5.990494
 30
0.0
 11
168.772416
 21
5.990494
 31
0.0
  0
LINE
  8
0
  6
CONTINUOUS
 62
   254
  5
97
 10
20.272416
 20
16.990494
 30
0.0
 11
27.272416
 21
16.990494
 31
0.0
  0
LINE
  8
0
  6
CONTINUOUS
 62
   254
  5
98
 10
20.272416
 20
-19.009506
 30
0.0
 11
27.272416
 21
-19.009506
 31
0.0
  0
LINE
  8
0
  6
CONTINUOUS
 62
   254
  5
99
 10
20.272416
 20
19.790494
 30
0.0
 11
20.272416
 21
-21.809506
 31
0.0
  0
LINE
  8
0
  6
CONTINUOUS
 62
   254
  5
9A
 10
-100.727584
 20
-7.009506
 30
0.0
 11
-99.727584
 21
-8.009506
 31
0.0
  0
LINE
  8
0
  6
CONTINUOUS
 62
   254
  5
9B
 10
-100.727584
 20
4.990494
 30
0.0
 11
-100.727584
 21
-7.009506
 31
0.0
  0
LINE
  8
0
  6
CONTINUOUS
 62
   254
  5
9C
 10
-99.727584
 20
5.990494
 30
0.0
 11
-100.727584
 21
4.990494
 31
0.0
  0
LINE
  8
0
  6
CONTINUOUS
 62
   116
  5
9D
 10
-85.227584
 20
-7.009506
 30
0.0
 11
-77.727584
 21
-7.009506
 31
0.0
  0
LINE
  8
0
  6
CONTINUOUS
 62
   116
  5
9E
 10
-77.727584
 20
-7.009506
 30
0.0
 11
-75.987584
 21
-8.009506
 31
0.0
  0
LINE
  8
0
  6
CONTINUOUS
 62
   116
  5
9F
 10
-77.727584
 20
4.990494
 30
0.0
 11
-75.987584
 21
5.990494
 31
0.0
  0
LINE
  8
0
  6
CONTINUOUS
 62
   254
  5
A0
 10
-99.727584
 20
5.990494
 30
0.0
 11
-99.727584
 21
-8.009506
 31
0.0
  0
LINE
  8
0
  6
CONTINUOUS
 62
   116
  5
A1
 10
-85.227584
 20
4.990494
 30
0.0
 11
-77.727584
 21
4.990494
 31
0.0
  0
LINE
  8
0
  6
CONTINUOUS
 62
   116
  5
A2
 10
-100.727584
 20
-7.009506
 30
0.0
 11
-93.227584
 21
-7.009506
 31
0.0
  0
LINE
  8
0
  6
CONTINUOUS
 62
   116
  5
A3
 10
-100.727584
 20
4.990494
 30
0.0
 11
-93.227584
 21
4.990494
 31
0.0
  0
LINE
  8
0
  6
CONTINUOUS
 62
   254
  5
A4
 10
-85.227584
 20
-10.509506
 30
0.0
 11
-85.227584
 21
8.490494
 31
0.0
  0
LINE
  8
0
  6
CONTINUOUS
 62
   254
  5
A5
 10
-92.377584
 20
4.470494
 30
0.0
 11
-86.067584
 21
4.470494
 31
0.0
  0
LINE
  8
0
  6
CONTINUOUS
 62
   254
  5
A6
 10
-92.377584
 20
-6.499506
 30
0.0
 11
-86.067584
 21
-6.499506
 31
0.0
  0
LINE
  8
0
  6
CONTINUOUS
 62
   254
  5
A7
 10
-93.227584
 20
-10.509506
 30
0.0
 11
-92.377584
 21
-11.979506
 31
0.0
  0
LINE
  8
0
  6
CONTINUOUS
 62
   254
  5
A8
 10
-93.227584
 20
-10.509506
 30
0.0
 11
-93.227584
 21
-6.499506
 31
0.0
  0
LINE
  8
0
  6
CONTINUOUS
 62
   254
  5
A9
 10
-93.227584
 20
-6.499506
 30
0.0
 11
-93.227584
 21
8.490494
 31
0.0
  0
LINE
  8
0
  6
CONTINUOUS
 62
   254
  5
AA
 10
-86.067584
 20
-11.979506
 30
0.0
 11
-85.227584
 21
-10.509506
 31
0.0
  0
LINE
  8
0
  6
CONTINUOUS
 62
   254
  5
AB
 10
-86.067584
 20
9.960494
 30
0.0
 11
-85.227584
 21
8.490494
 31
0.0
  0
LINE
  8
0
  6
CONTINUOUS
 62
   254
  5
AC
 10
-92.377584
 20
9.960494
 30
0.0
 11
-93.227584
 21
8.490494
 31
0.0
  0
LINE
  8
0
  6
CONTINUOUS
 62
   254
  5
AD
 10
-92.377584
 20
-11.979506
 30
0.0
 11
-86.067584
 21
-11.979506
 31
0.0
  0
LINE
  8
0
  6
CONTINUOUS
 62
   254
  5
AE
 10
-92.377584
 20
9.960494
 30
0.0
 11
-86.067584
 21
9.960494
 31
0.0
  0
LINE
  8
0
  6
CONTINUOUS
 62
   254
  5
AF
 10
20.272416
 20
-21.809506
 30
0.0
 11
7.272416
 21
-21.809506
 31
0.0
  0
LINE
  8
0
  6
CONTINUOUS
 62
   254
  5
B0
 10
5.272416
 20
-20.809506
 30
0.0
 11
4.272416
 21
-21.809506
 31
0.0
  0
LINE
  8
0
  6
CONTINUOUS
 62
   254
  5
B1
 10
6.272416
 20
-21.809506
 30
0.0
 11
5.272416
 21
-21.809506
 31
0.0
  0
LINE
  8
0
  6
CONTINUOUS
 62
   254
  5
B2
 10
7.272416
 20
-20.809506
 30
0.0
 11
6.272416
 21
-21.809506
 31
0.0
  0
LINE
  8
0
  6
CONTINUOUS
 62
   254
  5
B3
 10
20.272416
 20
19.790494
 30
0.0
 11
7.272416
 21
19.790494
 31
0.0
  0
LINE
  8
0
  6
CONTINUOUS
 62
   254
  5
B4
 10
5.272416
 20
18.790494
 30
0.0
 11
4.272416
 21
19.790494
 31
0.0
  0
LINE
  8
0
  6
CONTINUOUS
 62
   254
  5
B5
 10
6.272416
 20
19.790494
 30
0.0
 11
5.272416
 21
19.790494
 31
0.0
  0
LINE
  8
0
  6
CONTINUOUS
 62
   254
  5
B6
 10
7.272416
 20
18.790494
 30
0.0
 11
6.272416
 21
19.790494
 31
0.0
  0
LINE
  8
0
  6
CONTINUOUS
 62
   254
  5
B7
 10
4.272416
 20
19.790494
 30
0.0
 11
4.272416
 21
-21.809506
 31
0.0
  0
LINE
  8
0
  6
CONTINUOUS
 62
   254
  5
B8
 10
5.272416
 20
19.790494
 30
0.0
 11
5.272416
 21
-21.809506
 31
0.0
  0
LINE
  8
0
  6
CONTINUOUS
 62
   254
  5
B9
 10
6.272416
 20
19.790494
 30
0.0
 11
6.272416
 21
-21.809506
 31
0.0
  0
LINE
  8
0
  6
CONTINUOUS
 62
   254
  5
BA
 10
7.272416
 20
19.790494
 30
0.0
 11
7.272416
 21
-21.809506
 31
0.0
  0
LINE
  8
0
  6
CONTINUOUS
 62
   254
  5
BB
 10
-55.727584
 20
19.790494
 30
0.0
 11
-40.727584
 21
19.790494
 31
0.0
  0
LINE
  8
0
  6
CONTINUOUS
 62
   254
  5
BC
 10
-39.727584
 20
-21.809506
 30
0.0
 11
-38.727584
 21
-21.809506
 31
0.0
  0
LINE
  8
0
  6
CONTINUOUS
 62
   254
  5
BD
 10
-38.727584
 20
-20.809506
 30
0.0
 11
-37.727584
 21
-21.809506
 31
0.0
  0
LINE
  8
0
  6
CONTINUOUS
 62
   254
  5
BE
 10
-40.727584
 20
-20.809506
 30
0.0
 11
-39.727584
 21
-21.809506
 31
0.0
  0
LINE
  8
0
  6
CONTINUOUS
 62
   254
  5
BF
 10
-39.727584
 20
19.790494
 30
0.0
 11
-38.727584
 21
19.790494
 31
0.0
  0
LINE
  8
0
  6
CONTINUOUS
 62
   254
  5
C0
 10
-38.727584
 20
18.790494
 30
0.0
 11
-37.727584
 21
19.790494
 31
0.0
  0
LINE
  8
0
  6
CONTINUOUS
 62
   254
  5
C1
 10
-40.727584
 20
18.790494
 30
0.0
 11
-39.727584
 21
19.790494
 31
0.0
  0
LINE
  8
0
  6
CONTINUOUS
 62
   254
  5
C2
 10
-37.727584
 20
19.790494
 30
0.0
 11
-37.727584
 21
-21.809506
 31
0.0
  0
LINE
  8
0
  6
CONTINUOUS
 62
   254
  5
C3
 10
-38.727584
 20
19.790494
 30
0.0
 11
-38.727584
 21
-21.809506
 31
0.0
  0
LINE
  8
0
  6
CONTINUOUS
 62
   254
  5
C4
 10
-39.727584
 20
19.790494
 30
0.0
 11
-39.727584
 21
-21.809506
 31
0.0
  0
LINE
  8
0
  6
CONTINUOUS
 62
   116
  5
C5
 10
-57.727584
 20
-16.509506
 30
0.0
 11
-55.987584
 21
-17.509506
 31
0.0
  0
LINE
  8
0
  6
CONTINUOUS
 62
   116
  5
C6
 10
-57.727584
 20
14.490494
 30
0.0
 11
-55.987584
 21
15.490494
 31
0.0
  0
LINE
  8
0
  6
CONTINUOUS
 62
   116
  5
C7
 10
-58.727584
 20
14.490494
 30
0.0
 11
-57.727584
 21
14.490494
 31
0.0
  0
LINE
  8
0
  6
CONTINUOUS
 62
   116
  5
C8
 10
-58.727584
 20
-16.509506
 30
0.0
 11
-57.727584
 21
-16.509506
 31
0.0
  0
LINE
  8
0
  6
CONTINUOUS
 62
   116
  5
C9
 10
-69.307584
 20
14.490494
 30
0.0
 11
-68.227584
 21
14.490494
 31
0.0
  0
LINE
  8
0
  6
CONTINUOUS
 62
   116
  5
CA
 10
-69.307584
 20
-16.509506
 30
0.0
 11
-68.227584
 21
-16.509506
 31
0.0
  0
LINE
  8
0
  6
CONTINUOUS
 62
   254
  5
CB
 10
-57.727584
 20
15.490494
 30
0.0
 11
-57.727584
 21
-17.509506
 31
0.0
  0
LINE
  8
0
  6
CONTINUOUS
 62
   254
  5
CC
 10
-69.727584
 20
-16.009506
 30
0.0
 11
-68.467584
 21
-17.509506
 31
0.0
  0
LINE
  8
0
  6
CONTINUOUS
 62
   254
  5
CD
 10
-69.727584
 20
13.990494
 30
0.0
 11
-68.467584
 21
15.490494
 31
0.0
  0
LINE
  8
0
  6
CONTINUOUS
 62
   254
  5
CE
 10
-58.727584
 20
-17.509506
 30
0.0
 11
-55.727584
 21
-17.509506
 31
0.0
  0
LINE
  8
0
  6
CONTINUOUS
 62
   254
  5
CF
 10
-58.727584
 20
15.490494
 30
0.0
 11
-55.727584
 21
15.490494
 31
0.0
  0
LINE
  8
0
  6
CONTINUOUS
 62
   254
  5
D0
 10
-68.467584
 20
-17.509506
 30
0.0
 11
-68.227584
 21
-17.509506
 31
0.0
  0
LINE
  8
0
  6
CONTINUOUS
 62
   254
  5
D1
 10
-68.467584
 20
15.490494
 30
0.0
 11
-68.227584
 21
15.490494
 31
0.0
  0
LINE
  8
0
  6
CONTINUOUS
 62
   254
  5
D2
 10
-40.727584
 20
19.790494
 30
0.0
 11
-40.727584
 21
-21.809506
 31
0.0
  0
LINE
  8
0
  6
CONTINUOUS
 62
   254
  5
D3
 10
-55.727584
 20
-21.809506
 30
0.0
 11
-40.727584
 21
-21.809506
 31
0.0
  0
LINE
  8
0
  6
CONTINUOUS
 62
   254
  5
D4
 10
-66.387584
 20
10.820494
 30
0.0
 11
-59.227584
 21
10.820494
 31
0.0
  0
LINE
  8
0
  6
CONTINUOUS
 62
   254
  5
D5
 10
-66.387584
 20
-12.849506
 30
0.0
 11
-59.227584
 21
-12.849506
 31
0.0
  0
LINE
  8
0
  6
CONTINUOUS
 62
   254
  5
D6
 10
-66.387584
 20
22.660494
 30
0.0
 11
-59.227584
 21
22.660494
 31
0.0
  0
LINE
  8
0
  6
CONTINUOUS
 62
   254
  5
D7
 10
-59.227584
 20
19.490494
 30
0.0
 11
-58.727584
 21
19.490494
 31
0.0
  0
LINE
  8
0
  6
CONTINUOUS
 62
   254
  5
D8
 10
-59.227584
 20
22.660494
 30
0.0
 11
-59.227584
 21
-24.689506
 31
0.0
  0
LINE
  8
0
  6
CONTINUOUS
 62
   254
  5
D9
 10
-58.727584
 20
19.490494
 30
0.0
 11
-58.727584
 21
-21.509506
 31
0.0
  0
LINE
  8
0
  6
CONTINUOUS
 62
   254
  5
DA
 10
-59.227584
 20
-21.509506
 30
0.0
 11
-58.727584
 21
-21.509506
 31
0.0
  0
LINE
  8
0
  6
CONTINUOUS
 62
   254
  5
DB
 10
-68.227584
 20
-21.509506
 30
0.0
 11
-66.387584
 21
-24.689506
 31
0.0
  0
LINE
  8
0
  6
CONTINUOUS
 62
   254
  5
DC
 10
-68.227584
 20
19.490494
 30
0.0
 11
-66.387584
 21
22.660494
 31
0.0
  0
LINE
  8
0
  6
CONTINUOUS
 62
   254
  5
DD
 10
-68.227584
 20
19.490494
 30
0.0
 11
-68.227584
 21
-21.509506
 31
0.0
  0
LINE
  8
0
  6
CONTINUOUS
 62
   254
  5
DE
 10
-66.387584
 20
-24.689506
 30
0.0
 11
-59.227584
 21
-24.689506
 31
0.0
  0
LINE
  8
0
  6
CONTINUOUS
 62
   254
  5
DF
 10
-69.727584
 20
13.990494
 30
0.0
 11
-69.727584
 21
-16.009506
 31
0.0
  0
LINE
  8
0
  6
CONTINUOUS
 62
   254
  5
E0
 10
-55.727584
 20
19.790494
 30
0.0
 11
-55.727584
 21
-21.809506
 31
0.0
  0
LINE
  8
0
  6
CONTINUOUS
 62
   254
  5
E1
 10
-85.227584
 20
5.990494
 30
0.0
 11
-75.727584
 21
5.990494
 31
0.0
  0
LINE
  8
0
  6
CONTINUOUS
 62
   254
  5
E2
 10
-85.227584
 20
-8.009506
 30
0.0
 11
-75.727584
 21
-8.009506
 31
0.0
  0
LINE
  8
0
  6
CONTINUOUS
 62
   254
  5
E3
 10
-74.727584
 20
-9.009506
 30
0.0
 11
-69.727584
 21
-9.009506
 31
0.0
  0
LINE
  8
0
  6
CONTINUOUS
 62
   254
  5
E4
 10
-74.727584
 20
6.990494
 30
0.0
 11
-69.727584
 21
6.990494
 31
0.0
  0
LINE
  8
0
  6
CONTINUOUS
 62
   254
  5
E5
 10
-74.727584
 20
-9.009506
 30
0.0
 11
-74.727584
 21
-4.889506
 31
0.0
  0
LINE
  8
0
  6
CONTINUOUS
 62
   116
  5
E6
 10
-70.727584
 20
2.860494
 30
0.0
 11
-74.727584
 21
-4.889506
 31
0.0
  0
LINE
  8
0
  6
CONTINUOUS
 62
   116
  5
E7
 10
-74.727584
 20
2.860494
 30
0.0
 11
-70.727584
 21
-4.889506
 31
0.0
  0
LINE
  8
0
  6
CONTINUOUS
 62
   254
  5
E8
 10
-74.727584
 20
-4.889506
 30
0.0
 11
-70.727584
 21
-4.889506
 31
0.0
  0
LINE
  8
0
  6
CONTINUOUS
 62
   254
  5
E9
 10
-74.727584
 20
2.860494
 30
0.0
 11
-70.727584
 21
2.860494
 31
0.0
  0
LINE
  8
0
  6
CONTINUOUS
 62
   254
  5
EA
 10
-70.727584
 20
-4.889506
 30
0.0
 11
-70.727584
 21
2.860494
 31
0.0
  0
LINE
  8
0
  6
CONTINUOUS
 62
   254
  5
EB
 10
-74.727584
 20
2.860494
 30
0.0
 11
-74.727584
 21
6.990494
 31
0.0
  0
LINE
  8
0
  6
CONTINUOUS
 62
   254
  5
EC
 10
-75.727584
 20
-8.009506
 30
0.0
 11
-74.727584
 21
-9.009506
 31
0.0
  0
LINE
  8
0
  6
CONTINUOUS
 62
   254
  5
ED
 10
-75.727584
 20
5.990494
 30
0.0
 11
-74.727584
 21
6.990494
 31
0.0
  0
LINE
  8
0
  6
CONTINUOUS
 62
   254
  5
EE
 10
-75.727584
 20
-8.009506
 30
0.0
 11
-75.727584
 21
5.990494
 31
0.0
  0
LINE
  8
0
  6
CONTINUOUS
 62
   254
  5
EF
 10
-77.727584
 20
5.990494
 30
0.0
 11
-77.727584
 21
-8.009506
 31
0.0
  0
LINE
  8
0
  6
CONTINUOUS
 62
   254
  5
F0
 10
-99.727584
 20
-8.009506
 30
0.0
 11
-93.227584
 21
-8.009506
 31
0.0
  0
LINE
  8
0
  6
CONTINUOUS
 62
   254
  5
F1
 10
-99.727584
 20
5.990494
 30
0.0
 11
-93.227584
 21
5.990494
 31
0.0
  0
LINE
  8
0
  6
CONTINUOUS
 62
   116
  5
F2
 10
14.272416
 20
11.290494
 30
0.0
 11
14.272416
 21
24.790494
 31
0.0
  0
LINE
  8
0
  6
CONTINUOUS
 62
   116
  5
F3
 10
-47.727584
 20
11.290494
 30
0.0
 11
-47.727584
 21
24.790494
 31
0.0
  0
LINE
  8
0
  6
CONTINUOUS
 62
   116
  5
F4
 10
33.272416
 20
11.290494
 30
0.0
 11
33.272416
 21
24.790494
 31
0.0
  0
LINE
  8
0
  6
CONTINUOUS
 62
   116
  5
F5
 10
123.272416
 20
11.290494
 30
0.0
 11
123.272416
 21
24.790494
 31
0.0
  0
LINE
  8
0
  6
CONTINUOUS
 62
   116
  5
F6
 10
-103.727584
 20
-1.009506
 30
0.0
 11
179.272416
 21
-1.009506
 31
0.0
  0
CIRCLE
  8
0
  6
CONTINUOUS
 62
   254
  5
F7
 10
-146.477572
 20
-1.009506
 30
0.0
 40
6.0
  0
CIRCLE
  8
0
  6
CONTINUOUS
 62
   254
  5
F8
 10
-146.477572
 20
-1.009506
 30
0.0
 40
7.0
  0
CIRCLE
  8
0
  6
CONTINUOUS
 62
   254
  5
F9
 10
-146.477572
 20
-1.009506
 30
0.0
 40
9.5
  0
CIRCLE
  8
0
  6
CONTINUOUS
 62
   254
  5
FA
 10
-146.477572
 20
-1.009506
 30
0.0
 40
15.5
  0
CIRCLE
  8
0
  6
CONTINUOUS
 62
   254
  5
FB
 10
-146.477572
 20
-1.009506
 30
0.0
 40
16.5
  0
CIRCLE
  8
0
  6
CONTINUOUS
 62
   254
  5
FC
 10
-146.477572
 20
-1.009506
 30
0.0
 40
20.5
  0
LINE
  8
0
  6
CONTINUOUS
 62
   116
  5
FD
 10
-146.477584
 20
25.660494
 30
0.0
 11
-146.477584
 21
-27.689506
 31
0.0
  0
LINE
  8
0
  6
CONTINUOUS
 62
   116
  5
FE
 10
-169.977584
 20
-1.009506
 30
0.0
 11
-122.977584
 21
-1.009506
 31
0.0
  0
LINE
  8
0
  6
CONTINUOUS
 62
   254
  5
FF
 10
-155.977584
 20
-6.499506
 30
0.0
 11
-146.477584
 21
-11.979506
 31
0.0
  0
LINE
  8
0
  6
CONTINUOUS
 62
   254
  5
100
 10
-146.477584
 20
9.960494
 30
0.0
 11
-136.977584
 21
4.470494
 31
0.0
  0
LINE
  8
0
  6
CONTINUOUS
 62
   254
  5
101
 10
-146.477584
 20
-11.979506
 30
0.0
 11
-136.977584
 21
-6.499506
 31
0.0
  0
LINE
  8
0
  6
CONTINUOUS
 62
   254
  5
102
 10
-155.977584
 20
4.470494
 30
0.0
 11
-146.477584
 21
9.960494
 31
0.0
  0
LINE
  8
0
  6
CONTINUOUS
 62
   254
  5
103
 10
-136.977584
 20
4.470494
 30
0.0
 11
-136.977584
 21
-6.499506
 31
0.0
  0
LINE
  8
0
  6
CONTINUOUS
 62
   254
  5
104
 10
-155.977584
 20
4.470494
 30
0.0
 11
-155.977584
 21
-6.499506
 31
0.0
  0
LINE
  8
0
  6
CONTINUOUS
 62
   254
  5
105
 10
-166.977584
 20
-12.849506
 30
0.0
 11
-146.477584
 21
-24.689506
 31
0.0
  0
LINE
  8
0
  6
CONTINUOUS
 62
   254
  5
106
 10
-146.477584
 20
22.660494
 30
0.0
 11
-125.977584
 21
10.820494
 31
0.0
  0
LINE
  8
0
  6
CONTINUOUS
 62
   254
  5
107
 10
-146.477584
 20
-24.689506
 30
0.0
 11
-125.977584
 21
-12.849506
 31
0.0
  0
LINE
  8
0
  6
CONTINUOUS
 62
   254
  5
108
 10
-166.977584
 20
10.820494
 30
0.0
 11
-146.477584
 21
22.660494
 31
0.0
  0
LINE
  8
0
  6
CONTINUOUS
 62
   254
  5
109
 10
-125.977584
 20
10.820494
 30
0.0
 11
-125.977584
 21
-12.849506
 31
0.0
  0
LINE
  8
0
  6
CONTINUOUS
 62
   254
  5
10A
 10
-166.977584
 20
10.820494
 30
0.0
 11
-166.977584
 21
-12.849506
 31
0.0
  0
TEXT
  8
0
  6
CONTINUOUS
 62
     7
  5
10B
 10
-185.717391
 20
115.350006
 30
0.0
 40
4.5
  1
MODEL:DAW40*30*2
 41
1.043478
  7
MX_NOTE_STANDARD
 11
-185.717391
 21
117.600006
 31
0.0
 73
     2
  0
LINE
  8
0
  6
CONTINUOUS
 62
   254
  5
10C
 10
-194.25
 20
132.600006
 30
0.0
 11
194.800003
 21
132.600006
 31
0.0
  0
LINE
  8
0
  6
CONTINUOUS
 62
   254
  5
10D
 10
194.800003
 20
132.600006
 30
0.0
 11
194.800003
 21
-133.5
 31
0.0
  0
LINE
  8
0
  6
CONTINUOUS
 62
   254
  5
10E
 10
-194.25
 20
132.600006
 30
0.0
 11
-194.25
 21
-133.5
 31
0.0
  0
LINE
  8
0
  6
CONTINUOUS
 62
   254
  5
10F
 10
-194.25
 20
-133.5
 30
0.0
 11
194.800003
 21
-133.5
 31
0.0
  0
ENDSEC
  0
EOF
