  0
SECTION
  2
HEADER
  9
$ACADVER
  1
AC1003
  9
$EXTMIN
 10
-1.94250000E+02
 20
-1.33500000E+02
  9
$EXTMAX
 10
1.94800003E+02
 20
1.32600006E+02
  9
$LIMMIN
 10
-1.94251000E+02
 20
-1.33501000E+02
  9
$LIMMAX
 10
1.94801003E+02
 20
1.32601006E+02
  9
$SNAPUNIT
 10
1
 20
1
  9
$SNAPBASE
 10
0
 20
0
  9
$GRIDMODE
 70
0
  9
$GRIDUNIT
 10
0
 20
0
  9
$LTSCALE
 40
6.48416672E+00
  9
$TEXTSIZE
 40
3.2
  9
$DIMTAD
 70
0
  9
$LUNITS
 70
2
  9
$LUPREC
 70
4
  9
$FILLETRAD
 40
0
  9
$AUNITS
 70
0
  9
$AUPREC
 70
0
  0
ENDSEC
  0
SECTION
  2
TABLES
  0
TABLE
  2
LTYPE
 70
2
  0
LTYPE
  2
CONTINUOUS
 70
64
  3
Solid-Line
 72
65
 73
0
 40
0
  0
LTYPE
  2
DASHED
 70
64
  3
DASHED
 72
65
 73
2
 40
.75
 49
.5
 49
-.25
  0
LTYPE
  2
HIDDEN
 70
64
  3
HIDDEN
 72
65
 73
2
 40
.375
 49
.25
 49
-.125
  0
LTYPE
  2
CENTER
 70
64
  3
CENTER
 72
65
 73
4
 40
2
 49
1.25
 49
-.25
 49
.25
 49
-.25
  0
LTYPE
  2
PHANTOM
 70
64
  3
PHANTOM
 72
65
 73
6
 40
2.5
 49
1.25
 49
-.25
 49
.25
 49
-.25
 49
.25
 49
-.25
  0
ENDTAB
  0
TABLE
  2
LAYER
 70
1
  0
LAYER
  2
1
 70
0
 62
7
  6
CONTINUOUS
 0
ENDTAB
  0
TABLE
  2
STYLE
 70
2
  0
STYLE
  2
MONOTXT
 70
0
 40
0
 41
1
 50
0
 71
0
 42
.2
  3
monotxt
  0
STYLE
  2
BIGFONT
 70
0
 40
0
 41
1
 50
0
 71
0
 42
.2
  3
txt
  4
bigfont
  0
ENDTAB
  0
ENDSEC
  0
SECTION
  2
ENTITIES
  0
LINE
  8
0
 62
4
 10
7.01628730E+01
 20
-9.21929802E+01
 11
7.01628730E+01
 21
-6.21929955E+01
  0
LINE
  8
0
  6
CENTER
 62
6
 10
7.24086082E+01
 20
-8.21929802E+01
 11
6.35471885E+01
 21
-8.21929802E+01
  0
LINE
  8
0
 62
4
 10
2.41628730E+01
 20
-9.71929802E+01
 11
6.51628730E+01
 21
-9.71929802E+01
  0
LINE
  8
0
 62
4
 10
6.61628730E+01
 20
-6.21929955E+01
 11
7.01628730E+01
 21
-6.21929955E+01
  0
LINE
  8
0
 62
4
 10
4.51628413E+01
 20
-9.31929894E+01
 11
6.61628683E+01
 21
-8.21929754E+01
  0
LINE
  8
0
  6
CENTER
 62
6
 10
4.01628730E+01
 20
-8.93967308E+01
 11
4.01628730E+01
 21
-1.01128329E+02
  0
LINE
  8
0
 62
4
 10
2.41628730E+01
 20
-9.31929802E+01
 11
2.41628730E+01
 21
-9.71929802E+01
  0
LINE
  8
0
 62
4
 10
6.61628730E+01
 20
-6.21929955E+01
 11
6.61628730E+01
 21
-9.21929802E+01
  0
LINE
  8
0
 62
4
 10
2.41628730E+01
 20
-9.31929802E+01
 11
6.51628730E+01
 21
-9.31929802E+01
  0
ARC
  8
0
 62
4
 10
6.51628730E+01
 20
-9.21929802E+01
 40
5.00000000E+00
 50
2.70000018E+02
 51
0.00000000E+00
  0
ARC
  8
0
 62
4
 10
6.51628730E+01
 20
-9.21929802E+01
 40
1.00000000E+00
 50
2.70000018E+02
 51
0.00000000E+00
  0
LINE
  8
0
 62
4
 10
-4.09659332E+01
 20
-7.21063041E+01
 11
-7.79628551E+01
 21
-6.21930087E+01
  0
LINE
  8
0
 62
4
 10
-1.03549377E+02
 20
-8.21929802E+01
 11
-7.61249993E+01
 21
-8.21929802E+01
  0
LINE
  8
0
  6
CENTER
 62
6
 10
-1.31837188E+02
 20
-7.43156762E+01
 11
-1.31837188E+02
 21
-1.00339220E+02
  0
LINE
  8
0
 62
4
 10
-6.98371562E+01
 20
-9.31929999E+01
 11
-7.43042530E+01
 21
-8.33653871E+01
  0
LINE
  8
0
 62
4
 10
-7.48371880E+01
 20
-8.36723503E+01
 11
-7.48371880E+01
 21
-9.31929802E+01
  0
LINE
  8
0
 62
4
 10
-1.09837170E+02
 20
-9.31929698E+01
 11
-1.05370080E+02
 21
-8.33653709E+01
  0
LINE
  8
0
 62
4
 10
-1.45837238E+02
 20
-9.31929027E+01
 11
-1.44607454E+02
 21
-7.91364160E+01
  0
LINE
  8
0
 62
4
 10
-3.38372385E+01
 20
-9.31929458E+01
 11
-3.50670243E+01
 21
-7.91364401E+01
  0
LINE
  8
0
 62
4
 10
-1.45837188E+02
 20
-9.71929802E+01
 11
-3.38371880E+01
 21
-9.71929802E+01
  0
LINE
  8
0
 62
4
 10
-1.38708385E+02
 20
-7.21063247E+01
 11
-1.01711316E+02
 21
-6.21929898E+01
  0
LINE
  8
0
  6
CENTER
 62
6
 10
-4.78371880E+01
 20
-7.47248330E+01
 11
-4.78371880E+01
 21
-1.00339220E+02
  0
LINE
  8
0
  6
CENTER
 62
6
 10
-1.39473663E+02
 20
-8.21929802E+01
 11
-1.24744018E+02
 21
-8.21929802E+01
  0
LINE
  8
0
 62
4
 10
-1.04837188E+02
 20
-8.36723503E+01
 11
-1.04837188E+02
 21
-9.31929802E+01
  0
LINE
  8
0
 62
4
 10
-1.45837188E+02
 20
-9.31929802E+01
 11
-3.38371880E+01
 21
-9.31929802E+01
  0
LINE
  8
0
  6
CENTER
 62
6
 10
-4.10714715E+01
 20
-8.21929802E+01
 11
-5.37553399E+01
 21
-8.21929802E+01
  0
LINE
  8
0
 62
4
 10
-3.38371880E+01
 20
-9.31929802E+01
 11
-3.38371880E+01
 21
-9.71929802E+01
  0
LINE
  8
0
 62
4
 10
-1.45837188E+02
 20
-9.31929802E+01
 11
-1.45837188E+02
 21
-9.71929802E+01
  0
LINE
  8
0
  6
CENTER
 62
6
 10
-8.98371880E+01
 20
-5.76073479E+01
 11
-8.98371880E+01
 21
-1.00339220E+02
  0
ARC
  8
0
 62
4
 10
-1.03549377E+02
 20
-8.41929802E+01
 40
2.00000000E+00
 50
8.99999818E+01
 51
1.55556137E+02
  0
ARC
  8
0
 62
4
 10
-7.61249993E+01
 20
-8.41929802E+01
 40
2.00000000E+00
 50
2.44438264E+01
 51
8.99999818E+01
  0
ARC
  8
0
 62
4
 10
-4.30365288E+01
 20
-7.98336968E+01
 40
8.00000000E+00
 50
4.99991704E+00
 51
7.49999233E+01
  0
ARC
  8
0
 62
4
 10
-1.36637847E+02
 20
-7.98336968E+01
 40
8.00000000E+00
 50
1.05000040E+02
 51
1.75000047E+02
  0
ARC
  8
0
 62
4
 10
-8.98370659E+01
 20
-4.01929268E+01
 40
2.50000172E+01
 50
2.41642616E+02
 51
2.98357290E+02
  0
CIRCLE
  8
0
 62
4
 10
-1.31837188E+02
 20
-8.21929802E+01
 40
4.84999990E+00
  0
CIRCLE
  8
0
 62
4
 10
-4.78371880E+01
 20
-8.21929802E+01
 40
4.84999990E+00
  0
LINE
  8
0
  6
CENTER
 62
6
 10
1.74362800E+01
 20
5.68070579E+01
 11
7.44626930E+01
 21
5.68070579E+01
  0
LINE
  8
0
 62
4
 10
6.61628730E+01
 20
8.18069969E+01
 11
7.01629341E+01
 21
8.18069969E+01
  0
LINE
  8
0
 62
4
 10
6.61628730E+01
 20
3.18069816E+01
 11
7.01629341E+01
 21
3.18069816E+01
  0
LINE
  8
0
  6
CENTER
 62
6
 10
4.01628730E+01
 20
4.60132366E+00
 11
4.01628730E+01
 21
2.49969230E+01
  0
LINE
  8
0
 62
4
 10
4.11628730E+01
 20
7.80701214E+00
 11
3.91628730E+01
 21
7.80701214E+00
  0
LINE
  8
0
 62
4
 10
4.11628730E+01
 20
2.18070121E+01
 11
3.91628730E+01
 21
2.18070121E+01
  0
LINE
  8
0
  6
CENTER
 62
6
 10
7.22513053E+01
 20
1.48070121E+01
 11
2.86636665E+01
 21
1.48070121E+01
  0
LINE
  8
0
 62
4
 10
6.61628730E+01
 20
1.12807058E+02
 11
6.61628730E+01
 21
8.07012141E-01
  0
LINE
  8
0
 62
4
 10
2.41628730E+01
 20
1.00807058E+02
 11
2.41628730E+01
 21
1.28070427E+01
  0
LINE
  8
0
 62
4
 10
7.01628730E+01
 20
8.07012141E-01
 11
3.61628730E+01
 21
8.07012141E-01
  0
LINE
  8
0
 62
4
 10
7.01628730E+01
 20
1.12806997E+02
 11
3.61628730E+01
 21
1.12806997E+02
  0
LINE
  8
0
  6
CENTER
 62
6
 10
4.01628730E+01
 20
1.09012807E+02
 11
4.01628730E+01
 21
8.86171775E+01
  0
LINE
  8
0
 62
4
 10
4.11628730E+01
 20
1.05806997E+02
 11
3.91628730E+01
 21
1.05806997E+02
  0
LINE
  8
0
 62
4
 10
4.11628730E+01
 20
9.18069969E+01
 11
3.91628730E+01
 21
9.18069969E+01
  0
LINE
  8
0
  6
CENTER
 62
6
 10
7.20342185E+01
 20
9.88069969E+01
 11
2.86636665E+01
 21
9.88069969E+01
  0
LINE
  8
0
 62
4
 10
7.01628730E+01
 20
8.07012141E-01
 11
7.01628730E+01
 21
1.12806997E+02
  0
LINE
  8
0
 62
4
 10
6.61628730E+01
 20
4.18069969E+01
 11
4.72394111E+01
 21
4.18069969E+01
  0
LINE
  8
0
 62
4
 10
4.51628730E+01
 20
7.02272850E+01
 11
4.51628730E+01
 21
4.33868309E+01
  0
LINE
  8
0
 62
4
 10
6.61628698E+01
 20
7.68069995E+01
 11
4.66996168E+01
 21
7.21729061E+01
  0
LINE
  8
0
 62
4
 10
6.61628730E+01
 20
7.18069969E+01
 11
4.72394111E+01
 21
7.18069969E+01
  0
LINE
  8
0
 62
4
 10
6.61629332E+01
 20
3.68069205E+01
 11
4.66996802E+01
 21
4.14410139E+01
  0
ARC
  8
0
 62
4
 10
3.91628730E+01
 20
9.88070579E+01
 40
7.00000000E+00
 50
8.99999818E+01
 51
2.70000001E+02
  0
ARC
  8
0
 62
4
 10
4.11628730E+01
 20
1.48070427E+01
 40
7.00000000E+00
 50
2.70000005E+02
 51
8.99999681E+01
  0
ARC
  8
0
 62
4
 10
3.91628730E+01
 20
1.48070427E+01
 40
7.00000000E+00
 50
8.99999681E+01
 51
2.70000001E+02
  0
ARC
  8
0
 62
4
 10
4.11628730E+01
 20
9.88070579E+01
 40
7.00000000E+00
 50
2.70000005E+02
 51
8.99999681E+01
  0
ARC
  8
0
 62
4
 10
3.61628730E+01
 20
1.00807058E+02
 40
1.20000000E+01
 50
8.99999818E+01
 51
1.80000005E+02
  0
ARC
  8
0
 62
4
 10
3.61628730E+01
 20
1.28070427E+01
 40
1.20000000E+01
 50
1.80000022E+02
 51
2.70000005E+02
  0
ARC
  8
0
 62
4
 10
4.71628120E+01
 20
7.02272850E+01
 40
2.00000000E+00
 50
1.03392487E+02
 51
1.80000046E+02
  0
ARC
  8
0
 62
4
 10
4.71628120E+01
 20
4.33868309E+01
 40
2.00000000E+00
 50
1.79999991E+02
 51
2.56607557E+02
  0
TEXT
  8
0
 62
7
 10
-1.89357136E+02
 20
1.22850006E+02
 40
4.50000000E+00
  1
NEW DYNA CYLINDER
 41
1.07594914E+00
  7
MONOTXT
  0
LINE
  8
0
 62
7
 10
-1.94250000E+02
 20
1.17600006E+02
 11
-1.09250000E+02
 21
1.17600006E+02
  0
LINE
  8
0
 62
7
 10
-1.09250000E+02
 20
1.32600006E+02
 11
-1.09250000E+02
 21
1.17600006E+02
  0
LINE
  8
0
 62
7
 10
1.09800003E+02
 20
-1.18500000E+02
 11
1.09800003E+02
 21
-1.33500000E+02
  0
LINE
  8
0
 62
7
 10
1.09800003E+02
 20
-1.18500000E+02
 11
1.94800003E+02
 21
-1.18500000E+02
  0
TEXT
  8
0
 62
7
 10
1.15249715E+02
 20
-1.29150000E+02
 40
6.30000019E+00
  1
KOGANEI CORP.
 41
1.04838725E+00
  7
MONOTXT
  0
LINE
  8
0
 62
7
 10
1.09800003E+02
 20
1.32600006E+02
 11
1.09800003E+02
 21
1.17600006E+02
  0
LINE
  8
0
 62
7
 10
1.09800003E+02
 20
1.17600006E+02
 11
1.94800003E+02
 21
1.17600006E+02
  0
TEXT
  8
0
 62
7
 10
1.34942863E+02
 20
1.22850006E+02
 40
4.50000000E+00
  1
Ver. 1.0
 41
1.08108085E+00
  7
MONOTXT
  0
TEXT
  8
0
 62
7
 10
-1.85214688E+02
 20
1.05350006E+02
 40
4.50000000E+00
  1
MODEL:DDA100-1
 41
1.00000000E+00
  7
MONOTXT
  0
LINE
  8
0
 62
7
 10
-1.94250000E+02
 20
1.32600006E+02
 11
1.94800003E+02
 21
1.32600006E+02
  0
LINE
  8
0
 62
7
 10
1.94800003E+02
 20
1.32600006E+02
 11
1.94800003E+02
 21
-1.33500000E+02
  0
LINE
  8
0
 62
7
 10
-1.94250000E+02
 20
1.32600006E+02
 11
-1.94250000E+02
 21
-1.33500000E+02
  0
LINE
  8
0
 62
7
 10
-1.94250000E+02
 20
-1.33500000E+02
 11
1.94800003E+02
 21
-1.33500000E+02
  0
ENDSEC
  0
EOF
