  0
SECTION
  2
HEADER
  9
$ACADVER
  1
AC1003
  9
$EXTMIN
 10
-3.99250000E+02
 20
-3.06761995E+02
  9
$EXTMAX
 10
3.99799805E+02
 20
2.76250000E+02
  9
$LIMMIN
 10
-3.99251000E+02
 20
-3.06762995E+02
  9
$LIMMAX
 10
3.99800805E+02
 20
2.76251000E+02
  9
$SNAPUNIT
 10
1
 20
1
  9
$SNAPBASE
 10
0
 20
0
  9
$GRIDMODE
 70
0
  9
$GRIDUNIT
 10
0
 20
0
  9
$LTSCALE
 40
1.33174967E+01
  9
$TEXTSIZE
 40
3.2
  9
$DIMTAD
 70
0
  9
$LUNITS
 70
2
  9
$LUPREC
 70
4
  9
$FILLETRAD
 40
0
  9
$AUNITS
 70
0
  9
$AUPREC
 70
0
  0
ENDSEC
  0
SECTION
  2
TABLES
  0
TABLE
  2
LTYPE
 70
2
  0
LTYPE
  2
CONTINUOUS
 70
64
  3
Solid-Line
 72
65
 73
0
 40
0
  0
LTYPE
  2
DASHED
 70
64
  3
DASHED
 72
65
 73
2
 40
.75
 49
.5
 49
-.25
  0
LTYPE
  2
HIDDEN
 70
64
  3
HIDDEN
 72
65
 73
2
 40
.375
 49
.25
 49
-.125
  0
LTYPE
  2
CENTER
 70
64
  3
CENTER
 72
65
 73
4
 40
2
 49
1.25
 49
-.25
 49
.25
 49
-.25
  0
LTYPE
  2
PHANTOM
 70
64
  3
PHANTOM
 72
65
 73
6
 40
2.5
 49
1.25
 49
-.25
 49
.25
 49
-.25
 49
.25
 49
-.25
  0
ENDTAB
  0
TABLE
  2
LAYER
 70
1
  0
LAYER
  2
1
 70
0
 62
7
  6
CONTINUOUS
 0
ENDTAB
  0
TABLE
  2
STYLE
 70
2
  0
STYLE
  2
MONOTXT
 70
0
 40
0
 41
1
 50
0
 71
0
 42
.2
  3
monotxt
  0
STYLE
  2
BIGFONT
 70
0
 40
0
 41
1
 50
0
 71
0
 42
.2
  3
txt
  4
bigfont
  0
ENDTAB
  0
ENDSEC
  0
SECTION
  2
ENTITIES
  0
LINE
  8
0
  6
CENTER
 62
6
 10
8.90808089E+01
 20
-1.09174493E+02
 11
1.52225400E+02
 21
-1.09174493E+02
  0
LINE
  8
0
  6
CENTER
 62
6
 10
1.46545728E+02
 20
-1.51174493E+02
 11
9.47604812E+01
 21
-1.51174493E+02
  0
LINE
  8
0
  6
CENTER
 62
6
 10
1.44541137E+02
 20
-6.71744626E+01
 11
9.57627738E+01
 21
-6.71744626E+01
  0
LINE
  8
0
 62
4
 10
1.40618388E+02
 20
-8.06120542E+01
 11
1.40618388E+02
 21
-5.49572385E+01
  0
LINE
  8
0
 62
4
 10
1.00618388E+02
 20
-8.06120542E+01
 11
1.00618388E+02
 21
-5.49572385E+01
  0
LINE
  8
0
 62
4
 10
1.38119487E+02
 20
-8.06120542E+01
 11
1.40618388E+02
 21
-8.06120542E+01
  0
LINE
  8
0
 62
4
 10
1.00618388E+02
 20
-8.06120542E+01
 11
1.03117289E+02
 21
-8.06120542E+01
  0
LINE
  8
0
 62
4
 10
1.06019347E+02
 20
-4.74416576E+01
 11
1.05545848E+02
 21
-5.28537846E+01
  0
LINE
  8
0
 62
4
 10
1.20618380E+02
 20
-4.51745227E+01
 11
1.33294917E+02
 21
-4.56171972E+01
  0
LINE
  8
0
 62
4
 10
1.07941934E+02
 20
-4.56172003E+01
 11
1.20618411E+02
 21
-4.51745280E+01
  0
LINE
  8
0
 62
4
 10
1.20618349E+02
 20
-5.23274319E+01
 11
1.02548614E+02
 21
-5.29584410E+01
  0
LINE
  8
0
 62
4
 10
1.38688175E+02
 20
-5.29584509E+01
 11
1.20618381E+02
 21
-5.23274398E+01
  0
LINE
  8
0
 62
4
 10
1.35690870E+02
 20
-5.28538047E+01
 11
1.35217373E+02
 21
-4.74417082E+01
  0
LINE
  8
0
 62
4
 10
1.38749032E+02
 20
-8.78076406E+01
 11
1.20618361E+02
 21
-8.71745036E+01
  0
LINE
  8
0
 62
4
 10
1.20618370E+02
 20
-8.71745263E+01
 11
1.02487758E+02
 21
-8.78076612E+01
  0
LINE
  8
0
 62
4
 10
1.40618388E+02
 20
-1.63391755E+02
 11
1.40618388E+02
 21
-1.37736917E+02
  0
LINE
  8
0
 62
4
 10
1.00618388E+02
 20
-1.63391755E+02
 11
1.00618388E+02
 21
-1.37736917E+02
  0
LINE
  8
0
 62
4
 10
1.40618417E+02
 20
-1.09174499E+02
 11
1.36943894E+02
 21
-1.51174497E+02
  0
LINE
  8
0
 62
4
 10
1.00618420E+02
 20
-1.09174521E+02
 11
1.04292937E+02
 21
-1.51174490E+02
  0
LINE
  8
0
 62
4
 10
1.40618388E+02
 20
-1.37736917E+02
 11
1.38119487E+02
 21
-1.37736917E+02
  0
LINE
  8
0
 62
4
 10
1.03117289E+02
 20
-1.37736917E+02
 11
1.00618388E+02
 21
-1.37736917E+02
  0
LINE
  8
0
 62
4
 10
1.05545835E+02
 20
-1.65495199E+02
 11
1.06019333E+02
 21
-1.70907311E+02
  0
LINE
  8
0
 62
4
 10
1.33294921E+02
 20
-1.72731789E+02
 11
1.20618442E+02
 21
-1.73174462E+02
  0
LINE
  8
0
 62
4
 10
1.20618409E+02
 20
-1.73174428E+02
 11
1.07941933E+02
 21
-1.72731756E+02
  0
LINE
  8
0
 62
4
 10
1.02548613E+02
 20
-1.65390530E+02
 11
1.20618407E+02
 21
-1.66021541E+02
  0
LINE
  8
0
 62
4
 10
1.20618382E+02
 20
-1.66021554E+02
 11
1.38688180E+02
 21
-1.65390543E+02
  0
LINE
  8
0
 62
4
 10
1.35217440E+02
 20
-1.70907268E+02
 11
1.35690937E+02
 21
-1.65495171E+02
  0
LINE
  8
0
 62
4
 10
1.20618424E+02
 20
-1.31174488E+02
 11
1.38749036E+02
 21
-1.30541353E+02
  0
LINE
  8
0
 62
4
 10
1.02487818E+02
 20
-1.30541335E+02
 11
1.20618427E+02
 21
-1.31174470E+02
  0
LINE
  8
0
  6
CENTER
 62
6
 10
1.20618388E+02
 20
-4.16744931E+01
 11
1.20618388E+02
 21
-1.76674501E+02
  0
LINE
  8
0
 62
4
 10
1.04292951E+02
 20
-6.71744637E+01
 11
1.00618428E+02
 21
-1.09174478E+02
  0
LINE
  8
0
 62
4
 10
1.36943825E+02
 20
-6.71744633E+01
 11
1.40618349E+02
 21
-1.09174508E+02
  0
CIRCLE
  8
0
 62
4
 10
1.20618388E+02
 20
-1.09174493E+02
 40
1.25000000E+01
  0
CIRCLE
  8
0
 62
4
 10
1.20618388E+02
 20
-1.09174493E+02
 40
1.15000000E+01
  0
ARC
  8
0
 62
4
 10
1.33225078E+02
 20
-4.76159909E+01
 40
2.00000000E+00
 50
4.99967798E+00
 51
8.79996653E+01
  0
ARC
  8
0
 62
4
 10
1.08011698E+02
 20
-4.76159604E+01
 40
2.00000000E+00
 50
9.19996974E+01
 51
1.75000266E+02
  0
ARC
  8
0
 62
4
 10
1.02618388E+02
 20
-5.49572385E+01
 40
2.00000000E+00
 50
9.20000251E+01
 51
1.80000292E+02
  0
ARC
  8
0
 62
4
 10
1.38618388E+02
 20
-5.49572385E+01
 40
2.00000000E+00
 50
3.59999581E+02
 51
8.79999936E+01
  0
ARC
  8
0
 62
4
 10
1.33225078E+02
 20
-1.70733033E+02
 40
2.00000000E+00
 50
2.72000334E+02
 51
3.55000322E+02
  0
ARC
  8
0
 62
4
 10
1.08011698E+02
 20
-1.70733018E+02
 40
2.00000000E+00
 50
1.84999734E+02
 51
2.68000303E+02
  0
ARC
  8
0
 62
4
 10
1.02618388E+02
 20
-1.63391755E+02
 40
2.00000000E+00
 50
1.79999636E+02
 51
2.67999903E+02
  0
ARC
  8
0
 62
4
 10
1.38618388E+02
 20
-1.63391771E+02
 40
2.00000000E+00
 50
2.72000007E+02
 51
4.01159909E-04
  0
LINE
  8
0
  6
CENTER
 62
6
 10
-2.29381681E+02
 20
-1.51174493E+02
 11
-2.05381681E+02
 21
-1.51174493E+02
  0
LINE
  8
0
  6
CENTER
 62
6
 10
-2.29381681E+02
 20
-6.71744931E+01
 11
-2.05596525E+02
 21
-6.71744931E+01
  0
LINE
  8
0
  6
CENTER
 62
6
 10
-7.56011025E+01
 20
-1.09174493E+02
 11
-2.72370878E+02
 21
-1.09174493E+02
  0
LINE
  8
0
  6
CENTER
 62
6
 10
-2.15381681E+02
 20
-5.31744931E+01
 11
-2.15381681E+02
 21
-7.71744931E+01
  0
LINE
  8
0
  6
CENTER
 62
6
 10
-1.73381681E+02
 20
-3.08008664E+01
 11
-1.73381681E+02
 21
-1.80954027E+02
  0
LINE
  8
0
  6
CENTER
 62
6
 10
-2.15381681E+02
 20
-1.41174493E+02
 11
-2.15381681E+02
 21
-1.65174501E+02
  0
LINE
  8
0
  6
CENTER
 62
6
 10
-1.31381681E+02
 20
-1.39861291E+02
 11
-1.31381681E+02
 21
-1.65174501E+02
  0
LINE
  8
0
  6
CENTER
 62
6
 10
-1.41381681E+02
 20
-1.51174493E+02
 11
-1.17381681E+02
 21
-1.51174493E+02
  0
LINE
  8
0
 62
4
 10
-1.05381681E+02
 20
-1.21674493E+02
 11
-8.33816811E+01
 21
-1.21674493E+02
  0
LINE
  8
0
 62
4
 10
-8.23816931E+01
 20
-1.20674489E+02
 11
-8.33816954E+01
 21
-1.21674489E+02
  0
LINE
  8
0
 62
4
 10
-8.33816626E+01
 20
-9.66744842E+01
 11
-8.23816451E+01
 21
-9.76745120E+01
  0
LINE
  8
0
 62
4
 10
-8.33816811E+01
 20
-1.21674493E+02
 11
-8.33816811E+01
 21
-9.66744931E+01
  0
LINE
  8
0
 62
4
 10
-2.63381681E+02
 20
-9.66744931E+01
 11
-2.63381681E+02
 21
-1.21674493E+02
  0
LINE
  8
0
 62
4
 10
-2.64381623E+02
 20
-1.20674500E+02
 11
-2.63381599E+02
 21
-1.21674521E+02
  0
LINE
  8
0
 62
4
 10
-8.23816811E+01
 20
-9.76744931E+01
 11
-8.23816811E+01
 21
-1.20674493E+02
  0
LINE
  8
0
 62
4
 10
-2.64381681E+02
 20
-9.76744931E+01
 11
-2.64381681E+02
 21
-1.20674493E+02
  0
LINE
  8
0
 62
4
 10
-2.63381681E+02
 20
-9.66744931E+01
 11
-2.41381681E+02
 21
-9.66744931E+01
  0
LINE
  8
0
 62
4
 10
-2.63381681E+02
 20
-1.21674493E+02
 11
-2.41381681E+02
 21
-1.21674493E+02
  0
LINE
  8
0
 62
4
 10
-2.39381681E+02
 20
-8.71744931E+01
 11
-2.39381681E+02
 21
-1.31174493E+02
  0
LINE
  8
0
 62
4
 10
-1.05381681E+02
 20
-9.66744931E+01
 11
-8.33816811E+01
 21
-9.66744931E+01
  0
LINE
  8
0
 62
4
 10
-1.07381681E+02
 20
-8.71744931E+01
 11
-1.07381681E+02
 21
-1.31174493E+02
  0
LINE
  8
0
 62
4
 10
-2.63381627E+02
 20
-9.66744801E+01
 11
-2.64381623E+02
 21
-9.76744863E+01
  0
LINE
  8
0
  6
CENTER
 62
6
 10
-1.41381681E+02
 20
-6.71744931E+01
 11
-1.17381681E+02
 21
-6.71744931E+01
  0
LINE
  8
0
  6
CENTER
 62
6
 10
-1.31381681E+02
 20
-7.84876950E+01
 11
-1.31381681E+02
 21
-5.31744931E+01
  0
LINE
  8
0
 62
4
 10
-1.73381671E+02
 20
-1.72669994E+02
 11
-1.28700939E+02
 21
-1.65495189E+02
  0
LINE
  8
0
 62
4
 10
-1.73381680E+02
 20
-1.72670000E+02
 11
-2.18062427E+02
 21
-1.65495193E+02
  0
LINE
  8
0
 62
4
 10
-1.73381691E+02
 20
-4.56789815E+01
 11
-1.28700944E+02
 21
-5.28537889E+01
  0
LINE
  8
0
 62
4
 10
-1.73381688E+02
 20
-4.56789948E+01
 11
-2.18062435E+02
 21
-5.28538022E+01
  0
ARC
  8
0
 62
4
 10
-2.15908292E+02
 20
-1.63406923E+02
 40
3.00000000E+00
 50
2.23483738E+02
 51
2.51916081E+02
  0
ARC
  8
0
 62
4
 10
-2.01235319E+02
 20
-1.21692468E+02
 40
1.00000000E+02
 50
2.01928054E+01
 51
4.34837266E+01
  0
ARC
  8
0
 62
4
 10
-1.30855070E+02
 20
-5.49420712E+01
 40
3.00000000E+00
 50
4.34837266E+01
 51
7.19159906E+01
  0
ARC
  8
0
 62
4
 10
-2.41381681E+02
 20
-1.23674493E+02
 40
2.00000000E+00
 50
0.00000000E+00
 51
8.99999818E+01
  0
ARC
  8
0
 62
4
 10
-1.05381681E+02
 20
-9.46744931E+01
 40
2.00000000E+00
 50
1.79999964E+02
 51
2.70000001E+02
  0
ARC
  8
0
 62
4
 10
-1.45528043E+02
 20
-9.66565183E+01
 40
1.00000000E+02
 50
2.00192862E+02
 51
2.23483738E+02
  0
ARC
  8
0
 62
4
 10
-2.15908292E+02
 20
-5.49420712E+01
 40
3.00000000E+00
 50
1.08083973E+02
 51
1.43900256E+02
  0
ARC
  8
0
 62
4
 10
-1.73381681E+02
 20
-1.75718248E+02
 40
1.31043747E+02
 50
7.06323113E+01
 51
1.09367544E+02
  0
ARC
  8
0
 62
4
 10
-1.30855070E+02
 20
-1.63406923E+02
 40
3.00000000E+00
 50
2.88084064E+02
 51
3.16516274E+02
  0
ARC
  8
0
 62
4
 10
-2.41381681E+02
 20
-9.46744931E+01
 40
2.00000000E+00
 50
2.70000018E+02
 51
0.00000000E+00
  0
ARC
  8
0
 62
4
 10
-1.45528043E+02
 20
-1.21692468E+02
 40
1.00000000E+02
 50
1.36516261E+02
 51
1.59807193E+02
  0
ARC
  8
0
 62
4
 10
-2.01235319E+02
 20
-9.66565183E+01
 40
1.00000000E+02
 50
3.16516274E+02
 51
3.39807198E+02
  0
ARC
  8
0
 62
4
 10
-1.05381681E+02
 20
-1.23674493E+02
 40
2.00000000E+00
 50
8.99999818E+01
 51
1.79999964E+02
  0
ARC
  8
0
 62
4
 10
-1.73381681E+02
 20
-4.26307309E+01
 40
1.31043747E+02
 50
2.50632457E+02
 51
2.89367689E+02
  0
CIRCLE
  8
0
 62
4
 10
-1.31381681E+02
 20
-1.51174493E+02
 40
4.84999990E+00
  0
CIRCLE
  8
0
 62
4
 10
-1.73381681E+02
 20
-1.09174493E+02
 40
5.35000000E+01
  0
ARC
  8
0
 62
4
 10
-1.31381681E+02
 20
-1.51174493E+02
 40
1.38220959E+01
 50
3.58994028E+02
 51
7.64536610E+01
  0
ARC
  8
0
 62
4
 10
-1.31381681E+02
 20
-1.51174493E+02
 40
1.38220959E+01
 50
1.93546337E+02
 51
2.85064738E+02
  0
CIRCLE
  8
0
 62
4
 10
-2.15381681E+02
 20
-1.51174493E+02
 40
4.84999990E+00
  0
ARC
  8
0
 62
4
 10
-2.15381681E+02
 20
-1.51174493E+02
 40
1.38220959E+01
 50
1.03546337E+02
 51
1.81005969E+02
  0
ARC
  8
0
 62
4
 10
-2.15381681E+02
 20
-1.51174493E+02
 40
1.38220959E+01
 50
2.54935257E+02
 51
3.46453664E+02
  0
CIRCLE
  8
0
 62
4
 10
-1.31381681E+02
 20
-6.71744931E+01
 40
4.84999990E+00
  0
ARC
  8
0
 62
4
 10
-1.31381681E+02
 20
-6.71744931E+01
 40
1.38220959E+01
 50
2.83546339E+02
 51
1.00597203E+00
  0
ARC
  8
0
 62
4
 10
-1.31381681E+02
 20
-6.71744931E+01
 40
1.38220959E+01
 50
7.49352621E+01
 51
1.66453663E+02
  0
ARC
  8
0
 62
4
 10
-2.15381681E+02
 20
-6.71744931E+01
 40
1.38220959E+01
 50
1.78994027E+02
 51
2.56453659E+02
  0
CIRCLE
  8
0
 62
4
 10
-2.15381681E+02
 20
-6.71744931E+01
 40
4.84999990E+00
  0
ARC
  8
0
 62
4
 10
-2.15381681E+02
 20
-6.71744931E+01
 40
1.38220959E+01
 50
1.35463355E+01
 51
1.05064743E+02
  0
LINE
  8
0
  6
CENTER
 62
6
 10
8.68997672E+01
 20
1.47825233E+02
 11
1.54758801E+02
 21
1.47825846E+02
  0
LINE
  8
0
  6
CENTER
 62
6
 10
1.47014399E+02
 20
1.05825715E+02
 11
9.42761270E+01
 21
1.05825238E+02
  0
LINE
  8
0
  6
CENTER
 62
6
 10
1.46276042E+02
 20
1.89825739E+02
 11
9.50129666E+01
 21
1.89825276E+02
  0
LINE
  8
0
 62
6
 10
1.08117575E+02
 20
2.37825394E+02
 11
1.33117576E+02
 21
2.37825620E+02
  0
LINE
  8
0
 62
4
 10
1.09119210E+02
 20
5.68254335E+01
 11
1.32119210E+02
 21
5.68256413E+01
  0
LINE
  8
0
 62
4
 10
1.00618984E+02
 20
8.18253567E+01
 11
1.40618985E+02
 21
8.18257181E+01
  0
LINE
  8
0
 62
4
 10
1.09117566E+02
 20
2.38825403E+02
 11
1.32117566E+02
 21
2.38825611E+02
  0
LINE
  8
0
 62
4
 10
1.00617791E+02
 20
2.13825326E+02
 11
1.40617792E+02
 21
2.13825688E+02
  0
LINE
  8
0
 62
4
 10
1.40618985E+02
 20
8.18257181E+01
 11
1.40618646E+02
 21
1.19263340E+02
  0
LINE
  8
0
 62
4
 10
1.00618984E+02
 20
8.18253567E+01
 11
1.00618646E+02
 21
1.19262979E+02
  0
LINE
  8
0
 62
4
 10
1.08119200E+02
 20
5.78254245E+01
 11
1.08119002E+02
 21
7.98254245E+01
  0
LINE
  8
0
 62
4
 10
1.33119201E+02
 20
5.78257113E+01
 11
1.33119003E+02
 21
7.98256503E+01
  0
LINE
  8
0
 62
4
 10
1.08119165E+02
 20
5.78254430E+01
 11
1.09119184E+02
 21
5.68254598E+01
  0
LINE
  8
0
 62
4
 10
1.32119164E+02
 20
5.68256276E+01
 11
1.33119169E+02
 21
5.78256675E+01
  0
LINE
  8
0
 62
4
 10
1.08117563E+02
 20
2.37825426E+02
 11
1.09117585E+02
 21
2.38825448E+02
  0
LINE
  8
0
 62
4
 10
1.32117527E+02
 20
2.38825608E+02
 11
1.33117551E+02
 21
2.37825586E+02
  0
LINE
  8
0
 62
4
 10
1.08117773E+02
 20
2.15825394E+02
 11
1.08117575E+02
 21
2.37825394E+02
  0
LINE
  8
0
 62
4
 10
1.33117774E+02
 20
2.15825620E+02
 11
1.33117576E+02
 21
2.37825559E+02
  0
LINE
  8
0
  6
CENTER
 62
6
 10
1.20619291E+02
 20
4.78255374E+01
 11
1.20617484E+02
 21
2.47825507E+02
  0
LINE
  8
0
 62
4
 10
1.39687466E+02
 20
1.76388057E+02
 11
1.40618130E+02
 21
1.76388065E+02
  0
LINE
  8
0
 62
4
 10
1.38119045E+02
 20
2.03486981E+02
 11
1.40617886E+02
 21
2.03487003E+02
  0
LINE
  8
0
 62
4
 10
1.36873367E+02
 20
1.88465221E+02
 11
1.35063270E+02
 21
1.47825612E+02
  0
LINE
  8
0
 62
4
 10
1.36937514E+02
 20
1.47825686E+02
 11
1.38689378E+02
 21
1.75451378E+02
  0
LINE
  8
0
 62
4
 10
1.38118985E+02
 20
2.03487004E+02
 11
1.39368327E+02
 21
2.13825671E+02
  0
LINE
  8
0
 62
4
 10
1.40618130E+02
 20
1.76388065E+02
 11
1.40617792E+02
 21
2.13825688E+02
  0
LINE
  8
0
 62
4
 10
1.00618130E+02
 20
1.76387704E+02
 11
1.01548794E+02
 21
1.76387713E+02
  0
LINE
  8
0
 62
4
 10
1.00617885E+02
 20
2.03486642E+02
 11
1.03116725E+02
 21
2.03486665E+02
  0
LINE
  8
0
 62
4
 10
1.06173495E+02
 20
1.47825395E+02
 11
1.04362668E+02
 21
1.88464880E+02
  0
LINE
  8
0
 62
4
 10
1.02546840E+02
 20
1.75450988E+02
 11
1.04299197E+02
 21
1.47825388E+02
  0
LINE
  8
0
 62
4
 10
1.01867185E+02
 20
2.13825284E+02
 11
1.03116713E+02
 21
2.03486640E+02
  0
LINE
  8
0
 62
4
 10
1.40618646E+02
 20
1.19263340E+02
 11
1.39687982E+02
 21
1.19263332E+02
  0
LINE
  8
0
 62
4
 10
1.40618891E+02
 20
9.21644021E+01
 11
1.38120051E+02
 21
9.21643796E+01
  0
LINE
  8
0
 62
4
 10
1.35063266E+02
 20
1.47825632E+02
 11
1.36874096E+02
 21
1.07186086E+02
  0
LINE
  8
0
 62
4
 10
1.38689941E+02
 20
1.20200050E+02
 11
1.36937581E+02
 21
1.47825679E+02
  0
LINE
  8
0
 62
4
 10
1.39369574E+02
 20
8.18257281E+01
 11
1.38120046E+02
 21
9.21643723E+01
  0
LINE
  8
0
 62
4
 10
1.01549310E+02
 20
1.19262987E+02
 11
1.00618646E+02
 21
1.19262979E+02
  0
LINE
  8
0
 62
4
 10
1.03117731E+02
 20
9.21640634E+01
 11
1.00618890E+02
 21
9.21640408E+01
  0
LINE
  8
0
 62
4
 10
1.04363407E+02
 20
1.07185810E+02
 11
1.06173502E+02
 21
1.47825388E+02
  0
LINE
  8
0
 62
4
 10
1.04299189E+02
 20
1.47825355E+02
 11
1.02547327E+02
 21
1.20199694E+02
  0
LINE
  8
0
 62
4
 10
1.03117714E+02
 20
9.21640982E+01
 11
1.01868372E+02
 21
8.18254315E+01
  0
LINE
  8
0
 62
4
 10
1.00618130E+02
 20
1.76387704E+02
 11
1.00617791E+02
 21
2.13825326E+02
  0
LINE
  8
0
 62
6
 10
1.08119200E+02
 20
5.78254245E+01
 11
1.33119201E+02
 21
5.78256503E+01
  0
ARC
  8
0
 62
4
 10
1.06119002E+02
 20
7.98254064E+01
 40
2.00000000E+00
 50
5.35530530E-04
 51
9.00004998E+01
  0
ARC
  8
0
 62
4
 10
1.35119003E+02
 20
7.98256684E+01
 40
2.00000000E+00
 50
9.00004998E+01
 51
1.80000482E+02
  0
ARC
  8
0
 62
4
 10
1.06117773E+02
 20
2.15825376E+02
 40
2.00000000E+00
 50
2.70000536E+02
 51
5.18227686E-04
  0
ARC
  8
0
 62
4
 10
1.35117774E+02
 20
2.15825638E+02
 40
2.00000000E+00
 50
1.80000482E+02
 51
2.70000464E+02
  0
ARC
  8
0
 62
4
 10
1.39687475E+02
 20
1.75388057E+02
 40
1.00000000E+00
 50
8.99997893E+01
 51
1.76371411E+02
  0
ARC
  8
0
 62
4
 10
1.38371867E+02
 20
1.88398482E+02
 40
1.50000000E+00
 50
9.00002809E+01
 51
1.77449652E+02
  0
ARC
  8
0
 62
4
 10
1.01548803E+02
 20
1.75387713E+02
 40
1.00000000E+00
 50
3.62966002E+00
 51
9.00011553E+01
  0
ARC
  8
0
 62
4
 10
1.02864176E+02
 20
1.88398161E+02
 40
1.50000000E+00
 50
2.55141989E+00
 51
9.00006637E+01
  0
ARC
  8
0
 62
4
 10
1.39687912E+02
 20
1.20263332E+02
 40
1.00000000E+00
 50
1.83629624E+02
 51
2.70001246E+02
  0
ARC
  8
0
 62
4
 10
1.38372600E+02
 20
1.07252883E+02
 40
1.50000000E+00
 50
1.82551383E+02
 51
2.70000700E+02
  0
ARC
  8
0
 62
4
 10
1.01549301E+02
 20
1.20262987E+02
 40
1.00000000E+00
 50
2.69999880E+02
 51
3.56371341E+02
  0
ARC
  8
0
 62
4
 10
1.02864848E+02
 20
1.07252562E+02
 40
1.50000000E+00
 50
2.70000372E+02
 51
3.57449579E+02
  0
LINE
  8
0
 62
7
 10
2.79799927E+02
 20
2.56250000E+02
 11
2.79799927E+02
 21
2.76250000E+02
  0
LINE
  8
0
 62
7
 10
2.79799927E+02
 20
2.56250000E+02
 11
3.99799805E+02
 21
2.56250000E+02
  0
LINE
  8
0
 62
7
 10
2.79799927E+02
 20
-2.56750000E+02
 11
3.99799805E+02
 21
-2.56750000E+02
  0
LINE
  8
0
 62
7
 10
2.79799927E+02
 20
-2.56750000E+02
 11
2.79799927E+02
 21
-2.76750000E+02
  0
TEXT
  8
0
 62
7
 10
2.87585240E+02
 20
-2.71250000E+02
 40
9.00000000E+00
  1
KOGANEI CORP.
 41
1.04838710E+00
  7
MONOTXT
  0
TEXT
  8
0
 62
7
 10
3.15499641E+02
 20
2.63100000E+02
 40
6.30000019E+00
  1
Ver. 1.0
 41
1.08108124E+00
  7
MONOTXT
  0
TEXT
  8
0
 62
7
 10
-3.86179374E+02
 20
2.36750000E+02
 40
9.00000000E+00
  1
MODEL:DDA100-11
 41
1.00000000E+00
  7
MONOTXT
  0
LINE
  8
0
 62
7
 10
-3.99250000E+02
 20
2.56250000E+02
 11
-2.79250000E+02
 21
2.56250000E+02
  0
LINE
  8
0
 62
7
 10
-2.79250000E+02
 20
2.76250000E+02
 11
-2.79250000E+02
 21
2.56250000E+02
  0
TEXT
  8
0
 62
7
 10
-3.91900291E+02
 20
2.63100000E+02
 40
6.30000019E+00
  1
NEW DYNA CYLINDER
 41
1.07594953E+00
  7
MONOTXT
  0
LINE
  8
0
 62
7
 10
-3.99250000E+02
 20
-2.76750000E+02
 11
3.99799805E+02
 21
-2.76750000E+02
  0
LINE
  8
0
 62
7
 10
-3.99250000E+02
 20
2.76250000E+02
 11
3.99799805E+02
 21
2.76250000E+02
  0
LINE
  8
0
 62
7
 10
-3.99250000E+02
 20
2.76250000E+02
 11
-3.99250000E+02
 21
-2.76750000E+02
  0
LINE
  8
0
 62
7
 10
3.99799805E+02
 20
2.76250000E+02
 11
3.99799805E+02
 21
-2.76750000E+02
  0
ENDSEC
  0
EOF
