  0
SECTION
  2
HEADER
  9
$ACADVER
  1
AC1003
  9
$EXTMIN
 10
-3.99250000E+02
 20
-3.22295878E+02
  9
$EXTMAX
 10
3.99799805E+02
 20
2.76250000E+02
  9
$LIMMIN
 10
-3.99251000E+02
 20
-3.22296878E+02
  9
$LIMMAX
 10
3.99800805E+02
 20
2.76251000E+02
  9
$SNAPUNIT
 10
1
 20
1
  9
$SNAPBASE
 10
0
 20
0
  9
$GRIDMODE
 70
0
  9
$GRIDUNIT
 10
0
 20
0
  9
$LTSCALE
 40
1.33174967E+01
  9
$TEXTSIZE
 40
3.2
  9
$DIMTAD
 70
0
  9
$LUNITS
 70
2
  9
$LUPREC
 70
4
  9
$FILLETRAD
 40
0
  9
$AUNITS
 70
0
  9
$AUPREC
 70
0
  0
ENDSEC
  0
SECTION
  2
TABLES
  0
TABLE
  2
LTYPE
 70
2
  0
LTYPE
  2
CONTINUOUS
 70
64
  3
Solid-Line
 72
65
 73
0
 40
0
  0
LTYPE
  2
DASHED
 70
64
  3
DASHED
 72
65
 73
2
 40
.75
 49
.5
 49
-.25
  0
LTYPE
  2
HIDDEN
 70
64
  3
HIDDEN
 72
65
 73
2
 40
.375
 49
.25
 49
-.125
  0
LTYPE
  2
CENTER
 70
64
  3
CENTER
 72
65
 73
4
 40
2
 49
1.25
 49
-.25
 49
.25
 49
-.25
  0
LTYPE
  2
PHANTOM
 70
64
  3
PHANTOM
 72
65
 73
6
 40
2.5
 49
1.25
 49
-.25
 49
.25
 49
-.25
 49
.25
 49
-.25
  0
ENDTAB
  0
TABLE
  2
LAYER
 70
1
  0
LAYER
  2
1
 70
0
 62
7
  6
CONTINUOUS
 0
ENDTAB
  0
TABLE
  2
STYLE
 70
2
  0
STYLE
  2
MONOTXT
 70
0
 40
0
 41
1
 50
0
 71
0
 42
.2
  3
monotxt
  0
STYLE
  2
BIGFONT
 70
0
 40
0
 41
1
 50
0
 71
0
 42
.2
  3
txt
  4
bigfont
  0
ENDTAB
  0
ENDSEC
  0
SECTION
  2
ENTITIES
  0
LINE
  8
0
  6
CENTER
 62
6
 10
1.28265457E+02
 20
-5.72083769E+01
 11
1.28265457E+02
 21
-2.00208377E+02
  0
ARC
  8
0
 62
4
 10
1.46265458E+02
 20
-7.04911222E+01
 40
2.00000000E+00
 50
3.59999581E+02
 51
8.79999936E+01
  0
ARC
  8
0
 62
4
 10
1.10265457E+02
 20
-7.04911222E+01
 40
2.00000000E+00
 50
9.20000251E+01
 51
1.80000292E+02
  0
ARC
  8
0
 62
4
 10
1.15658768E+02
 20
-6.31498442E+01
 40
2.00000000E+00
 50
9.19996974E+01
 51
1.75000266E+02
  0
ARC
  8
0
 62
4
 10
1.40872148E+02
 20
-6.31498747E+01
 40
2.00000000E+00
 50
4.99967798E+00
 51
8.79996653E+01
  0
CIRCLE
  8
0
 62
4
 10
1.28265457E+02
 20
-1.24708377E+02
 40
1.15000000E+01
  0
CIRCLE
  8
0
 62
4
 10
1.28265457E+02
 20
-1.24708377E+02
 40
1.25000000E+01
  0
LINE
  8
0
 62
4
 10
1.44590895E+02
 20
-8.27083471E+01
 11
1.47300375E+02
 21
-1.13677877E+02
  0
LINE
  8
0
 62
4
 10
1.11940021E+02
 20
-8.27083475E+01
 11
1.09230539E+02
 21
-1.13677879E+02
  0
LINE
  8
0
 62
4
 10
1.28265439E+02
 20
-1.02708410E+02
 11
1.10134828E+02
 21
-1.03341545E+02
  0
LINE
  8
0
 62
4
 10
1.46396101E+02
 20
-1.03341524E+02
 11
1.28265431E+02
 21
-1.02708387E+02
  0
LINE
  8
0
 62
4
 10
1.43337940E+02
 20
-6.83876885E+01
 11
1.42864443E+02
 21
-6.29755919E+01
  0
LINE
  8
0
 62
4
 10
1.46335245E+02
 20
-6.84923347E+01
 11
1.28265450E+02
 21
-6.78613235E+01
  0
LINE
  8
0
 62
4
 10
1.28265419E+02
 20
-6.78613157E+01
 11
1.10195683E+02
 21
-6.84923247E+01
  0
LINE
  8
0
 62
4
 10
1.15589004E+02
 20
-6.11510841E+01
 11
1.28265481E+02
 21
-6.07084118E+01
  0
LINE
  8
0
 62
4
 10
1.28265450E+02
 20
-6.07084065E+01
 11
1.40941986E+02
 21
-6.11510809E+01
  0
LINE
  8
0
 62
4
 10
1.13666417E+02
 20
-6.29755414E+01
 11
1.13192917E+02
 21
-6.83876683E+01
  0
LINE
  8
0
 62
4
 10
1.08265457E+02
 20
-9.61459379E+01
 11
1.10764358E+02
 21
-9.61459379E+01
  0
LINE
  8
0
 62
4
 10
1.45766557E+02
 20
-9.61459379E+01
 11
1.48265458E+02
 21
-9.61459379E+01
  0
LINE
  8
0
 62
4
 10
1.08265457E+02
 20
-9.61459379E+01
 11
1.08265457E+02
 21
-7.04911222E+01
  0
LINE
  8
0
 62
4
 10
1.48265458E+02
 20
-9.61459379E+01
 11
1.48265458E+02
 21
-7.04911222E+01
  0
LINE
  8
0
  6
CENTER
 62
6
 10
1.52188207E+02
 20
-8.27083464E+01
 11
1.03409843E+02
 21
-8.27083464E+01
  0
ARC
  8
0
 62
4
 10
1.28265457E+02
 20
-1.24708377E+02
 40
2.20000000E+01
 50
3.03498943E+00
 51
1.76965010E+02
  0
ARC
  8
0
 62
4
 10
9.85235443E+01
 20
-1.75708377E+02
 40
5.00000000E+00
 50
2.70000073E+02
 51
3.56965011E+02
  0
ARC
  8
0
 62
4
 10
6.97654571E+01
 20
-1.82708377E+02
 40
2.00000000E+00
 50
8.99999818E+01
 51
1.79999964E+02
  0
ARC
  8
0
 62
4
 10
1.86765337E+02
 20
-1.82708377E+02
 40
2.00000000E+00
 50
3.59721781E-05
 51
8.99999818E+01
  0
ARC
  8
0
 62
4
 10
1.58007250E+02
 20
-1.75708377E+02
 40
5.00000000E+00
 50
1.83034989E+02
 51
2.69999963E+02
  0
LINE
  8
0
 62
4
 10
6.77654571E+01
 20
-1.94708377E+02
 11
1.88765337E+02
 21
-1.94708377E+02
  0
LINE
  8
0
 62
4
 10
6.77654571E+01
 20
-1.94708377E+02
 11
6.77654571E+01
 21
-1.82708377E+02
  0
LINE
  8
0
 62
4
 10
1.88765337E+02
 20
-1.82708377E+02
 11
1.88765337E+02
 21
-1.94708377E+02
  0
LINE
  8
0
 62
4
 10
1.58007250E+02
 20
-1.80708377E+02
 11
1.86765337E+02
 21
-1.80708377E+02
  0
LINE
  8
0
 62
4
 10
1.50234474E+02
 20
-1.23543620E+02
 11
1.53014267E+02
 21
-1.75973125E+02
  0
LINE
  8
0
  6
CENTER
 62
6
 10
9.32654571E+01
 20
-1.24708377E+02
 11
1.63265306E+02
 21
-1.24708377E+02
  0
LINE
  8
0
 62
4
 10
6.97654571E+01
 20
-1.80708377E+02
 11
9.85235443E+01
 21
-1.80708377E+02
  0
LINE
  8
0
  6
CENTER
 62
6
 10
1.70765306E+02
 20
-1.75208377E+02
 11
1.70765306E+02
 21
-2.00208377E+02
  0
LINE
  8
0
 62
4
 10
1.03516531E+02
 20
-1.75973116E+02
 11
1.06296325E+02
 21
-1.23543588E+02
  0
LINE
  8
0
  6
CENTER
 62
6
 10
8.57654571E+01
 20
-2.00208377E+02
 11
8.57654571E+01
 21
-1.75208377E+02
  0
ARC
  8
0
 62
4
 10
-1.97687462E+02
 20
-8.27083769E+01
 40
1.38220959E+01
 50
1.35463355E+01
 51
1.05064743E+02
  0
CIRCLE
  8
0
 62
4
 10
-1.97687462E+02
 20
-8.27083769E+01
 40
4.84999990E+00
  0
ARC
  8
0
 62
4
 10
-1.97687462E+02
 20
-8.27083769E+01
 40
1.38220959E+01
 50
1.78994027E+02
 51
2.56453659E+02
  0
ARC
  8
0
 62
4
 10
-1.13687462E+02
 20
-8.27083769E+01
 40
1.38220959E+01
 50
7.49352621E+01
 51
1.66453663E+02
  0
ARC
  8
0
 62
4
 10
-1.13687462E+02
 20
-8.27083769E+01
 40
1.38220959E+01
 50
2.83546339E+02
 51
1.00597203E+00
  0
CIRCLE
  8
0
 62
4
 10
-1.13687462E+02
 20
-8.27083769E+01
 40
4.84999990E+00
  0
ARC
  8
0
 62
4
 10
-1.97687462E+02
 20
-1.66708377E+02
 40
1.38220959E+01
 50
2.54935257E+02
 51
3.46453664E+02
  0
ARC
  8
0
 62
4
 10
-1.97687462E+02
 20
-1.66708377E+02
 40
1.38220959E+01
 50
1.03546337E+02
 51
1.81005969E+02
  0
CIRCLE
  8
0
 62
4
 10
-1.97687462E+02
 20
-1.66708377E+02
 40
4.84999990E+00
  0
ARC
  8
0
 62
4
 10
-1.13687462E+02
 20
-1.66708377E+02
 40
1.38220959E+01
 50
1.93546337E+02
 51
2.85064738E+02
  0
ARC
  8
0
 62
4
 10
-1.13687462E+02
 20
-1.66708377E+02
 40
1.38220959E+01
 50
3.58994028E+02
 51
7.64536610E+01
  0
CIRCLE
  8
0
 62
4
 10
-1.55687462E+02
 20
-1.24708377E+02
 40
5.35000000E+01
  0
CIRCLE
  8
0
 62
4
 10
-1.13687462E+02
 20
-1.66708377E+02
 40
4.84999990E+00
  0
ARC
  8
0
 62
4
 10
-1.55687462E+02
 20
-5.81646147E+01
 40
1.31043747E+02
 50
2.50632457E+02
 51
2.89367689E+02
  0
ARC
  8
0
 62
4
 10
-1.83541100E+02
 20
-1.12190402E+02
 40
1.00000000E+02
 50
3.16516274E+02
 51
3.39807198E+02
  0
ARC
  8
0
 62
4
 10
-1.27833824E+02
 20
-1.37226352E+02
 40
1.00000000E+02
 50
1.36516261E+02
 51
1.59807193E+02
  0
ARC
  8
0
 62
4
 10
-1.13160851E+02
 20
-1.78940806E+02
 40
3.00000000E+00
 50
2.88084064E+02
 51
3.16516274E+02
  0
ARC
  8
0
 62
4
 10
-1.55687462E+02
 20
-1.91252131E+02
 40
1.31043747E+02
 50
7.06323113E+01
 51
1.09367544E+02
  0
ARC
  8
0
 62
4
 10
-1.98214073E+02
 20
-7.04759550E+01
 40
3.00000000E+00
 50
1.08083973E+02
 51
1.43900256E+02
  0
ARC
  8
0
 62
4
 10
-1.27833824E+02
 20
-1.12190402E+02
 40
1.00000000E+02
 50
2.00192862E+02
 51
2.23483738E+02
  0
ARC
  8
0
 62
4
 10
-1.13160851E+02
 20
-7.04759550E+01
 40
3.00000000E+00
 50
4.34837266E+01
 51
7.19159906E+01
  0
ARC
  8
0
 62
4
 10
-1.83541100E+02
 20
-1.37226352E+02
 40
1.00000000E+02
 50
2.01928054E+01
 51
4.34837266E+01
  0
ARC
  8
0
 62
4
 10
-1.98214073E+02
 20
-1.78940806E+02
 40
3.00000000E+00
 50
2.23483738E+02
 51
2.51916081E+02
  0
LINE
  8
0
 62
4
 10
-1.55687468E+02
 20
-6.12128786E+01
 11
-2.00368215E+02
 21
-6.83876860E+01
  0
LINE
  8
0
 62
4
 10
-1.55687472E+02
 20
-6.12128652E+01
 11
-1.11006725E+02
 21
-6.83876726E+01
  0
LINE
  8
0
 62
4
 10
-1.55687461E+02
 20
-1.88203884E+02
 11
-2.00368208E+02
 21
-1.81029076E+02
  0
LINE
  8
0
 62
4
 10
-1.55687452E+02
 20
-1.88203877E+02
 11
-1.11006720E+02
 21
-1.81029072E+02
  0
LINE
  8
0
  6
CENTER
 62
6
 10
-1.13687462E+02
 20
-9.40215788E+01
 11
-1.13687462E+02
 21
-6.87083769E+01
  0
LINE
  8
0
  6
CENTER
 62
6
 10
-1.23687462E+02
 20
-8.27083769E+01
 11
-9.96874619E+01
 21
-8.27083769E+01
  0
LINE
  8
0
 62
4
 10
-2.45687408E+02
 20
-1.12208364E+02
 11
-2.46687404E+02
 21
-1.13208370E+02
  0
LINE
  8
0
 62
4
 10
-6.66875992E+01
 20
-1.12208377E+02
 11
-6.56874619E+01
 21
-1.12208377E+02
  0
LINE
  8
0
 62
4
 10
-2.45687462E+02
 20
-1.37208377E+02
 11
-2.44687370E+02
 21
-1.37208377E+02
  0
LINE
  8
0
 62
4
 10
-2.45687462E+02
 20
-1.12208377E+02
 11
-2.44687370E+02
 21
-1.12208377E+02
  0
LINE
  8
0
 62
4
 10
-2.46687462E+02
 20
-1.13208377E+02
 11
-2.46687462E+02
 21
-1.36208377E+02
  0
LINE
  8
0
 62
4
 10
-6.46874619E+01
 20
-1.13208377E+02
 11
-6.46874619E+01
 21
-1.36208377E+02
  0
LINE
  8
0
 62
4
 10
-2.46687404E+02
 20
-1.36208384E+02
 11
-2.45687380E+02
 21
-1.37208405E+02
  0
LINE
  8
0
 62
4
 10
-2.45687462E+02
 20
-1.12208377E+02
 11
-2.45687462E+02
 21
-1.37208377E+02
  0
LINE
  8
0
 62
4
 10
-6.56874619E+01
 20
-1.37208377E+02
 11
-6.56874619E+01
 21
-1.12208377E+02
  0
LINE
  8
0
 62
4
 10
-6.56874434E+01
 20
-1.12208368E+02
 11
-6.46874259E+01
 21
-1.13208396E+02
  0
LINE
  8
0
 62
4
 10
-6.46874739E+01
 20
-1.36208372E+02
 11
-6.56874762E+01
 21
-1.37208372E+02
  0
LINE
  8
0
 62
4
 10
-6.66875992E+01
 20
-1.37208377E+02
 11
-6.56874619E+01
 21
-1.37208377E+02
  0
LINE
  8
0
  6
CENTER
 62
6
 10
-1.23687462E+02
 20
-1.66708377E+02
 11
-9.96874619E+01
 21
-1.66708377E+02
  0
LINE
  8
0
  6
CENTER
 62
6
 10
-1.13687462E+02
 20
-1.55395175E+02
 11
-1.13687462E+02
 21
-1.80708385E+02
  0
LINE
  8
0
  6
CENTER
 62
6
 10
-1.97687462E+02
 20
-1.56708377E+02
 11
-1.97687462E+02
 21
-1.80708385E+02
  0
LINE
  8
0
  6
CENTER
 62
6
 10
-1.55687462E+02
 20
-4.63347502E+01
 11
-1.55687462E+02
 21
-1.96487910E+02
  0
LINE
  8
0
  6
CENTER
 62
6
 10
-1.97687462E+02
 20
-6.87083769E+01
 11
-1.97687462E+02
 21
-9.27083769E+01
  0
LINE
  8
0
  6
CENTER
 62
6
 10
-5.79068833E+01
 20
-1.24708377E+02
 11
-2.54676659E+02
 21
-1.24708377E+02
  0
LINE
  8
0
  6
CENTER
 62
6
 10
-2.11687462E+02
 20
-8.27083769E+01
 11
-1.87902306E+02
 21
-8.27083769E+01
  0
LINE
  8
0
  6
CENTER
 62
6
 10
-2.11687462E+02
 20
-1.66708377E+02
 11
-1.87687462E+02
 21
-1.66708377E+02
  0
LINE
  8
0
  6
CENTER
 62
6
 10
-7.81875077E+01
 20
-2.00208377E+02
 11
-7.81875077E+01
 21
-1.75208377E+02
  0
LINE
  8
0
 62
4
 10
-6.66875992E+01
 20
-1.94708377E+02
 11
-6.66875992E+01
 21
-1.02708377E+02
  0
LINE
  8
0
 62
4
 10
-8.96875077E+01
 20
-1.94708377E+02
 11
-8.96875077E+01
 21
-1.02708377E+02
  0
LINE
  8
0
 62
4
 10
-8.96875077E+01
 20
-1.94708377E+02
 11
-6.66875992E+01
 21
-1.94708377E+02
  0
LINE
  8
0
 62
4
 10
-2.44687370E+02
 20
-1.02708377E+02
 11
-2.44687370E+02
 21
-1.94708377E+02
  0
LINE
  8
0
  6
CENTER
 62
6
 10
-2.33187370E+02
 20
-1.75208377E+02
 11
-2.33187370E+02
 21
-2.00208377E+02
  0
LINE
  8
0
 62
4
 10
-2.21687462E+02
 20
-1.02708377E+02
 11
-2.21687462E+02
 21
-1.94708377E+02
  0
LINE
  8
0
 62
4
 10
-2.44687370E+02
 20
-1.94708377E+02
 11
-2.21687462E+02
 21
-1.94708377E+02
  0
LINE
  8
0
 62
4
 10
-8.96875077E+01
 20
-1.02708377E+02
 11
-6.66875992E+01
 21
-1.02708377E+02
  0
LINE
  8
0
  6
CENTER
 62
6
 10
-7.61384354E+01
 20
-1.17334704E+02
 11
-7.61384354E+01
 21
-9.73347044E+01
  0
LINE
  8
0
  6
CENTER
 62
6
 10
-2.35236443E+02
 20
-9.73347044E+01
 11
-2.35236443E+02
 21
-1.17334704E+02
  0
LINE
  8
0
 62
4
 10
-8.96875077E+01
 20
-1.80708377E+02
 11
-6.66875992E+01
 21
-1.80708377E+02
  0
LINE
  8
0
 62
4
 10
-2.44687370E+02
 20
-1.80708377E+02
 11
-2.21687462E+02
 21
-1.80708377E+02
  0
LINE
  8
0
 62
4
 10
-2.44687370E+02
 20
-1.02708377E+02
 11
-2.21687462E+02
 21
-1.02708377E+02
  0
ARC
  8
0
 62
4
 10
1.10511548E+02
 20
8.07281783E+01
 40
1.50000000E+00
 50
2.69999850E+02
 51
3.57449058E+02
  0
ARC
  8
0
 62
4
 10
1.09196119E+02
 20
9.37386154E+01
 40
1.00000000E+00
 50
2.69999358E+02
 51
3.56370820E+02
  0
ARC
  8
0
 62
4
 10
1.46019300E+02
 20
8.07281758E+01
 40
1.50000000E+00
 50
1.82550862E+02
 51
2.70000178E+02
  0
ARC
  8
0
 62
4
 10
1.47334731E+02
 20
9.37386128E+01
 40
1.00000000E+00
 50
1.83629103E+02
 51
2.70000724E+02
  0
ARC
  8
0
 62
4
 10
1.10511615E+02
 20
1.61873778E+02
 40
1.50000000E+00
 50
2.55089834E+00
 51
9.00001417E+01
  0
ARC
  8
0
 62
4
 10
1.09196123E+02
 20
1.48863341E+02
 40
1.00000000E+00
 50
3.62913847E+00
 51
9.00006339E+01
  0
ARC
  8
0
 62
4
 10
1.46019306E+02
 20
1.61873775E+02
 40
1.50000000E+00
 50
8.99997595E+01
 51
1.77449130E+02
  0
ARC
  8
0
 62
4
 10
1.47334796E+02
 20
1.48863338E+02
 40
1.00000000E+00
 50
8.99992679E+01
 51
1.76370889E+02
  0
LINE
  8
0
 62
6
 10
1.15765451E+02
 20
3.13009929E+01
 11
1.40765452E+02
 21
3.13009911E+01
  0
LINE
  8
0
 62
4
 10
1.08265459E+02
 20
1.49863341E+02
 11
1.08265462E+02
 21
1.87300963E+02
  0
LINE
  8
0
 62
4
 10
1.10764277E+02
 20
6.56397122E+01
 11
1.09514840E+02
 21
5.53010568E+01
  0
LINE
  8
0
 62
4
 10
1.11946259E+02
 20
1.21300958E+02
 11
1.10194145E+02
 21
9.36753130E+01
  0
LINE
  8
0
 62
4
 10
1.12010106E+02
 20
8.06614123E+01
 11
1.13820572E+02
 21
1.21300974E+02
  0
LINE
  8
0
 62
4
 10
1.10764294E+02
 20
6.56396773E+01
 11
1.08265453E+02
 21
6.56396775E+01
  0
LINE
  8
0
 62
4
 10
1.09196119E+02
 20
9.27386154E+01
 11
1.08265455E+02
 21
9.27386155E+01
  0
LINE
  8
0
 62
4
 10
1.47016043E+02
 20
5.53010120E+01
 11
1.45766609E+02
 21
6.56396676E+01
  0
LINE
  8
0
 62
4
 10
1.46336759E+02
 20
9.36753398E+01
 11
1.44584651E+02
 21
1.21300986E+02
  0
LINE
  8
0
 62
4
 10
1.42710336E+02
 20
1.21300955E+02
 11
1.44520795E+02
 21
8.06613926E+01
  0
LINE
  8
0
 62
4
 10
1.48265454E+02
 20
6.56396747E+01
 11
1.45766614E+02
 21
6.56396749E+01
  0
LINE
  8
0
 62
4
 10
1.48265456E+02
 20
9.27386127E+01
 11
1.47334792E+02
 21
9.27386128E+01
  0
LINE
  8
0
 62
4
 10
1.09514855E+02
 20
1.87300910E+02
 11
1.10764289E+02
 21
1.76962254E+02
  0
LINE
  8
0
 62
4
 10
1.10194161E+02
 20
1.48926607E+02
 11
1.11946267E+02
 21
1.21300992E+02
  0
LINE
  8
0
 62
4
 10
1.13820564E+02
 20
1.21300981E+02
 11
1.12010108E+02
 21
1.61940482E+02
  0
LINE
  8
0
 62
4
 10
1.08265461E+02
 20
1.76962279E+02
 11
1.10764301E+02
 21
1.76962279E+02
  0
LINE
  8
0
 62
4
 10
1.08265459E+02
 20
1.49863341E+02
 11
1.09196123E+02
 21
1.49863341E+02
  0
LINE
  8
0
 62
4
 10
1.48265460E+02
 20
1.49863338E+02
 11
1.48265463E+02
 21
1.87300960E+02
  0
LINE
  8
0
 62
4
 10
1.45766561E+02
 20
1.76962299E+02
 11
1.47015997E+02
 21
1.87300955E+02
  0
LINE
  8
0
 62
4
 10
1.44584584E+02
 20
1.21300992E+02
 11
1.46336700E+02
 21
1.48926668E+02
  0
LINE
  8
0
 62
4
 10
1.44520806E+02
 20
1.61940528E+02
 11
1.42710340E+02
 21
1.21300935E+02
  0
LINE
  8
0
 62
4
 10
1.45766622E+02
 20
1.76962276E+02
 11
1.48265462E+02
 21
1.76962276E+02
  0
LINE
  8
0
 62
4
 10
1.47334796E+02
 20
1.49863338E+02
 11
1.48265460E+02
 21
1.49863338E+02
  0
LINE
  8
0
  6
CENTER
 62
6
 10
1.28265450E+02
 20
2.13009920E+01
 11
1.28265464E+02
 21
2.21300961E+02
  0
LINE
  8
0
 62
4
 10
1.40765464E+02
 20
2.10300878E+02
 11
1.40765464E+02
 21
2.11300900E+02
  0
LINE
  8
0
 62
4
 10
1.15765463E+02
 20
2.10301106E+02
 11
1.15765463E+02
 21
2.11300962E+02
  0
LINE
  8
0
 62
4
 10
1.39765425E+02
 20
2.12300958E+02
 11
1.40765440E+02
 21
2.11300927E+02
  0
LINE
  8
0
 62
4
 10
1.15765452E+02
 20
2.11300994E+02
 11
1.16765483E+02
 21
2.12301008E+02
  0
LINE
  8
0
 62
4
 10
1.39765405E+02
 20
3.03009776E+01
 11
1.40765420E+02
 21
3.13010083E+01
  0
LINE
  8
0
 62
4
 10
1.15765416E+02
 20
3.13010114E+01
 11
1.16765426E+02
 21
3.03010191E+01
  0
LINE
  8
0
 62
4
 10
1.40765452E+02
 20
3.13010522E+01
 11
1.40765452E+02
 21
3.23009240E+01
  0
LINE
  8
0
 62
4
 10
1.15765451E+02
 20
3.13009929E+01
 11
1.15765451E+02
 21
3.23011516E+01
  0
LINE
  8
0
 62
4
 10
1.08265453E+02
 20
5.53009934E+01
 11
1.08265455E+02
 21
9.27386155E+01
  0
LINE
  8
0
 62
4
 10
1.48265453E+02
 20
5.53009906E+01
 11
1.48265456E+02
 21
9.27386127E+01
  0
LINE
  8
0
 62
4
 10
1.08265462E+02
 20
1.87300963E+02
 11
1.48265463E+02
 21
1.87300960E+02
  0
LINE
  8
0
 62
4
 10
1.16765463E+02
 20
2.12300962E+02
 11
1.39765464E+02
 21
2.12300961E+02
  0
LINE
  8
0
 62
4
 10
1.08265453E+02
 20
5.53009934E+01
 11
1.48265453E+02
 21
5.53009906E+01
  0
LINE
  8
0
 62
4
 10
1.16765451E+02
 20
3.03009928E+01
 11
1.39765452E+02
 21
3.03009912E+01
  0
LINE
  8
0
 62
6
 10
1.15765463E+02
 20
2.11300962E+02
 11
1.40765464E+02
 21
2.11300961E+02
  0
LINE
  8
0
  6
CENTER
 62
6
 10
1.53923494E+02
 20
1.63300960E+02
 11
1.02660419E+02
 21
1.63300963E+02
  0
LINE
  8
0
  6
CENTER
 62
6
 10
1.54661087E+02
 20
7.93009291E+01
 11
1.01922814E+02
 21
7.93009328E+01
  0
CIRCLE
  8
0
 62
4
 10
1.28266163E+02
 20
1.98800992E+02
 40
4.00000000E+00
  0
CIRCLE
  8
0
 62
4
 10
1.28266163E+02
 20
1.98800992E+02
 40
2.00000000E+00
  0
CIRCLE
  8
0
 62
4
 10
8.57661626E+01
 20
1.98801379E+02
 40
7.00000000E+00
  0
ARC
  8
0
 62
4
 10
8.57661626E+01
 20
1.98801379E+02
 40
1.40000000E+01
 50
1.24771407E+02
 51
2.35227532E+02
  0
ARC
  8
0
 62
4
 10
8.57661626E+01
 20
1.98801379E+02
 40
1.40000000E+01
 50
3.04771412E+02
 51
5.52275309E+01
  0
CIRCLE
  8
0
 62
4
 10
1.70766012E+02
 20
1.98800605E+02
 40
7.00000000E+00
  0
ARC
  8
0
 62
4
 10
1.70766012E+02
 20
1.98800605E+02
 40
1.40000000E+01
 50
1.24771462E+02
 51
2.35227532E+02
  0
ARC
  8
0
 62
4
 10
8.57647517E+01
 20
4.38014094E+01
 40
1.40000000E+01
 50
1.24771407E+02
 51
2.35227532E+02
  0
CIRCLE
  8
0
 62
4
 10
1.28264752E+02
 20
4.38010225E+01
 40
4.00000000E+00
  0
ARC
  8
0
 62
4
 10
1.70764601E+02
 20
4.38006357E+01
 40
1.40000000E+01
 50
1.24771407E+02
 51
2.35227478E+02
  0
CIRCLE
  8
0
 62
4
 10
8.57647517E+01
 20
4.38014094E+01
 40
7.00000000E+00
  0
CIRCLE
  8
0
 62
4
 10
1.28264752E+02
 20
4.38010225E+01
 40
2.00000000E+00
  0
ARC
  8
0
 62
4
 10
1.70764601E+02
 20
4.38006357E+01
 40
1.40000000E+01
 50
3.04771426E+02
 51
5.52275480E+01
  0
ARC
  8
0
 62
4
 10
8.57647517E+01
 20
4.38014094E+01
 40
1.40000000E+01
 50
3.04771426E+02
 51
5.52275480E+01
  0
CIRCLE
  8
0
 62
4
 10
1.70764601E+02
 20
4.38006357E+01
 40
7.00000000E+00
  0
ARC
  8
0
 62
4
 10
1.70766012E+02
 20
1.98800605E+02
 40
1.40000000E+01
 50
3.04771412E+02
 51
5.52275309E+01
  0
LINE
  8
0
  6
CENTER
 62
6
 10
1.70764760E+02
 20
6.13006357E+01
 11
1.70764442E+02
 21
2.63006509E+01
  0
LINE
  8
0
 62
4
 10
6.77649784E+01
 20
5.53015732E+01
 11
6.77647691E+01
 21
3.23015885E+01
  0
LINE
  8
0
  6
CENTER
 62
6
 10
8.57645924E+01
 20
2.63014247E+01
 11
8.57649110E+01
 21
6.13014094E+01
  0
LINE
  8
0
  6
CENTER
 62
6
 10
1.28264592E+02
 20
2.63010378E+01
 11
1.28266322E+02
 21
2.16300992E+02
  0
LINE
  8
0
 62
4
 10
1.05964985E+02
 20
1.88801164E+02
 11
1.05965167E+02
 21
2.08801164E+02
  0
LINE
  8
0
 62
4
 10
1.05963756E+02
 20
5.38012255E+01
 11
1.05963574E+02
 21
3.38012408E+01
  0
LINE
  8
0
  6
CENTER
 62
6
 10
1.20764752E+02
 20
4.38010908E+01
 11
1.35764599E+02
 21
4.38009543E+01
  0
LINE
  8
0
  6
CENTER
 62
6
 10
1.53264754E+02
 20
4.38007950E+01
 11
1.90764631E+02
 21
4.38004536E+01
  0
LINE
  8
0
 62
4
 10
1.88765938E+02
 20
1.87300441E+02
 11
6.77661800E+01
 21
1.87301543E+02
  0
LINE
  8
0
  6
CENTER
 62
6
 10
1.03266163E+02
 20
1.98801220E+02
 11
6.57661626E+01
 21
1.98801561E+02
  0
LINE
  8
0
 62
4
 10
1.88766147E+02
 20
2.10300441E+02
 11
1.88765938E+02
 21
1.87300441E+02
  0
LINE
  8
0
  6
CENTER
 62
6
 10
1.70766171E+02
 20
2.16300605E+02
 11
1.70765852E+02
 21
1.81300605E+02
  0
LINE
  8
0
  6
CENTER
 62
6
 10
1.90766042E+02
 20
1.98800423E+02
 11
1.53266012E+02
 21
1.98800764E+02
  0
LINE
  8
0
  6
CENTER
 62
6
 10
8.57660033E+01
 20
1.81301379E+02
 11
8.57663219E+01
 21
2.16301379E+02
  0
LINE
  8
0
  6
CENTER
 62
6
 10
1.35766010E+02
 20
1.98800924E+02
 11
1.20766163E+02
 21
1.98801060E+02
  0
LINE
  8
0
 62
4
 10
1.50565931E+02
 20
5.38008195E+01
 11
1.50565749E+02
 21
3.38008348E+01
  0
LINE
  8
0
 62
4
 10
1.50567160E+02
 20
1.88800758E+02
 11
1.50567342E+02
 21
2.08800758E+02
  0
LINE
  8
0
  6
CENTER
 62
6
 10
6.46654815E+01
 20
1.21301571E+02
 11
1.90798784E+02
 21
1.21300423E+02
  0
LINE
  8
0
 62
4
 10
6.77649784E+01
 20
5.53015732E+01
 11
1.88764736E+02
 21
5.53004718E+01
  0
LINE
  8
0
 62
4
 10
6.77647691E+01
 20
3.23015885E+01
 11
1.88764527E+02
 21
3.23004871E+01
  0
LINE
  8
0
  6
CENTER
 62
6
 10
6.57647517E+01
 20
4.38015914E+01
 11
1.03264752E+02
 21
4.38012501E+01
  0
LINE
  8
0
 62
4
 10
1.88764736E+02
 20
5.53004718E+01
 11
1.88764527E+02
 21
3.23004871E+01
  0
LINE
  8
0
 62
4
 10
1.88766147E+02
 20
2.10300441E+02
 11
6.77663893E+01
 21
2.10301543E+02
  0
LINE
  8
0
 62
4
 10
6.77663893E+01
 20
2.10301543E+02
 11
6.77661800E+01
 21
1.87301543E+02
  0
TEXT
  8
0
 62
7
 10
-3.91900291E+02
 20
2.63100000E+02
 40
6.30000019E+00
  1
NEW DYNA CYLINDER
 41
1.07594953E+00
  7
MONOTXT
  0
TEXT
  8
0
 62
7
 10
-3.85600562E+02
 20
2.38100000E+02
 40
6.30000019E+00
  1
MODEL:DDA100-11T
 41
1.00000015E+00
  7
MONOTXT
  0
LINE
  8
0
 62
7
 10
2.79799927E+02
 20
-2.56750000E+02
 11
3.99799805E+02
 21
-2.56750000E+02
  0
LINE
  8
0
 62
7
 10
2.79799927E+02
 20
-2.56750000E+02
 11
2.79799927E+02
 21
-2.76750000E+02
  0
TEXT
  8
0
 62
7
 10
2.87585240E+02
 20
-2.71250000E+02
 40
9.00000000E+00
  1
KOGANEI CORP.
 41
1.04838710E+00
  7
MONOTXT
  0
TEXT
  8
0
 62
7
 10
3.15499641E+02
 20
2.63100000E+02
 40
6.30000019E+00
  1
Ver. 1.0
 41
1.08108124E+00
  7
MONOTXT
  0
LINE
  8
0
 62
7
 10
2.79799927E+02
 20
2.56250000E+02
 11
3.99799805E+02
 21
2.56250000E+02
  0
LINE
  8
0
 62
7
 10
2.79799927E+02
 20
2.76250000E+02
 11
2.79799927E+02
 21
2.56250000E+02
  0
LINE
  8
0
 62
7
 10
-3.99250000E+02
 20
2.56250000E+02
 11
-2.79250000E+02
 21
2.56250000E+02
  0
LINE
  8
0
 62
7
 10
-2.79250000E+02
 20
2.76250000E+02
 11
-2.79250000E+02
 21
2.56250000E+02
  0
LINE
  8
0
 62
7
 10
-3.99250000E+02
 20
-2.76750000E+02
 11
3.99799805E+02
 21
-2.76750000E+02
  0
LINE
  8
0
 62
7
 10
-3.99250000E+02
 20
2.76250000E+02
 11
3.99799805E+02
 21
2.76250000E+02
  0
LINE
  8
0
 62
7
 10
-3.99250000E+02
 20
2.76250000E+02
 11
-3.99250000E+02
 21
-2.76750000E+02
  0
LINE
  8
0
 62
7
 10
3.99799805E+02
 20
2.76250000E+02
 11
3.99799805E+02
 21
-2.76750000E+02
  0
ENDSEC
  0
EOF
