  0
SECTION
  2
HEADER
  9
$ACADVER
  1
AC1003
  9
$EXTMIN
 10
-2.81250000E+02
 20
-1.95000000E+02
  9
$EXTMAX
 10
2.82099854E+02
 20
1.95500000E+02
  9
$LIMMIN
 10
-2.81251000E+02
 20
-1.95001000E+02
  9
$LIMMAX
 10
2.82100854E+02
 20
1.95501000E+02
  9
$SNAPUNIT
 10
1
 20
1
  9
$SNAPBASE
 10
0
 20
0
  9
$GRIDMODE
 70
0
  9
$GRIDUNIT
 10
0
 20
0
  9
$LTSCALE
 40
9.38916423E+00
  9
$TEXTSIZE
 40
3.2
  9
$DIMTAD
 70
0
  9
$LUNITS
 70
2
  9
$LUPREC
 70
4
  9
$FILLETRAD
 40
0
  9
$AUNITS
 70
0
  9
$AUPREC
 70
0
  0
ENDSEC
  0
SECTION
  2
TABLES
  0
TABLE
  2
LTYPE
 70
2
  0
LTYPE
  2
CONTINUOUS
 70
64
  3
Solid-Line
 72
65
 73
0
 40
0
  0
LTYPE
  2
DASHED
 70
64
  3
DASHED
 72
65
 73
2
 40
.75
 49
.5
 49
-.25
  0
LTYPE
  2
HIDDEN
 70
64
  3
HIDDEN
 72
65
 73
2
 40
.375
 49
.25
 49
-.125
  0
LTYPE
  2
CENTER
 70
64
  3
CENTER
 72
65
 73
4
 40
2
 49
1.25
 49
-.25
 49
.25
 49
-.25
  0
LTYPE
  2
PHANTOM
 70
64
  3
PHANTOM
 72
65
 73
6
 40
2.5
 49
1.25
 49
-.25
 49
.25
 49
-.25
 49
.25
 49
-.25
  0
ENDTAB
  0
TABLE
  2
LAYER
 70
1
  0
LAYER
  2
1
 70
0
 62
7
  6
CONTINUOUS
 0
ENDTAB
  0
TABLE
  2
STYLE
 70
2
  0
STYLE
  2
MONOTXT
 70
0
 40
0
 41
1
 50
0
 71
0
 42
.2
  3
monotxt
  0
STYLE
  2
BIGFONT
 70
0
 40
0
 41
1
 50
0
 71
0
 42
.2
  3
txt
  4
bigfont
  0
ENDTAB
  0
ENDSEC
  0
SECTION
  2
ENTITIES
  0
LINE
  8
0
  6
CENTER
 62
6
 10
8.81544639E+01
 20
-1.28685634E+02
 11
4.95669852E+01
 21
-1.28685634E+02
  0
LINE
  8
0
 62
4
 10
7.97986747E+01
 20
-1.19435634E+02
 11
8.07986747E+01
 21
-1.19435634E+02
  0
LINE
  8
0
 62
4
 10
7.97986747E+01
 20
-1.13685634E+02
 11
7.97986747E+01
 21
-1.19435634E+02
  0
LINE
  8
0
  6
CENTER
 62
6
 10
9.37986747E+01
 20
-1.24962078E+02
 11
9.37986747E+01
 21
-1.49467540E+02
  0
LINE
  8
0
 62
4
 10
5.77986747E+01
 20
-1.13685634E+02
 11
7.97986747E+01
 21
-1.13685634E+02
  0
LINE
  8
0
 62
4
 10
1.11798621E+02
 20
-1.43685613E+02
 11
1.08545703E+02
 21
-1.30447004E+02
  0
LINE
  8
0
 62
4
 10
5.77986747E+01
 20
-1.31685634E+02
 11
5.77986747E+01
 21
-1.43685634E+02
  0
LINE
  8
0
 62
4
 10
5.87986747E+01
 20
-1.30685634E+02
 11
7.97986747E+01
 21
-1.30685634E+02
  0
LINE
  8
0
 62
4
 10
5.57986747E+01
 20
-1.43685634E+02
 11
1.11798614E+02
 21
-1.43685634E+02
  0
LINE
  8
0
 62
4
 10
5.57986747E+01
 20
-1.15685634E+02
 11
5.57986747E+01
 21
-1.43685634E+02
  0
LINE
  8
0
 62
4
 10
7.77986747E+01
 20
-1.29685634E+02
 11
1.07574615E+02
 21
-1.29685634E+02
  0
LINE
  8
0
 62
4
 10
8.07986747E+01
 20
-1.29685634E+02
 11
8.07986747E+01
 21
-1.19435634E+02
  0
ARC
  8
0
 62
4
 10
5.87986747E+01
 20
-1.31685634E+02
 40
1.00000000E+00
 50
8.99999818E+01
 51
1.79999964E+02
  0
ARC
  8
0
 62
4
 10
1.07574615E+02
 20
-1.30685634E+02
 40
1.00000000E+00
 50
1.38049461E+01
 51
9.00001457E+01
  0
ARC
  8
0
 62
4
 10
7.97986747E+01
 20
-1.29685634E+02
 40
1.00000000E+00
 50
2.69999998E+02
 51
0.00000000E+00
  0
ARC
  8
0
 62
4
 10
5.77986747E+01
 20
-1.15685634E+02
 40
2.00000000E+00
 50
8.99999818E+01
 51
1.79999964E+02
  0
ARC
  8
0
 62
4
 10
7.77986747E+01
 20
-1.30685634E+02
 40
1.00000000E+00
 50
8.99999818E+01
 51
1.79999964E+02
  0
LINE
  8
0
  6
CENTER
 62
6
 10
-1.29201379E+02
 20
-9.77028766E+01
 11
-1.29201379E+02
 21
-1.53685634E+02
  0
LINE
  8
0
  6
CENTER
 62
6
 10
-1.71201379E+02
 20
-1.20574794E+02
 11
-1.71201379E+02
 21
-1.35821678E+02
  0
LINE
  8
0
  6
CENTER
 62
6
 10
-8.72013940E+01
 20
-1.21010418E+02
 11
-8.72013940E+01
 21
-1.35821678E+02
  0
LINE
  8
0
  6
CENTER
 62
6
 10
-1.79439629E+02
 20
-1.28685634E+02
 11
-1.63321496E+02
 21
-1.28685634E+02
  0
LINE
  8
0
 62
4
 10
-2.13201379E+02
 20
-1.43685634E+02
 11
-4.52013940E+01
 21
-1.43685634E+02
  0
LINE
  8
0
 62
4
 10
-2.13201379E+02
 20
-1.30685634E+02
 11
-2.13201379E+02
 21
-1.43685634E+02
  0
LINE
  8
0
 62
4
 10
-1.79151269E+02
 20
-1.13685634E+02
 11
-1.63251489E+02
 21
-1.13685634E+02
  0
LINE
  8
0
  6
CENTER
 62
6
 10
-1.99201379E+02
 20
-1.18533672E+02
 11
-1.99201379E+02
 21
-1.54103603E+02
  0
LINE
  8
0
 62
4
 10
-2.12201379E+02
 20
-1.29685634E+02
 11
-1.87007104E+02
 21
-1.29685634E+02
  0
LINE
  8
0
 62
4
 10
-1.88636567E+02
 20
-1.43685611E+02
 11
-1.84075302E+02
 21
-1.17817381E+02
  0
LINE
  8
0
 62
4
 10
-1.58327403E+02
 20
-1.17817373E+02
 11
-1.53766137E+02
 21
-1.43685603E+02
  0
LINE
  8
0
 62
4
 10
-1.53985040E+02
 20
-1.37685634E+02
 11
-1.04417748E+02
 21
-1.37685634E+02
  0
LINE
  8
0
 62
4
 10
-1.57511559E+02
 20
-1.17685634E+02
 11
-1.00891198E+02
 21
-1.17685634E+02
  0
LINE
  8
0
 62
4
 10
-4.52013940E+01
 20
-1.30685634E+02
 11
-4.52013940E+01
 21
-1.43685634E+02
  0
LINE
  8
0
 62
4
 10
-9.51512689E+01
 20
-1.13685634E+02
 11
-7.92515039E+01
 21
-1.13685634E+02
  0
LINE
  8
0
  6
CENTER
 62
6
 10
-5.92013940E+01
 20
-1.54103603E+02
 11
-5.92013940E+01
 21
-1.18533672E+02
  0
LINE
  8
0
 62
4
 10
-7.13956689E+01
 20
-1.29685634E+02
 11
-4.62013940E+01
 21
-1.29685634E+02
  0
LINE
  8
0
 62
4
 10
-7.43275166E+01
 20
-1.17817362E+02
 11
-6.97662501E+01
 21
-1.43685600E+02
  0
LINE
  8
0
 62
4
 10
-1.04636631E+02
 20
-1.43685599E+02
 11
-1.00075365E+02
 21
-1.17817368E+02
  0
LINE
  8
0
  6
CENTER
 62
6
 10
-9.49283074E+01
 20
-1.28685634E+02
 11
-8.01170587E+01
 21
-1.28685634E+02
  0
ARC
  8
0
 62
4
 10
-2.12201379E+02
 20
-1.30685634E+02
 40
1.00000000E+00
 50
8.99999818E+01
 51
1.79999964E+02
  0
ARC
  8
0
 62
4
 10
-1.79151269E+02
 20
-1.18685634E+02
 40
5.00000000E+00
 50
8.99999274E+01
 51
1.69999966E+02
  0
ARC
  8
0
 62
4
 10
-1.63251489E+02
 20
-1.18685634E+02
 40
5.00000000E+00
 50
9.99999117E+00
 51
8.99999274E+01
  0
ARC
  8
0
 62
4
 10
-1.87007104E+02
 20
-1.28685634E+02
 40
1.00000000E+00
 50
2.70000892E+02
 51
3.50000152E+02
  0
ARC
  8
0
 62
4
 10
-1.57511559E+02
 20
-1.16685634E+02
 40
1.00000000E+00
 50
1.90000034E+02
 51
2.70000018E+02
  0
ARC
  8
0
 62
4
 10
-1.53985040E+02
 20
-1.36685634E+02
 40
1.00000000E+00
 50
1.90000034E+02
 51
2.70000073E+02
  0
ARC
  8
0
 62
4
 10
-4.62013940E+01
 20
-1.30685634E+02
 40
1.00000000E+00
 50
3.59721781E-05
 51
9.00000162E+01
  0
ARC
  8
0
 62
4
 10
-7.92515039E+01
 20
-1.18685634E+02
 40
5.00000000E+00
 50
1.00000321E+01
 51
9.00000369E+01
  0
ARC
  8
0
 62
4
 10
-9.51512689E+01
 20
-1.18685634E+02
 40
5.00000000E+00
 50
9.00000369E+01
 51
1.69999966E+02
  0
ARC
  8
0
 62
4
 10
-7.13956689E+01
 20
-1.28685634E+02
 40
1.00000000E+00
 50
1.89999870E+02
 51
2.69999144E+02
  0
ARC
  8
0
 62
4
 10
-1.00891198E+02
 20
-1.16685634E+02
 40
1.00000000E+00
 50
2.70000018E+02
 51
3.49999968E+02
  0
ARC
  8
0
 62
4
 10
-1.04417748E+02
 20
-1.36685634E+02
 40
1.00000000E+00
 50
2.69999963E+02
 51
3.49999968E+02
  0
CIRCLE
  8
0
 62
4
 10
-1.71201379E+02
 20
-1.28685634E+02
 40
4.84999990E+00
  0
CIRCLE
  8
0
 62
4
 10
-8.72013940E+01
 20
-1.28685634E+02
 40
4.84999990E+00
  0
LINE
  8
0
  6
CENTER
 62
6
 10
8.25550261E+01
 20
9.03143811E+01
 11
4.27372733E+01
 21
9.03143811E+01
  0
LINE
  8
0
  6
CENTER
 62
6
 10
4.94862357E+01
 20
4.83143353E+01
 11
8.86396743E+01
 21
4.83143353E+01
  0
LINE
  8
0
 62
4
 10
8.07986747E+01
 20
1.47314381E+02
 11
8.07986747E+01
 21
3.33143963E+01
  0
LINE
  8
0
  6
CENTER
 62
6
 10
4.94862357E+01
 20
1.32314381E+02
 11
8.55973502E+01
 21
1.32314381E+02
  0
LINE
  8
0
 62
4
 10
1.05798614E+02
 20
1.47314381E+02
 11
8.07986136E+01
 21
1.47314381E+02
  0
LINE
  8
0
 62
4
 10
1.05798614E+02
 20
3.33143963E+01
 11
8.07986136E+01
 21
3.33143963E+01
  0
LINE
  8
0
 62
4
 10
5.57986136E+01
 20
1.14879139E+02
 11
5.77986136E+01
 21
1.14879139E+02
  0
LINE
  8
0
 62
4
 10
5.57986136E+01
 20
1.14879139E+02
 11
5.57986136E+01
 21
1.49749562E+02
  0
LINE
  8
0
 62
4
 10
5.57986136E+01
 20
1.49749562E+02
 11
5.82140189E+01
 21
1.49749562E+02
  0
LINE
  8
0
 62
4
 10
7.17951957E+01
 20
1.74314381E+02
 11
1.01647430E+02
 21
1.74314381E+02
  0
LINE
  8
0
 62
4
 10
6.01325980E+01
 20
1.48314381E+02
 11
7.76430961E+01
 21
1.48314381E+02
  0
LINE
  8
0
 62
4
 10
7.97986136E+01
 20
6.04594006E+01
 11
7.47517386E+01
 21
6.04594006E+01
  0
LINE
  8
0
 62
4
 10
5.89119814E+01
 20
6.53815620E+01
 11
7.23430234E+01
 21
6.09406742E+01
  0
LINE
  8
0
 62
4
 10
7.47517386E+01
 20
1.20169362E+02
 11
7.97986136E+01
 21
1.20169362E+02
  0
LINE
  8
0
  6
CENTER
 62
6
 10
9.37986136E+01
 20
1.03143963E+01
 11
9.37986136E+01
 21
3.03143963E+01
  0
LINE
  8
0
 62
4
 10
7.23430681E+01
 20
1.19688087E+02
 11
5.89120261E+01
 21
1.15247200E+02
  0
LINE
  8
0
 62
4
 10
1.09542680E+02
 20
1.30240460E+01
 11
1.11720049E+02
 21
2.63466183E+01
  0
LINE
  8
0
 62
4
 10
5.82353796E+01
 20
2.96814917E+01
 11
6.42063323E+01
 21
1.17827613E+01
  0
LINE
  8
0
 62
4
 10
5.77986136E+01
 20
6.57496228E+01
 11
5.77986136E+01
 21
1.14879139E+02
  0
LINE
  8
0
  6
CENTER
 62
6
 10
8.37986136E+01
 20
1.60314381E+02
 11
1.03798614E+02
 21
1.60314381E+02
  0
LINE
  8
0
 62
4
 10
1.01647430E+02
 20
6.31439631E+00
 11
7.17951957E+01
 21
6.31439631E+00
  0
LINE
  8
0
  6
CENTER
 62
6
 10
9.37986136E+01
 20
1.50314381E+02
 11
9.37986136E+01
 21
1.70314381E+02
  0
LINE
  8
0
 62
4
 10
5.57986136E+01
 20
3.08792156E+01
 11
5.57986136E+01
 21
6.57496228E+01
  0
LINE
  8
0
 62
4
 10
5.77986136E+01
 20
6.57496228E+01
 11
5.57986136E+01
 21
6.57496228E+01
  0
LINE
  8
0
 62
4
 10
7.76430961E+01
 20
3.23143963E+01
 11
6.01325980E+01
 21
3.23143963E+01
  0
LINE
  8
0
  6
CENTER
 62
6
 10
1.03798614E+02
 20
2.03143963E+01
 11
8.37986136E+01
 21
2.03143963E+01
  0
LINE
  8
0
 62
4
 10
5.82140189E+01
 20
3.08792156E+01
 11
5.57986136E+01
 21
3.08792156E+01
  0
LINE
  8
0
 62
4
 10
1.09542676E+02
 20
1.67604751E+02
 11
1.11720045E+02
 21
1.54282178E+02
  0
LINE
  8
0
 62
4
 10
6.42063075E+01
 20
1.68846044E+02
 11
5.82353547E+01
 21
1.50947314E+02
  0
LINE
  8
0
 62
4
 10
7.97986136E+01
 20
1.45473622E+02
 11
7.97986136E+01
 21
3.51551708E+01
  0
LINE
  8
0
 62
4
 10
8.07986747E+01
 20
3.51551708E+01
 11
7.97986136E+01
 21
3.51551708E+01
  0
LINE
  8
0
 62
4
 10
8.07986747E+01
 20
1.45473622E+02
 11
7.97986136E+01
 21
1.45473622E+02
  0
ARC
  8
0
 62
4
 10
7.76430961E+01
 20
1.50314381E+02
 40
2.00000000E+00
 50
2.70000052E+02
 51
3.17568655E+01
  0
ARC
  8
0
 62
4
 10
9.37986136E+01
 20
1.60314381E+02
 40
1.70000000E+01
 50
1.24560316E+02
 51
2.29880754E+02
  0
ARC
  8
0
 62
4
 10
9.37986136E+01
 20
2.03143963E+01
 40
1.70000000E+01
 50
1.30119243E+02
 51
2.35439681E+02
  0
ARC
  8
0
 62
4
 10
1.01647430E+02
 20
1.66314381E+02
 40
8.00000000E+00
 50
9.28204439E+00
 51
9.00000707E+01
  0
ARC
  8
0
 62
4
 10
1.01647430E+02
 20
1.43143963E+01
 40
8.00000000E+00
 50
2.69999984E+02
 51
3.50717956E+02
  0
CIRCLE
  8
0
 62
4
 10
9.37986136E+01
 20
2.03143963E+01
 40
7.00000000E+00
  0
ARC
  8
0
 62
4
 10
9.37986136E+01
 20
1.60314381E+02
 40
1.70000000E+01
 50
3.10119091E+02
 51
3.58753973E+02
  0
CIRCLE
  8
0
 62
4
 10
9.37986136E+01
 20
1.60314381E+02
 40
7.00000000E+00
  0
ARC
  8
0
 62
4
 10
7.17951957E+01
 20
1.66314381E+02
 40
8.00000000E+00
 50
9.00000162E+01
 51
1.61551486E+02
  0
ARC
  8
0
 62
4
 10
6.01325980E+01
 20
1.50314381E+02
 40
2.00000000E+00
 50
1.61551486E+02
 51
2.70000356E+02
  0
ARC
  8
0
 62
4
 10
1.05798614E+02
 20
2.73143963E+01
 40
6.00000000E+00
 50
3.50717959E+02
 51
9.00000162E+01
  0
ARC
  8
0
 62
4
 10
9.37986136E+01
 20
2.03143963E+01
 40
1.70000000E+01
 50
1.24602639E+00
 51
4.98809637E+01
  0
ARC
  8
0
 62
4
 10
7.17951957E+01
 20
1.43143963E+01
 40
8.00000000E+00
 50
1.98448514E+02
 51
2.69999984E+02
  0
ARC
  8
0
 62
4
 10
6.01325980E+01
 20
3.03143963E+01
 40
2.00000000E+00
 50
8.99996335E+01
 51
1.98448510E+02
  0
ARC
  8
0
 62
4
 10
7.76430961E+01
 20
3.03143963E+01
 40
2.00000000E+00
 50
3.28243210E+02
 51
9.00000162E+01
  0
ARC
  8
0
 62
4
 10
1.05798614E+02
 20
1.53314381E+02
 40
6.00000000E+00
 50
2.70000052E+02
 51
9.28204439E+00
  0
LINE
  8
0
 62
7
 10
-2.81250000E+02
 20
1.75500000E+02
 11
-1.61250000E+02
 21
1.75500000E+02
  0
LINE
  8
0
 62
7
 10
-1.61250000E+02
 20
1.95500000E+02
 11
-1.61250000E+02
 21
1.75500000E+02
  0
TEXT
  8
0
 62
7
 10
-2.73900291E+02
 20
1.82350000E+02
 40
6.30000019E+00
  1
NEW DYNA CYLINDER
 41
1.07594953E+00
  7
MONOTXT
  0
LINE
  8
0
 62
7
 10
1.62099976E+02
 20
-1.75000000E+02
 11
1.62099976E+02
 21
-1.95000000E+02
  0
LINE
  8
0
 62
7
 10
1.62099976E+02
 20
-1.75000000E+02
 11
2.82099854E+02
 21
-1.75000000E+02
  0
TEXT
  8
0
 62
7
 10
1.69885289E+02
 20
-1.89500000E+02
 40
9.00000000E+00
  1
KOGANEI CORP.
 41
1.04838710E+00
  7
MONOTXT
  0
TEXT
  8
0
 62
7
 10
1.97799690E+02
 20
1.82350000E+02
 40
6.30000019E+00
  1
Ver. 1.0
 41
1.08108124E+00
  7
MONOTXT
  0
LINE
  8
0
 62
7
 10
1.62099976E+02
 20
1.75500000E+02
 11
2.82099854E+02
 21
1.75500000E+02
  0
LINE
  8
0
 62
7
 10
1.62099976E+02
 20
1.95500000E+02
 11
1.62099976E+02
 21
1.75500000E+02
  0
LINE
  8
0
 62
7
 10
2.82099854E+02
 20
1.95500000E+02
 11
2.82099854E+02
 21
-1.95000000E+02
  0
LINE
  8
0
 62
7
 10
-2.81250000E+02
 20
1.95500000E+02
 11
2.82099854E+02
 21
1.95500000E+02
  0
LINE
  8
0
 62
7
 10
-2.81250000E+02
 20
1.95500000E+02
 11
-2.81250000E+02
 21
-1.95000000E+02
  0
LINE
  8
0
 62
7
 10
-2.81250000E+02
 20
-1.95000000E+02
 11
2.82099854E+02
 21
-1.95000000E+02
  0
TEXT
  8
0
 62
7
 10
-2.67600562E+02
 20
1.57350000E+02
 40
6.30000019E+00
  1
MODEL:DDA100-2
 41
1.00000015E+00
  7
MONOTXT
  0
ENDSEC
  0
EOF
