  0
SECTION
  2
HEADER
  9
$ACADVER
  1
AC1003
  9
$EXTMIN
 10
-2.81250000E+02
 20
-1.95000000E+02
  9
$EXTMAX
 10
2.82099854E+02
 20
1.95500000E+02
  9
$LIMMIN
 10
-2.81251000E+02
 20
-1.95001000E+02
  9
$LIMMAX
 10
2.82100854E+02
 20
1.95501000E+02
  9
$SNAPUNIT
 10
1
 20
1
  9
$SNAPBASE
 10
0
 20
0
  9
$GRIDMODE
 70
0
  9
$GRIDUNIT
 10
0
 20
0
  9
$LTSCALE
 40
9.38916423E+00
  9
$TEXTSIZE
 40
3.2
  9
$DIMTAD
 70
0
  9
$LUNITS
 70
2
  9
$LUPREC
 70
4
  9
$FILLETRAD
 40
0
  9
$AUNITS
 70
0
  9
$AUPREC
 70
0
  0
ENDSEC
  0
SECTION
  2
TABLES
  0
TABLE
  2
LTYPE
 70
2
  0
LTYPE
  2
CONTINUOUS
 70
64
  3
Solid-Line
 72
65
 73
0
 40
0
  0
LTYPE
  2
DASHED
 70
64
  3
DASHED
 72
65
 73
2
 40
.75
 49
.5
 49
-.25
  0
LTYPE
  2
HIDDEN
 70
64
  3
HIDDEN
 72
65
 73
2
 40
.375
 49
.25
 49
-.125
  0
LTYPE
  2
CENTER
 70
64
  3
CENTER
 72
65
 73
4
 40
2
 49
1.25
 49
-.25
 49
.25
 49
-.25
  0
LTYPE
  2
PHANTOM
 70
64
  3
PHANTOM
 72
65
 73
6
 40
2.5
 49
1.25
 49
-.25
 49
.25
 49
-.25
 49
.25
 49
-.25
  0
ENDTAB
  0
TABLE
  2
LAYER
 70
1
  0
LAYER
  2
1
 70
0
 62
7
  6
CONTINUOUS
 0
ENDTAB
  0
TABLE
  2
STYLE
 70
2
  0
STYLE
  2
MONOTXT
 70
0
 40
0
 41
1
 50
0
 71
0
 42
.2
  3
monotxt
  0
STYLE
  2
BIGFONT
 70
0
 40
0
 41
1
 50
0
 71
0
 42
.2
  3
txt
  4
bigfont
  0
ENDTAB
  0
ENDSEC
  0
SECTION
  2
ENTITIES
  0
CIRCLE
  8
0
 62
4
 10
-6.92500000E+01
 20
-9.00000000E+01
 40
1.00000000E+01
  0
CIRCLE
  8
0
 62
4
 10
-6.92500000E+01
 20
-9.00000000E+01
 40
9.00000000E+00
  0
ARC
  8
0
 62
4
 10
-8.42500000E+01
 20
-1.18534584E+02
 40
6.00000000E+00
 50
9.59467068E+01
 51
1.79999855E+02
  0
ARC
  8
0
 62
4
 10
-6.02500000E+01
 20
-9.79372635E+01
 40
1.20000000E+01
 50
2.75946708E+02
 51
0.00000000E+00
  0
ARC
  8
0
 62
4
 10
-8.42500000E+01
 20
-6.14654236E+01
 40
6.00000000E+00
 50
1.80000145E+02
 51
2.64053293E+02
  0
ARC
  8
0
 62
4
 10
-9.22500000E+01
 20
-3.70000000E+01
 40
2.00000000E+00
 50
0.00000000E+00
 51
8.99999818E+01
  0
ARC
  8
0
 62
4
 10
-9.22500000E+01
 20
-1.43000008E+02
 40
2.00000000E+00
 50
2.70000018E+02
 51
0.00000000E+00
  0
ARC
  8
0
 62
4
 10
-6.02500000E+01
 20
-8.20627441E+01
 40
1.20000000E+01
 50
0.00000000E+00
 51
8.40532913E+01
  0
LINE
  8
0
 62
4
 10
-1.01250000E+02
 20
-1.45000008E+02
 11
-9.22500000E+01
 21
-1.45000008E+02
  0
LINE
  8
0
 62
4
 10
-1.01250000E+02
 20
-3.50000000E+01
 11
-9.22500000E+01
 21
-3.50000000E+01
  0
LINE
  8
0
 62
4
 10
-8.48716246E+01
 20
-6.74331555E+01
 11
-5.90067725E+01
 21
-7.01273404E+01
  0
LINE
  8
0
 62
4
 10
-4.82500000E+01
 20
-8.20627441E+01
 11
-4.82500000E+01
 21
-9.79372635E+01
  0
LINE
  8
0
  6
CENTER
 62
6
 10
-6.92500000E+01
 20
-7.41024323E+01
 11
-6.92500000E+01
 21
-1.07670540E+02
  0
LINE
  8
0
 62
4
 10
-9.02500000E+01
 20
-3.70000000E+01
 11
-9.02500000E+01
 21
-1.43000008E+02
  0
LINE
  8
0
 62
4
 10
-8.48716211E+01
 20
-1.12566859E+02
 11
-5.90067387E+01
 21
-1.09872671E+02
  0
LINE
  8
0
  6
CENTER
 62
6
 10
-8.09171143E+01
 20
-4.79999695E+01
 11
-1.08078918E+02
 21
-4.79999695E+01
  0
LINE
  8
0
 62
4
 10
-1.01250000E+02
 20
-1.44880257E+02
 11
-1.01250000E+02
 21
-3.51197510E+01
  0
LINE
  8
0
  6
CENTER
 62
6
 10
-8.09171143E+01
 20
-1.32000008E+02
 11
-1.08078918E+02
 21
-1.32000008E+02
  0
LINE
  8
0
  6
CENTER
 62
6
 10
-1.15445129E+02
 20
-9.00000000E+01
 11
-4.26570129E+01
 21
-9.00000000E+01
  0
LINE
  8
0
 62
4
 10
7.52500004E+01
 20
-1.00000000E+02
 11
7.07500000E+01
 21
-1.00000000E+02
  0
LINE
  8
0
 62
4
 10
1.24750000E+02
 20
-1.00000000E+02
 11
9.27500004E+01
 21
-1.00000000E+02
  0
LINE
  8
0
 62
4
 10
1.24750000E+02
 20
-8.00000000E+01
 11
9.27500004E+01
 21
-8.00000000E+01
  0
LINE
  8
0
 62
4
 10
7.52500004E+01
 20
-8.00000000E+01
 11
7.07500000E+01
 21
-8.00000000E+01
  0
LINE
  8
0
 62
4
 10
1.46749998E+02
 20
-1.00000000E+02
 11
1.42250000E+02
 21
-1.00000000E+02
  0
LINE
  8
0
 62
4
 10
6.97499886E+01
 20
-9.89999991E+01
 11
7.07499897E+01
 21
-1.00000000E+02
  0
LINE
  8
0
 62
4
 10
1.47750004E+02
 20
-8.09999925E+01
 11
1.46750002E+02
 21
-7.99999915E+01
  0
LINE
  8
0
 62
4
 10
1.47749998E+02
 20
-9.90000000E+01
 11
1.47749998E+02
 21
-8.10000000E+01
  0
LINE
  8
0
 62
4
 10
1.46750003E+02
 20
-9.99999920E+01
 11
1.47750004E+02
 21
-9.89999908E+01
  0
LINE
  8
0
 62
4
 10
1.46749998E+02
 20
-8.00000000E+01
 11
1.42250000E+02
 21
-8.00000000E+01
  0
LINE
  8
0
 62
4
 10
1.46749998E+02
 20
-1.00000000E+02
 11
1.46749998E+02
 21
-8.00000000E+01
  0
LINE
  8
0
 62
4
 10
6.97500000E+01
 20
-9.90000000E+01
 11
6.97500000E+01
 21
-8.10000000E+01
  0
LINE
  8
0
 62
4
 10
6.97499951E+01
 20
-8.09999905E+01
 11
7.07499962E+01
 21
-7.99999895E+01
  0
LINE
  8
0
 62
4
 10
7.07500000E+01
 20
-1.00000000E+02
 11
7.07500000E+01
 21
-8.00000000E+01
  0
LINE
  8
0
  6
CENTER
 62
6
 10
4.57643398E+01
 20
-9.00000000E+01
 11
1.71352173E+02
 21
-9.00000000E+01
  0
LINE
  8
0
  6
CENTER
 62
6
 10
1.08750000E+02
 20
-2.30000000E+01
 11
1.08750000E+02
 21
-1.57000008E+02
  0
CIRCLE
  8
0
 62
4
 10
1.50750000E+02
 20
-1.32000008E+02
 40
4.84999990E+00
  0
CIRCLE
  8
0
 62
4
 10
1.50750000E+02
 20
-4.80000000E+01
 40
4.84999990E+00
  0
CIRCLE
  8
0
 62
4
 10
6.67500004E+01
 20
-4.80000000E+01
 40
4.84999990E+00
  0
CIRCLE
  8
0
 62
4
 10
6.67500004E+01
 20
-1.32000008E+02
 40
4.84999990E+00
  0
ARC
  8
0
 62
4
 10
1.25250000E+02
 20
-1.14794701E+02
 40
2.00000000E+00
 50
0.00000000E+00
 51
8.99999818E+01
  0
ARC
  8
0
 62
4
 10
1.25250000E+02
 20
-6.52053223E+01
 40
2.00000000E+00
 50
2.70000018E+02
 51
0.00000000E+00
  0
ARC
  8
0
 62
4
 10
9.22500004E+01
 20
-6.52053223E+01
 40
2.00000000E+00
 50
1.79999964E+02
 51
2.70000001E+02
  0
ARC
  8
0
 62
4
 10
9.22500004E+01
 20
-1.14794701E+02
 40
2.00000000E+00
 50
8.99999818E+01
 51
1.79999964E+02
  0
ARC
  8
0
 62
4
 10
1.25250000E+02
 20
-1.16500008E+02
 40
2.00000000E+00
 50
2.70000018E+02
 51
0.00000000E+00
  0
ARC
  8
0
 62
4
 10
9.22500004E+01
 20
-1.16500008E+02
 40
2.00000000E+00
 50
1.79999964E+02
 51
2.70000001E+02
  0
ARC
  8
0
 62
4
 10
1.25250000E+02
 20
-6.35000000E+01
 40
2.00000000E+00
 50
0.00000000E+00
 51
8.99999818E+01
  0
ARC
  8
0
 62
4
 10
9.22500004E+01
 20
-6.35000000E+01
 40
2.00000000E+00
 50
8.99999818E+01
 51
1.79999964E+02
  0
ARC
  8
0
 62
4
 10
6.67500004E+01
 20
-1.32000008E+02
 40
1.30000000E+01
 50
1.79999964E+02
 51
2.70000001E+02
  0
ARC
  8
0
 62
4
 10
1.50750000E+02
 20
-1.32000008E+02
 40
1.30000000E+01
 50
2.70000018E+02
 51
0.00000000E+00
  0
ARC
  8
0
 62
4
 10
1.50750000E+02
 20
-4.80000000E+01
 40
1.30000000E+01
 50
0.00000000E+00
 51
8.99999818E+01
  0
ARC
  8
0
 62
4
 10
6.67500004E+01
 20
-4.80000000E+01
 40
1.30000000E+01
 50
8.99999818E+01
 51
1.79999964E+02
  0
LINE
  8
0
 62
4
 10
1.42250000E+02
 20
-6.15000000E+01
 11
1.42250000E+02
 21
-1.18500008E+02
  0
LINE
  8
0
 62
4
 10
7.52500004E+01
 20
-6.15000000E+01
 11
7.52500004E+01
 21
-1.18500008E+02
  0
LINE
  8
0
 62
4
 10
1.24750000E+02
 20
-6.72053223E+01
 11
1.25250000E+02
 21
-6.72053223E+01
  0
LINE
  8
0
 62
6
 10
5.96665653E+01
 20
-9.00352173E+01
 11
5.96665653E+01
 21
-8.99999390E+01
  0
LINE
  8
0
 62
4
 10
1.24750000E+02
 20
-1.12794701E+02
 11
1.25250000E+02
 21
-1.12794701E+02
  0
LINE
  8
0
 62
4
 10
9.22500004E+01
 20
-1.18500008E+02
 11
1.25250000E+02
 21
-1.18500008E+02
  0
LINE
  8
0
 62
4
 10
9.22500004E+01
 20
-1.12794701E+02
 11
9.27500004E+01
 21
-1.12794701E+02
  0
LINE
  8
0
 62
4
 10
9.22500004E+01
 20
-6.15000000E+01
 11
1.25250000E+02
 21
-6.15000000E+01
  0
LINE
  8
0
 62
4
 10
9.22500004E+01
 20
-6.72053223E+01
 11
9.27500004E+01
 21
-6.72053223E+01
  0
LINE
  8
0
 62
4
 10
5.37500004E+01
 20
-4.80000000E+01
 11
5.37500004E+01
 21
-1.32000008E+02
  0
LINE
  8
0
 62
4
 10
1.63750000E+02
 20
-4.80000000E+01
 11
1.63750000E+02
 21
-1.32000008E+02
  0
LINE
  8
0
 62
4
 10
1.27250000E+02
 20
-6.35000000E+01
 11
1.27250000E+02
 21
-6.52053223E+01
  0
LINE
  8
0
 62
4
 10
6.67500004E+01
 20
-1.45000008E+02
 11
1.50750000E+02
 21
-1.45000008E+02
  0
LINE
  8
0
 62
4
 10
6.67500004E+01
 20
-3.50000000E+01
 11
1.50750000E+02
 21
-3.50000000E+01
  0
LINE
  8
0
  6
CENTER
 62
6
 10
1.50750000E+02
 20
-1.20686806E+02
 11
1.50750000E+02
 21
-1.46000008E+02
  0
LINE
  8
0
  6
CENTER
 62
6
 10
6.67500004E+01
 20
-1.22000008E+02
 11
6.67500004E+01
 21
-1.46000008E+02
  0
LINE
  8
0
 62
4
 10
1.27250000E+02
 20
-1.14794701E+02
 11
1.27250000E+02
 21
-1.16500008E+02
  0
LINE
  8
0
 62
4
 10
7.52500004E+01
 20
-6.65000000E+01
 11
9.07255863E+01
 21
-6.65000000E+01
  0
LINE
  8
0
 62
4
 10
7.52500004E+01
 20
-1.13500008E+02
 11
9.07255863E+01
 21
-1.13500008E+02
  0
LINE
  8
0
 62
4
 10
1.26774414E+02
 20
-6.65000000E+01
 11
1.42250000E+02
 21
-6.65000000E+01
  0
LINE
  8
0
 62
4
 10
1.26774414E+02
 20
-1.13500008E+02
 11
1.42250000E+02
 21
-1.13500008E+02
  0
LINE
  8
0
  6
CENTER
 62
6
 10
5.27500004E+01
 20
-4.80000000E+01
 11
7.65351566E+01
 21
-4.80000000E+01
  0
LINE
  8
0
  6
CENTER
 62
6
 10
5.27500004E+01
 20
-1.32000008E+02
 11
7.67500004E+01
 21
-1.32000008E+02
  0
LINE
  8
0
  6
CENTER
 62
6
 10
1.40750000E+02
 20
-4.80000000E+01
 11
1.64750000E+02
 21
-4.80000000E+01
  0
LINE
  8
0
  6
CENTER
 62
6
 10
1.40750000E+02
 20
-1.32000008E+02
 11
1.64750000E+02
 21
-1.32000008E+02
  0
LINE
  8
0
  6
CENTER
 62
6
 10
1.50750000E+02
 20
-3.40000000E+01
 11
1.50750000E+02
 21
-5.80000000E+01
  0
LINE
  8
0
  6
CENTER
 62
6
 10
6.67500004E+01
 20
-3.40000000E+01
 11
6.67500004E+01
 21
-5.80000000E+01
  0
LINE
  8
0
 62
4
 10
9.02500004E+01
 20
-6.35000000E+01
 11
9.02500004E+01
 21
-6.52053223E+01
  0
LINE
  8
0
 62
4
 10
9.02500004E+01
 20
-1.14794701E+02
 11
9.02500004E+01
 21
-1.16500008E+02
  0
LINE
  8
0
 62
4
 10
1.24750000E+02
 20
-6.72053223E+01
 11
1.24750000E+02
 21
-1.12794701E+02
  0
LINE
  8
0
 62
4
 10
9.27500004E+01
 20
-6.72053223E+01
 11
9.27500004E+01
 21
-1.12794701E+02
  0
LINE
  8
0
 62
4
 10
-5.92500000E+01
 20
7.40000000E+01
 11
-5.92500000E+01
 21
1.06000000E+02
  0
LINE
  8
0
 62
4
 10
-7.92500000E+01
 20
7.40000000E+01
 11
-7.92500000E+01
 21
1.06000000E+02
  0
LINE
  8
0
 62
4
 10
-5.92500000E+01
 20
1.23500000E+02
 11
-5.92500000E+01
 21
1.28000000E+02
  0
LINE
  8
0
 62
4
 10
-7.92500000E+01
 20
1.23500000E+02
 11
-7.92500000E+01
 21
1.28000000E+02
  0
LINE
  8
0
 62
4
 10
-7.82500000E+01
 20
5.10000000E+01
 11
-6.02500000E+01
 21
5.10000000E+01
  0
LINE
  8
0
 62
4
 10
-5.92500000E+01
 20
5.20000000E+01
 11
-5.92500000E+01
 21
5.65000000E+01
  0
LINE
  8
0
 62
4
 10
-7.82499951E+01
 20
1.28999995E+02
 11
-7.92499961E+01
 21
1.27999993E+02
  0
LINE
  8
0
 62
4
 10
-6.02500027E+01
 20
5.10000033E+01
 11
-5.92500016E+01
 21
5.20000044E+01
  0
LINE
  8
0
 62
4
 10
-7.92500021E+01
 20
5.20000036E+01
 11
-7.82500010E+01
 21
5.10000025E+01
  0
LINE
  8
0
 62
4
 10
-7.92500000E+01
 20
5.20000000E+01
 11
-5.92500000E+01
 21
5.20000000E+01
  0
LINE
  8
0
 62
4
 10
-7.82500000E+01
 20
1.29000000E+02
 11
-6.02500000E+01
 21
1.29000000E+02
  0
LINE
  8
0
 62
4
 10
-6.02500027E+01
 20
1.29000006E+02
 11
-5.92500016E+01
 21
1.28000004E+02
  0
LINE
  8
0
 62
4
 10
-7.92500000E+01
 20
1.28000000E+02
 11
-5.92500000E+01
 21
1.28000000E+02
  0
LINE
  8
0
 62
4
 10
-7.92500000E+01
 20
5.20000000E+01
 11
-7.92500000E+01
 21
5.65000000E+01
  0
ARC
  8
0
 62
4
 10
-8.82500000E+01
 20
1.06309875E+02
 40
2.00000000E+00
 50
3.59999709E+02
 51
8.48054863E+01
  0
ARC
  8
0
 62
4
 10
-8.82500000E+01
 20
7.36900635E+01
 40
2.00000000E+00
 50
2.75194459E+02
 51
2.55221468E-04
  0
ARC
  8
0
 62
4
 10
-9.22500000E+01
 20
1.43000000E+02
 40
2.00000000E+00
 50
3.59999982E+02
 51
8.99999274E+01
  0
ARC
  8
0
 62
4
 10
-9.22500000E+01
 20
3.70000000E+01
 40
2.00000000E+00
 50
2.70000018E+02
 51
3.59999982E+02
  0
ARC
  8
0
 62
4
 10
-8.62500000E+01
 20
5.25000000E+01
 40
4.00000000E+00
 50
8.99999274E+01
 51
1.80000005E+02
  0
ARC
  8
0
 62
4
 10
-8.62502441E+01
 20
1.27500000E+02
 40
4.00000000E+00
 50
1.80633044E+02
 51
2.70000018E+02
  0
ARC
  8
0
 62
4
 10
-5.02500000E+01
 20
5.85000000E+01
 40
2.00000000E+00
 50
2.70000018E+02
 51
3.59999982E+02
  0
ARC
  8
0
 62
4
 10
-5.02502441E+01
 20
1.21500000E+02
 40
2.00000000E+00
 50
3.59999982E+02
 51
8.99999274E+01
  0
LINE
  8
0
 62
4
 10
-8.62500000E+01
 20
7.40000000E+01
 11
-8.62500000E+01
 21
7.36900635E+01
  0
LINE
  8
0
 62
4
 10
-8.80688807E+01
 20
7.16982982E+01
 11
-9.02500107E+01
 21
7.15000137E+01
  0
LINE
  8
0
 62
4
 10
-8.80688775E+01
 20
1.08301732E+02
 11
-9.02499773E+01
 21
1.08500014E+02
  0
LINE
  8
0
  6
CENTER
 62
6
 10
-6.92500000E+01
 20
1.28371185E+02
 11
-6.92500000E+01
 21
5.19647217E+01
  0
LINE
  8
0
 62
4
 10
-8.62500000E+01
 20
1.06309875E+02
 11
-8.62500000E+01
 21
1.06000000E+02
  0
LINE
  8
0
 62
4
 10
-4.82500000E+01
 20
7.40000000E+01
 11
-4.82500000E+01
 21
5.85000000E+01
  0
LINE
  8
0
 62
4
 10
-5.02500000E+01
 20
1.23500000E+02
 11
-8.62500000E+01
 21
1.23500000E+02
  0
LINE
  8
0
 62
4
 10
-5.02500000E+01
 20
5.65000000E+01
 11
-8.62500000E+01
 21
5.65000000E+01
  0
LINE
  8
0
 62
4
 10
-4.82500000E+01
 20
1.06000000E+02
 11
-8.62500000E+01
 21
1.06000000E+02
  0
LINE
  8
0
 62
4
 10
-4.82500000E+01
 20
7.40000000E+01
 11
-8.62500000E+01
 21
7.40000000E+01
  0
LINE
  8
0
 62
4
 10
-9.02500000E+01
 20
1.43000000E+02
 11
-9.02500000E+01
 21
3.70000000E+01
  0
LINE
  8
0
 62
4
 10
-9.22500000E+01
 20
3.50000000E+01
 11
-1.01250000E+02
 21
3.50000000E+01
  0
LINE
  8
0
 62
4
 10
-9.22500000E+01
 20
1.45000000E+02
 11
-1.01250000E+02
 21
1.45000000E+02
  0
LINE
  8
0
 62
4
 10
-4.82500000E+01
 20
1.21500000E+02
 11
-4.82500000E+01
 21
1.06000000E+02
  0
LINE
  8
0
  6
CENTER
 62
6
 10
-8.34569092E+01
 20
1.32000000E+02
 11
-1.06603561E+02
 21
1.32000000E+02
  0
LINE
  8
0
 62
4
 10
-1.01250000E+02
 20
1.44880249E+02
 11
-1.01250000E+02
 21
3.51196289E+01
  0
LINE
  8
0
  6
CENTER
 62
6
 10
-8.16942444E+01
 20
4.79999390E+01
 11
-1.08560928E+02
 21
4.79999390E+01
  0
LINE
  8
0
  6
CENTER
 62
6
 10
-1.03471786E+02
 20
9.00000000E+01
 11
-4.00531311E+01
 21
9.00000000E+01
  0
LINE
  8
0
 62
7
 10
-2.81250000E+02
 20
-1.95000000E+02
 11
2.82099854E+02
 21
-1.95000000E+02
  0
LINE
  8
0
 62
7
 10
1.62099976E+02
 20
-1.75000000E+02
 11
1.62099976E+02
 21
-1.95000000E+02
  0
LINE
  8
0
 62
7
 10
1.62099976E+02
 20
-1.75000000E+02
 11
2.82099854E+02
 21
-1.75000000E+02
  0
TEXT
  8
0
 62
7
 10
1.69885289E+02
 20
-1.89500000E+02
 40
9.00000000E+00
  1
KOGANEI CORP.
 41
1.04838710E+00
  7
MONOTXT
  0
TEXT
  8
0
 62
7
 10
1.97799690E+02
 20
1.82350000E+02
 40
6.30000019E+00
  1
Ver. 1.0
 41
1.08108124E+00
  7
MONOTXT
  0
LINE
  8
0
 62
7
 10
1.62099976E+02
 20
1.75500000E+02
 11
2.82099854E+02
 21
1.75500000E+02
  0
LINE
  8
0
 62
7
 10
1.62099976E+02
 20
1.95500000E+02
 11
1.62099976E+02
 21
1.75500000E+02
  0
TEXT
  8
0
 62
7
 10
-2.73900291E+02
 20
1.82350000E+02
 40
6.30000019E+00
  1
NEW DYNA CYLINDER
 41
1.07594953E+00
  7
MONOTXT
  0
LINE
  8
0
 62
7
 10
-2.81250000E+02
 20
1.75500000E+02
 11
-1.61250000E+02
 21
1.75500000E+02
  0
LINE
  8
0
 62
7
 10
-1.61250000E+02
 20
1.95500000E+02
 11
-1.61250000E+02
 21
1.75500000E+02
  0
LINE
  8
0
 62
7
 10
2.82099854E+02
 20
1.95500000E+02
 11
2.82099854E+02
 21
-1.95000000E+02
  0
LINE
  8
0
 62
7
 10
-2.81250000E+02
 20
1.95500000E+02
 11
2.82099854E+02
 21
1.95500000E+02
  0
LINE
  8
0
 62
7
 10
-2.81250000E+02
 20
1.95500000E+02
 11
-2.81250000E+02
 21
-1.95000000E+02
  0
LINE
  8
0
 62
7
 10
-2.81250000E+02
 20
-1.95000000E+02
 11
2.82099854E+02
 21
-1.95000000E+02
  0
TEXT
  8
0
 62
7
 10
-2.67600562E+02
 20
1.57350000E+02
 40
6.30000019E+00
  1
MODEL:DDA100-7
 41
1.00000015E+00
  7
MONOTXT
  0
ENDSEC
  0
EOF
