  0
SECTION
  2
HEADER
  9
$ACADVER
  1
AC1003
  9
$EXTMIN
 10
-2.81250000E+02
 20
-1.95000000E+02
  9
$EXTMAX
 10
2.82099854E+02
 20
1.95500000E+02
  9
$LIMMIN
 10
-2.81251000E+02
 20
-1.95001000E+02
  9
$LIMMAX
 10
2.82100854E+02
 20
1.95501000E+02
  9
$SNAPUNIT
 10
1
 20
1
  9
$SNAPBASE
 10
0
 20
0
  9
$GRIDMODE
 70
0
  9
$GRIDUNIT
 10
0
 20
0
  9
$LTSCALE
 40
9.38916423E+00
  9
$TEXTSIZE
 40
3.2
  9
$DIMTAD
 70
0
  9
$LUNITS
 70
2
  9
$LUPREC
 70
4
  9
$FILLETRAD
 40
0
  9
$AUNITS
 70
0
  9
$AUPREC
 70
0
  0
ENDSEC
  0
SECTION
  2
TABLES
  0
TABLE
  2
LTYPE
 70
2
  0
LTYPE
  2
CONTINUOUS
 70
64
  3
Solid-Line
 72
65
 73
0
 40
0
  0
LTYPE
  2
DASHED
 70
64
  3
DASHED
 72
65
 73
2
 40
.75
 49
.5
 49
-.25
  0
LTYPE
  2
HIDDEN
 70
64
  3
HIDDEN
 72
65
 73
2
 40
.375
 49
.25
 49
-.125
  0
LTYPE
  2
CENTER
 70
64
  3
CENTER
 72
65
 73
4
 40
2
 49
1.25
 49
-.25
 49
.25
 49
-.25
  0
LTYPE
  2
PHANTOM
 70
64
  3
PHANTOM
 72
65
 73
6
 40
2.5
 49
1.25
 49
-.25
 49
.25
 49
-.25
 49
.25
 49
-.25
  0
ENDTAB
  0
TABLE
  2
LAYER
 70
1
  0
LAYER
  2
1
 70
0
 62
7
  6
CONTINUOUS
 0
ENDTAB
  0
TABLE
  2
STYLE
 70
2
  0
STYLE
  2
MONOTXT
 70
0
 40
0
 41
1
 50
0
 71
0
 42
.2
  3
monotxt
  0
STYLE
  2
BIGFONT
 70
0
 40
0
 41
1
 50
0
 71
0
 42
.2
  3
txt
  4
bigfont
  0
ENDTAB
  0
ENDSEC
  0
SECTION
  2
ENTITIES
  0
LINE
  8
0
  6
CENTER
 62
6
 10
-1.08851471E+02
 20
-9.00000000E+01
 11
-3.98521118E+01
 21
-9.00000000E+01
  0
LINE
  8
0
  6
CENTER
 62
6
 10
-7.63542480E+01
 20
-1.31999996E+02
 11
-1.07300705E+02
 21
-1.31999996E+02
  0
LINE
  8
0
 62
4
 10
-1.01250000E+02
 20
-1.44999998E+02
 11
-1.01250000E+02
 21
-3.49999924E+01
  0
LINE
  8
0
  6
CENTER
 62
6
 10
-7.73366699E+01
 20
-4.79999619E+01
 11
-1.06001083E+02
 21
-4.79999619E+01
  0
LINE
  8
0
 62
4
 10
-7.86038035E+01
 20
-6.07449468E+01
 11
-5.38961998E+01
 21
-7.21539530E+01
  0
LINE
  8
0
 62
4
 10
-7.86038040E+01
 20
-1.19255053E+02
 11
-5.38962003E+01
 21
-1.07846047E+02
  0
LINE
  8
0
 62
4
 10
-8.32500000E+01
 20
-1.42999966E+02
 11
-8.32500000E+01
 21
-1.21999905E+02
  0
LINE
  8
0
 62
4
 10
-4.92500000E+01
 20
-1.00583008E+02
 11
-4.92500000E+01
 21
-7.94169922E+01
  0
LINE
  8
0
 62
4
 10
-8.32500000E+01
 20
-5.80000153E+01
 11
-8.32500000E+01
 21
-3.69999924E+01
  0
LINE
  8
0
  6
CENTER
 62
6
 10
-6.92500000E+01
 20
-1.19999966E+02
 11
-6.92500000E+01
 21
-6.00000153E+01
  0
LINE
  8
0
 62
4
 10
-8.82500794E+01
 20
-6.30000037E+01
 11
-8.32500236E+01
 21
-5.79999571E+01
  0
LINE
  8
0
 62
4
 10
-8.82500000E+01
 20
-6.30000153E+01
 11
-1.01250000E+02
 21
-6.30000153E+01
  0
LINE
  8
0
 62
4
 10
-1.01250000E+02
 20
-1.16999966E+02
 11
-8.82500000E+01
 21
-1.16999966E+02
  0
LINE
  8
0
 62
4
 10
-8.52502441E+01
 20
-1.44999998E+02
 11
-1.01250000E+02
 21
-1.44999998E+02
  0
LINE
  8
0
 62
4
 10
-8.32499982E+01
 20
-1.21999988E+02
 11
-8.82500078E+01
 21
-1.16999987E+02
  0
LINE
  8
0
 62
4
 10
-8.52500000E+01
 20
-3.49999924E+01
 11
-1.01250000E+02
 21
-3.49999924E+01
  0
ARC
  8
0
 62
4
 10
-8.52502441E+01
 20
-1.42999996E+02
 40
2.00000000E+00
 50
2.69999963E+02
 51
3.59999964E+02
  0
ARC
  8
0
 62
4
 10
-8.52500000E+01
 20
-3.69999924E+01
 40
2.00000000E+00
 50
3.59999964E+02
 51
8.99999818E+01
  0
CIRCLE
  8
0
 62
4
 10
-6.92500000E+01
 20
-9.00000000E+01
 40
1.80000000E+01
  0
CIRCLE
  8
0
 62
4
 10
-6.92500000E+01
 20
-9.00000000E+01
 40
1.00000000E+01
  0
ARC
  8
0
 62
4
 10
-7.52500000E+01
 20
-5.34818726E+01
 40
8.00000000E+00
 50
1.79999995E+02
 51
2.45214355E+02
  0
ARC
  8
0
 62
4
 10
-7.52500000E+01
 20
-1.26518124E+02
 40
8.00000000E+00
 50
1.14785646E+02
 51
1.80000005E+02
  0
ARC
  8
0
 62
4
 10
-5.72500000E+01
 20
-1.00583008E+02
 40
8.00000000E+00
 50
2.94785648E+02
 51
0.00000000E+00
  0
ARC
  8
0
 62
4
 10
-5.72500000E+01
 20
-7.94169922E+01
 40
8.00000000E+00
 50
0.00000000E+00
 51
6.52143525E+01
  0
LINE
  8
0
 62
4
 10
1.21761047E+02
 20
-1.21999966E+02
 11
1.63750002E+02
 21
-1.21999966E+02
  0
LINE
  8
0
  6
CENTER
 62
6
 10
1.50750002E+02
 20
-1.45999998E+02
 11
1.50750002E+02
 21
-1.21999996E+02
  0
LINE
  8
0
  6
CENTER
 62
6
 10
1.64750002E+02
 20
-1.31999996E+02
 11
1.40964844E+02
 21
-1.31999996E+02
  0
LINE
  8
0
 62
4
 10
6.62963857E+01
 20
-3.64825036E+01
 11
1.08750060E+02
 21
-3.49999886E+01
  0
LINE
  8
0
 62
4
 10
5.37500019E+01
 20
-1.21999966E+02
 11
9.57389526E+01
 21
-1.21999966E+02
  0
LINE
  8
0
 62
4
 10
9.37500000E+01
 20
-1.01500000E+02
 11
1.23750000E+02
 21
-1.01500000E+02
  0
LINE
  8
0
 62
4
 10
1.63750002E+02
 20
-4.94746094E+01
 11
1.63750002E+02
 21
-6.03538666E+01
  0
LINE
  8
0
  6
CENTER
 62
6
 10
1.50750002E+02
 20
-5.80000000E+01
 11
1.50750002E+02
 21
-3.39999924E+01
  0
LINE
  8
0
 62
4
 10
1.08750076E+02
 20
-1.44999984E+02
 11
1.51203754E+02
 21
-1.43517469E+02
  0
LINE
  8
0
  6
CENTER
 62
6
 10
4.57643452E+01
 20
-9.00000000E+01
 11
1.71352175E+02
 21
-9.00000000E+01
  0
LINE
  8
0
 62
4
 10
9.57389526E+01
 20
-5.80000305E+01
 11
5.37500019E+01
 21
-5.80000305E+01
  0
LINE
  8
0
  6
CENTER
 62
6
 10
1.08750000E+02
 20
-2.29999924E+01
 11
1.08750000E+02
 21
-1.56999998E+02
  0
LINE
  8
0
 62
4
 10
1.63750002E+02
 20
-5.80000305E+01
 11
1.21761047E+02
 21
-5.80000305E+01
  0
LINE
  8
0
 62
4
 10
1.63750002E+02
 20
-1.19646130E+02
 11
1.63750002E+02
 21
-1.30525387E+02
  0
LINE
  8
0
 62
4
 10
1.23750000E+02
 20
-1.08000000E+02
 11
1.24750000E+02
 21
-1.08000000E+02
  0
LINE
  8
0
 62
4
 10
9.27500000E+01
 20
-1.08000000E+02
 11
9.37500000E+01
 21
-1.08000000E+02
  0
LINE
  8
0
 62
4
 10
9.27500000E+01
 20
-7.20000000E+01
 11
9.37500000E+01
 21
-7.20000000E+01
  0
LINE
  8
0
 62
4
 10
5.37500019E+01
 20
-1.19646130E+02
 11
5.37500019E+01
 21
-1.30525387E+02
  0
LINE
  8
0
 62
4
 10
6.62963176E+01
 20
-1.43517477E+02
 11
1.08749995E+02
 21
-1.44999992E+02
  0
LINE
  8
0
  6
CENTER
 62
6
 10
6.67500019E+01
 20
-1.21999996E+02
 11
6.67500019E+01
 21
-1.45999998E+02
  0
LINE
  8
0
 62
4
 10
1.23749992E+02
 20
-1.10523813E+02
 11
1.56029206E+02
 21
-1.11651028E+02
  0
LINE
  8
0
 62
4
 10
6.14708593E+01
 20
-6.83489638E+01
 11
9.37500733E+01
 21
-6.94761787E+01
  0
LINE
  8
0
  6
CENTER
 62
6
 10
1.40964844E+02
 20
-4.79999924E+01
 11
1.64750002E+02
 21
-4.79999924E+01
  0
LINE
  8
0
 62
4
 10
9.57500000E+01
 20
-5.80000000E+01
 11
1.21750000E+02
 21
-5.80000000E+01
  0
LINE
  8
0
 62
4
 10
1.08750072E+02
 20
-3.50000081E+01
 11
1.51203747E+02
 21
-3.64825231E+01
  0
LINE
  8
0
 62
4
 10
1.23750058E+02
 20
-6.94761822E+01
 11
1.56029274E+02
 21
-6.83489672E+01
  0
LINE
  8
0
 62
4
 10
6.14708658E+01
 20
-1.11651003E+02
 11
9.37500779E+01
 21
-1.10523788E+02
  0
LINE
  8
0
 62
4
 10
9.37500000E+01
 20
-7.85000000E+01
 11
1.23750000E+02
 21
-7.85000000E+01
  0
LINE
  8
0
 62
4
 10
9.37500000E+01
 20
-6.00000000E+01
 11
9.37500000E+01
 21
-1.19999996E+02
  0
LINE
  8
0
 62
4
 10
5.37500019E+01
 20
-4.94746094E+01
 11
5.37500019E+01
 21
-6.03538666E+01
  0
LINE
  8
0
 62
4
 10
1.23750000E+02
 20
-6.00000000E+01
 11
1.23750000E+02
 21
-1.19999996E+02
  0
LINE
  8
0
  6
CENTER
 62
6
 10
7.65352192E+01
 20
-1.31999996E+02
 11
5.27500019E+01
 21
-1.31999996E+02
  0
LINE
  8
0
 62
4
 10
1.24750000E+02
 20
-7.20000000E+01
 11
1.24750000E+02
 21
-1.08000000E+02
  0
LINE
  8
0
 62
4
 10
1.23750000E+02
 20
-7.20000000E+01
 11
1.24750000E+02
 21
-7.20000000E+01
  0
LINE
  8
0
 62
4
 10
9.57500000E+01
 20
-1.21999996E+02
 11
1.21750000E+02
 21
-1.21999996E+02
  0
LINE
  8
0
 62
4
 10
9.27500000E+01
 20
-7.20000000E+01
 11
9.27500000E+01
 21
-1.08000000E+02
  0
LINE
  8
0
  6
CENTER
 62
6
 10
5.27500019E+01
 20
-4.79999924E+01
 11
7.65352192E+01
 21
-4.79999924E+01
  0
LINE
  8
0
  6
CENTER
 62
6
 10
6.67500019E+01
 20
-3.39999924E+01
 11
6.67500019E+01
 21
-5.80000000E+01
  0
LINE
  8
0
 62
6
 10
5.96665668E+01
 20
-9.00352173E+01
 11
5.96665668E+01
 21
-8.99999390E+01
  0
LINE
  8
0
  6
DASHED
 62
4
 10
8.90000000E+01
 20
-5.79999390E+01
 11
9.25000000E+01
 21
-5.79999390E+01
  0
ARC
  8
0
 62
4
 10
1.50750002E+02
 20
-4.94746094E+01
 40
1.30000000E+01
 50
3.59999951E+02
 51
8.79999936E+01
  0
ARC
  8
0
 62
4
 10
6.17500019E+01
 20
-6.03538666E+01
 40
8.00000000E+00
 50
1.80000091E+02
 51
2.68000029E+02
  0
ARC
  8
0
 62
4
 10
6.17500019E+01
 20
-1.19646130E+02
 40
8.00000000E+00
 50
9.19999707E+01
 51
1.79999909E+02
  0
ARC
  8
0
 62
4
 10
6.67500019E+01
 20
-4.94746094E+01
 40
1.30000000E+01
 50
9.19999707E+01
 51
1.80000073E+02
  0
ARC
  8
0
 62
4
 10
9.57500000E+01
 20
-1.19999996E+02
 40
2.00000000E+00
 50
1.79999964E+02
 51
2.70000001E+02
  0
ARC
  8
0
 62
4
 10
1.50750002E+02
 20
-1.30525387E+02
 40
1.30000000E+01
 50
2.72000007E+02
 51
4.89622433E-05
  0
ARC
  8
0
 62
4
 10
1.21750000E+02
 20
-6.00000000E+01
 40
2.00000000E+00
 50
0.00000000E+00
 51
8.99999818E+01
  0
ARC
  8
0
 62
4
 10
9.57500000E+01
 20
-6.00000000E+01
 40
2.00000000E+00
 50
8.99999818E+01
 51
1.79999964E+02
  0
ARC
  8
0
 62
4
 10
1.21750000E+02
 20
-1.19999996E+02
 40
2.00000000E+00
 50
2.70000018E+02
 51
0.00000000E+00
  0
ARC
  8
0
 62
4
 10
6.67500019E+01
 20
-1.30525387E+02
 40
1.30000000E+01
 50
1.79999909E+02
 51
2.68000012E+02
  0
ARC
  8
0
 62
4
 10
1.55750002E+02
 20
-1.19646130E+02
 40
8.00000000E+00
 50
8.66060709E-05
 51
8.79999936E+01
  0
ARC
  8
0
 62
4
 10
1.55750002E+02
 20
-6.03538666E+01
 40
8.00000000E+00
 50
2.72000007E+02
 51
3.59999914E+02
  0
CIRCLE
  8
0
 62
4
 10
6.67500019E+01
 20
-1.31999996E+02
 40
4.84999990E+00
  0
CIRCLE
  8
0
 62
4
 10
6.67500019E+01
 20
-4.79999924E+01
 40
4.84999990E+00
  0
CIRCLE
  8
0
 62
4
 10
1.50750002E+02
 20
-4.79999924E+01
 40
4.84999990E+00
  0
CIRCLE
  8
0
 62
4
 10
1.50750002E+02
 20
-1.31999996E+02
 40
4.84999990E+00
  0
LINE
  8
0
  6
CENTER
 62
6
 10
-1.13195206E+02
 20
9.00000000E+01
 11
-4.49293823E+01
 21
9.00000000E+01
  0
LINE
  8
0
  6
CENTER
 62
6
 10
-7.68453979E+01
 20
4.79999390E+01
 11
-1.08565186E+02
 21
4.79999390E+01
  0
LINE
  8
0
 62
4
 10
-1.01250000E+02
 20
1.45000000E+02
 11
-1.01250000E+02
 21
3.50000000E+01
  0
LINE
  8
0
  6
CENTER
 62
6
 10
-7.58629761E+01
 20
1.32000000E+02
 11
-1.06096985E+02
 21
1.32000000E+02
  0
LINE
  8
0
  6
CENTER
 62
6
 10
-6.92500000E+01
 20
1.10000000E+02
 11
-6.92500000E+01
 21
7.00000000E+01
  0
LINE
  8
0
 62
4
 10
-5.12500000E+01
 20
7.50000000E+01
 11
-5.12500000E+01
 21
7.45000000E+01
  0
LINE
  8
0
 62
4
 10
-5.12500171E+01
 20
7.45000329E+01
 11
-5.17499982E+01
 21
7.40000345E+01
  0
LINE
  8
0
 62
4
 10
-5.12500170E+01
 20
1.05499972E+02
 11
-5.17499981E+01
 21
1.05999970E+02
  0
LINE
  8
0
 62
4
 10
-5.12500000E+01
 20
1.05500000E+02
 11
-5.12500000E+01
 21
1.05000000E+02
  0
LINE
  8
0
 62
4
 10
-5.17500000E+01
 20
7.40000000E+01
 11
-8.05666504E+01
 21
7.40000000E+01
  0
LINE
  8
0
 62
4
 10
-5.12500000E+01
 20
7.50000000E+01
 11
-7.72500000E+01
 21
7.50000000E+01
  0
LINE
  8
0
 62
4
 10
-5.12702637E+01
 20
1.05000000E+02
 11
-7.72500000E+01
 21
1.05000000E+02
  0
LINE
  8
0
 62
4
 10
-5.17500000E+01
 20
1.06000000E+02
 11
-8.05666504E+01
 21
1.06000000E+02
  0
LINE
  8
0
 62
4
 10
-8.52500000E+01
 20
1.45000000E+02
 11
-1.01250000E+02
 21
1.45000000E+02
  0
LINE
  8
0
 62
4
 10
-8.32500000E+01
 20
1.43000000E+02
 11
-8.32500000E+01
 21
3.70000000E+01
  0
LINE
  8
0
 62
4
 10
-8.52500000E+01
 20
3.50000000E+01
 11
-1.01250000E+02
 21
3.50000000E+01
  0
LINE
  8
0
 62
4
 10
-4.92500000E+01
 20
1.03000000E+02
 11
-4.92500000E+01
 21
7.70000000E+01
  0
ARC
  8
0
 62
4
 10
-7.72500000E+01
 20
6.90000000E+01
 40
6.00000000E+00
 50
8.99999274E+01
 51
1.79999964E+02
  0
ARC
  8
0
 62
4
 10
-7.72502441E+01
 20
1.11000000E+02
 40
6.00000000E+00
 50
1.80000036E+02
 51
2.70000018E+02
  0
ARC
  8
0
 62
4
 10
-5.12500000E+01
 20
7.70000000E+01
 40
2.00000000E+00
 50
2.70000018E+02
 51
3.59999982E+02
  0
ARC
  8
0
 62
4
 10
-5.12502441E+01
 20
1.03000000E+02
 40
2.00000000E+00
 50
3.59999982E+02
 51
8.99999274E+01
  0
ARC
  8
0
 62
4
 10
-8.52500000E+01
 20
3.70000000E+01
 40
2.00000000E+00
 50
2.70000018E+02
 51
3.59999982E+02
  0
ARC
  8
0
 62
4
 10
-8.52502441E+01
 20
1.43000000E+02
 40
2.00000000E+00
 50
3.59999982E+02
 51
8.99999274E+01
  0
LINE
  8
0
 62
7
 10
1.62099976E+02
 20
-1.75000000E+02
 11
1.62099976E+02
 21
-1.95000000E+02
  0
LINE
  8
0
 62
7
 10
1.62099976E+02
 20
-1.75000000E+02
 11
2.82099854E+02
 21
-1.75000000E+02
  0
TEXT
  8
0
 62
7
 10
1.69885289E+02
 20
-1.89500000E+02
 40
9.00000000E+00
  1
KOGANEI CORP.
 41
1.04838710E+00
  7
MONOTXT
  0
TEXT
  8
0
 62
7
 10
1.97799690E+02
 20
1.82350000E+02
 40
6.30000019E+00
  1
Ver. 1.0
 41
1.08108124E+00
  7
MONOTXT
  0
LINE
  8
0
 62
7
 10
1.62099976E+02
 20
1.75500000E+02
 11
2.82099854E+02
 21
1.75500000E+02
  0
LINE
  8
0
 62
7
 10
1.62099976E+02
 20
1.95500000E+02
 11
1.62099976E+02
 21
1.75500000E+02
  0
TEXT
  8
0
 62
7
 10
-2.73900291E+02
 20
1.82350000E+02
 40
6.30000019E+00
  1
NEW DYNA CYLINDER
 41
1.07594953E+00
  7
MONOTXT
  0
LINE
  8
0
 62
7
 10
-2.81250000E+02
 20
1.75500000E+02
 11
-1.61250000E+02
 21
1.75500000E+02
  0
LINE
  8
0
 62
7
 10
-1.61250000E+02
 20
1.95500000E+02
 11
-1.61250000E+02
 21
1.75500000E+02
  0
LINE
  8
0
 62
7
 10
2.82099854E+02
 20
1.95500000E+02
 11
2.82099854E+02
 21
-1.95000000E+02
  0
LINE
  8
0
 62
7
 10
-2.81250000E+02
 20
1.95500000E+02
 11
2.82099854E+02
 21
1.95500000E+02
  0
LINE
  8
0
 62
7
 10
-2.81250000E+02
 20
1.95500000E+02
 11
-2.81250000E+02
 21
-1.95000000E+02
  0
LINE
  8
0
 62
7
 10
-2.81250000E+02
 20
-1.95000000E+02
 11
2.82099854E+02
 21
-1.95000000E+02
  0
TEXT
  8
0
 62
7
 10
-2.67600562E+02
 20
1.57350000E+02
 40
6.30000019E+00
  1
MODEL:DDA100-8
 41
1.00000015E+00
  7
MONOTXT
  0
ENDSEC
  0
EOF
