  0
SECTION
  2
HEADER
  9
$ACADVER
  1
AC1003
  9
$EXTMIN
 10
-4.94284088E+02
 20
-4.46309281E+02
  9
$EXTMAX
 10
3.99799805E+02
 20
2.76250000E+02
  9
$LIMMIN
 10
-4.94285088E+02
 20
-4.46310281E+02
  9
$LIMMAX
 10
3.99800805E+02
 20
2.76251000E+02
  9
$SNAPUNIT
 10
1
 20
1
  9
$SNAPBASE
 10
0
 20
0
  9
$GRIDMODE
 70
0
  9
$GRIDUNIT
 10
0
 20
0
  9
$LTSCALE
 40
1.49013982E+01
  9
$TEXTSIZE
 40
3.2
  9
$DIMTAD
 70
0
  9
$LUNITS
 70
2
  9
$LUPREC
 70
4
  9
$FILLETRAD
 40
0
  9
$AUNITS
 70
0
  9
$AUPREC
 70
0
  0
ENDSEC
  0
SECTION
  2
TABLES
  0
TABLE
  2
LTYPE
 70
2
  0
LTYPE
  2
CONTINUOUS
 70
64
  3
Solid-Line
 72
65
 73
0
 40
0
  0
LTYPE
  2
DASHED
 70
64
  3
DASHED
 72
65
 73
2
 40
.75
 49
.5
 49
-.25
  0
LTYPE
  2
HIDDEN
 70
64
  3
HIDDEN
 72
65
 73
2
 40
.375
 49
.25
 49
-.125
  0
LTYPE
  2
CENTER
 70
64
  3
CENTER
 72
65
 73
4
 40
2
 49
1.25
 49
-.25
 49
.25
 49
-.25
  0
LTYPE
  2
PHANTOM
 70
64
  3
PHANTOM
 72
65
 73
6
 40
2.5
 49
1.25
 49
-.25
 49
.25
 49
-.25
 49
.25
 49
-.25
  0
ENDTAB
  0
TABLE
  2
LAYER
 70
1
  0
LAYER
  2
1
 70
0
 62
7
  6
CONTINUOUS
 0
ENDTAB
  0
TABLE
  2
STYLE
 70
2
  0
STYLE
  2
MONOTXT
 70
0
 40
0
 41
1
 50
0
 71
0
 42
.2
  3
monotxt
  0
STYLE
  2
BIGFONT
 70
0
 40
0
 41
1
 50
0
 71
0
 42
.2
  3
txt
  4
bigfont
  0
ENDTAB
  0
ENDSEC
  0
SECTION
  2
ENTITIES
  0
LINE
  8
0
 62
4
 10
7.92995961E+01
 20
-2.31834526E+02
 11
2.24299566E+02
 21
-2.31833841E+02
  0
LINE
  8
0
 62
4
 10
1.89097534E+02
 20
-2.04834007E+02
 11
2.23299438E+02
 21
-2.04833846E+02
  0
LINE
  8
0
 62
4
 10
2.24299443E+02
 20
-2.05833841E+02
 11
2.24299566E+02
 21
-2.31833841E+02
  0
LINE
  8
0
  6
CENTER
 62
6
 10
2.04299417E+02
 20
-2.00415791E+02
 11
2.04299595E+02
 21
-2.38050748E+02
  0
LINE
  8
0
 62
4
 10
2.23299463E+02
 20
-2.04833864E+02
 11
2.24299468E+02
 21
-2.05833860E+02
  0
LINE
  8
0
 62
4
 10
1.14501403E+02
 20
-2.04834360E+02
 11
8.02994686E+01
 21
-2.04834521E+02
  0
LINE
  8
0
 62
4
 10
7.92994733E+01
 20
-2.05834526E+02
 11
7.92995961E+01
 21
-2.31834526E+02
  0
LINE
  8
0
  6
CENTER
 62
6
 10
9.92994172E+01
 20
-2.00416287E+02
 11
9.92995949E+01
 21
-2.38051244E+02
  0
LINE
  8
0
 62
4
 10
8.02994663E+01
 20
-2.04834522E+02
 11
7.92994718E+01
 21
-2.05834530E+02
  0
LINE
  8
0
 62
4
 10
1.21825352E+02
 20
-1.44330786E+02
 11
1.19497041E+02
 21
-2.00043135E+02
  0
LINE
  8
0
 62
4
 10
1.84101856E+02
 20
-2.00042827E+02
 11
1.81773020E+02
 21
-1.44330508E+02
  0
ARC
  8
0
 62
4
 10
1.51799158E+02
 20
-1.45583443E+02
 40
3.00000000E+01
 50
2.36190367E+00
 51
1.77638656E+02
  0
ARC
  8
0
 62
4
 10
1.89097510E+02
 20
-1.99834007E+02
 40
5.00000000E+00
 50
1.82361872E+02
 51
2.70000289E+02
  0
ARC
  8
0
 62
4
 10
1.14501380E+02
 20
-1.99834360E+02
 40
5.00000000E+00
 50
2.70000234E+02
 51
3.57638651E+02
  0
CIRCLE
  8
0
 62
4
 10
1.51846222E+02
 20
-1.46879311E+02
 40
1.25000000E+01
  0
LINE
  8
0
 62
4
 10
1.73298796E+02
 20
-6.78341060E+01
 11
1.73798808E+02
 21
-6.83341172E+01
  0
LINE
  8
0
  6
CENTER
 62
6
 10
1.84836518E+02
 20
-9.48340046E+01
 11
1.18647443E+02
 21
-9.48343172E+01
  0
LINE
  8
0
  6
CENTER
 62
6
 10
1.11526080E+02
 20
-1.46834366E+02
 11
1.99498900E+02
 21
-1.46833951E+02
  0
LINE
  8
0
  6
CENTER
 62
6
 10
1.85104698E+02
 20
-1.98834034E+02
 11
1.16743664E+02
 21
-1.98834357E+02
  0
LINE
  8
0
 62
4
 10
1.73799058E+02
 20
-1.24334072E+02
 11
1.72976136E+02
 21
-1.24334076E+02
  0
LINE
  8
0
 62
4
 10
1.30298798E+02
 20
-6.78343183E+01
 11
1.29798806E+02
 21
-6.83343065E+01
  0
LINE
  8
0
 62
4
 10
1.73798794E+02
 20
-6.83341178E+01
 11
1.73799062E+02
 21
-1.25187262E+02
  0
LINE
  8
0
 62
4
 10
1.29798794E+02
 20
-6.83342950E+01
 11
1.29799062E+02
 21
-1.25187469E+02
  0
LINE
  8
0
 62
4
 10
1.30298791E+02
 20
-6.78342927E+01
 11
1.73298791E+02
 21
-6.78340896E+01
  0
CIRCLE
  8
0
 62
4
 10
1.51799164E+02
 20
-1.46834176E+02
 40
1.25000000E+01
  0
CIRCLE
  8
0
 62
4
 10
1.51799164E+02
 20
-1.46834176E+02
 40
1.15000000E+01
  0
LINE
  8
0
  6
CENTER
 62
6
 10
1.51798763E+02
 20
-6.18341911E+01
 11
1.51799590E+02
 21
-2.37084183E+02
  0
LINE
  8
0
 62
4
 10
1.30621980E+02
 20
-1.24334276E+02
 11
1.29799058E+02
 21
-1.24334280E+02
  0
LINE
  8
0
 62
4
 10
-2.52284088E+02
 20
-1.16583443E+02
 11
-2.52284088E+02
 21
-2.31583443E+02
  0
LINE
  8
0
 62
4
 10
-2.77284088E+02
 20
-1.16583459E+02
 11
-2.77284088E+02
 21
-2.31583443E+02
  0
LINE
  8
0
 62
4
 10
-2.77284083E+02
 20
-1.16583450E+02
 11
-2.76284103E+02
 21
-1.15583470E+02
  0
LINE
  8
0
 62
4
 10
-2.52284067E+02
 20
-1.16583439E+02
 11
-2.53284068E+02
 21
-1.15583438E+02
  0
LINE
  8
0
 62
4
 10
-2.77284088E+02
 20
-2.31583443E+02
 11
-2.52284088E+02
 21
-2.31583443E+02
  0
LINE
  8
0
 62
4
 10
-2.77284088E+02
 20
-2.04583443E+02
 11
-2.52284088E+02
 21
-2.04583443E+02
  0
LINE
  8
0
  6
CENTER
 62
6
 10
-2.64784088E+02
 20
-1.06056695E+02
 11
-2.64784088E+02
 21
-2.40574136E+02
  0
LINE
  8
0
 62
4
 10
-6.92840878E+01
 20
-1.16583413E+02
 11
-6.92840878E+01
 21
-2.31583443E+02
  0
LINE
  8
0
 62
4
 10
-9.42840878E+01
 20
-1.16583443E+02
 11
-9.42840878E+01
 21
-2.31583443E+02
  0
LINE
  8
0
 62
4
 10
-9.32840878E+01
 20
-1.15583443E+02
 11
-7.02840878E+01
 21
-1.15583443E+02
  0
LINE
  8
0
 62
4
 10
-9.42840960E+01
 20
-1.16583463E+02
 11
-9.32840949E+01
 21
-1.15583462E+02
  0
LINE
  8
0
 62
4
 10
-6.92840694E+01
 20
-1.16583442E+02
 11
-7.02840705E+01
 21
-1.15583441E+02
  0
LINE
  8
0
 62
4
 10
-9.42840878E+01
 20
-2.31583443E+02
 11
-6.92840878E+01
 21
-2.31583443E+02
  0
LINE
  8
0
 62
4
 10
-9.42840878E+01
 20
-2.04583443E+02
 11
-6.92840878E+01
 21
-2.04583443E+02
  0
LINE
  8
0
  6
CENTER
 62
6
 10
-8.17840878E+01
 20
-1.06056695E+02
 11
-8.17840878E+01
 21
-2.40574136E+02
  0
LINE
  8
0
 62
4
 10
-2.53284088E+02
 20
-1.15583443E+02
 11
-2.76284088E+02
 21
-1.15583443E+02
  0
LINE
  8
0
  6
CENTER
 62
6
 10
-1.21284088E+02
 20
-2.07640275E+02
 11
-1.21284088E+02
 21
-1.88791314E+02
  0
LINE
  8
0
  6
CENTER
 62
6
 10
-1.29946991E+02
 20
-9.45834434E+01
 11
-1.11974731E+02
 21
-9.45834434E+01
  0
LINE
  8
0
  6
CENTER
 62
6
 10
-1.29508636E+02
 20
-1.98583443E+02
 11
-1.12851410E+02
 21
-1.98583443E+02
  0
LINE
  8
0
  6
CENTER
 62
6
 10
-1.73284088E+02
 20
-5.48131035E+01
 11
-1.73284088E+02
 21
-2.45170655E+02
  0
LINE
  8
0
  6
CENTER
 62
6
 10
-1.21284088E+02
 20
-8.31494224E+01
 11
-1.21284088E+02
 21
-1.03313439E+02
  0
LINE
  8
0
  6
CENTER
 62
6
 10
-2.33835479E+02
 20
-9.45834434E+01
 11
-2.16301574E+02
 21
-9.45834434E+01
  0
LINE
  8
0
  6
CENTER
 62
6
 10
-2.35150543E+02
 20
-1.98583443E+02
 11
-2.16301574E+02
 21
-1.98583443E+02
  0
LINE
  8
0
  6
CENTER
 62
6
 10
-2.25283966E+02
 20
-2.08955323E+02
 11
-2.25283966E+02
 21
-1.90106347E+02
  0
LINE
  8
0
  6
CENTER
 62
6
 10
-2.25283966E+02
 20
-8.44644707E+01
 11
-2.25283966E+02
 21
-1.02875085E+02
  0
LINE
  8
0
 62
4
 10
-9.62840878E+01
 20
-1.74796914E+02
 11
-9.62840878E+01
 21
-1.18369973E+02
  0
LINE
  8
0
 62
4
 10
-9.52841488E+01
 20
-1.68083413E+02
 11
-9.52841488E+01
 21
-1.25083459E+02
  0
LINE
  8
0
 62
4
 10
-9.52841488E+01
 20
-1.27833443E+02
 11
-9.42840878E+01
 21
-1.27833443E+02
  0
LINE
  8
0
 62
4
 10
-9.62841213E+01
 20
-1.24083451E+02
 11
-9.52841237E+01
 21
-1.25083456E+02
  0
LINE
  8
0
 62
4
 10
-9.42840878E+01
 20
-1.65333443E+02
 11
-9.52841488E+01
 21
-1.65333443E+02
  0
LINE
  8
0
 62
4
 10
-9.52841313E+01
 20
-1.68083432E+02
 11
-9.62841289E+01
 21
-1.69083437E+02
  0
LINE
  8
0
 62
4
 10
-2.52284088E+02
 20
-1.27833443E+02
 11
-2.51284027E+02
 21
-1.27833443E+02
  0
LINE
  8
0
 62
4
 10
-2.52284088E+02
 20
-1.65333443E+02
 11
-2.51284027E+02
 21
-1.65333443E+02
  0
LINE
  8
0
 62
4
 10
-2.51284017E+02
 20
-1.68083438E+02
 11
-2.50284008E+02
 21
-1.69083431E+02
  0
LINE
  8
0
 62
4
 10
-2.51284018E+02
 20
-1.25083450E+02
 11
-2.50284035E+02
 21
-1.24083474E+02
  0
LINE
  8
0
 62
4
 10
-2.50284088E+02
 20
-1.18369973E+02
 11
-2.50284088E+02
 21
-1.74796914E+02
  0
LINE
  8
0
 62
4
 10
-2.51284027E+02
 20
-1.25083459E+02
 11
-2.51284027E+02
 21
-1.68083443E+02
  0
ARC
  8
0
 62
4
 10
-2.26369964E+02
 20
-9.34975975E+01
 40
1.80000000E+01
 50
1.09076837E+02
 51
1.63041369E+02
  0
ARC
  8
0
 62
4
 10
-5.22840725E+01
 20
-1.46583443E+02
 40
2.00000000E+02
 50
1.63041369E+02
 51
1.71890344E+02
  0
ARC
  8
0
 62
4
 10
-5.22840725E+01
 20
-1.46583443E+02
 40
2.00000000E+02
 50
1.88109711E+02
 51
1.96958685E+02
  0
ARC
  8
0
 62
4
 10
-2.26369964E+02
 20
-1.99669305E+02
 40
1.80000000E+01
 50
1.96958685E+02
 51
2.50920403E+02
  0
ARC
  8
0
 62
4
 10
-2.94284088E+02
 20
-1.46583443E+02
 40
2.00000000E+02
 50
8.10965437E+00
 51
1.69586289E+01
  0
ARC
  8
0
 62
4
 10
-1.20198211E+02
 20
-9.34975975E+01
 40
1.80000000E+01
 50
1.69586289E+01
 51
7.30391265E+01
  0
ARC
  8
0
 62
4
 10
-2.94284088E+02
 20
-1.46583443E+02
 40
2.00000000E+02
 50
3.43041316E+02
 51
3.51890291E+02
  0
ARC
  8
0
 62
4
 10
-1.20198211E+02
 20
-1.99669305E+02
 40
1.80000000E+01
 50
2.86958503E+02
 51
3.43075321E+02
  0
ARC
  8
0
 62
4
 10
-1.73284088E+02
 20
-2.56696366E+02
 40
1.89612915E+02
 50
7.20817937E+01
 51
1.08119286E+02
  0
ARC
  8
0
 62
4
 10
-1.73284088E+02
 20
-3.64705437E+01
 40
1.89612915E+02
 50
2.51880455E+02
 51
2.87918207E+02
  0
CIRCLE
  8
0
 62
4
 10
-1.73284088E+02
 20
-1.46583443E+02
 40
6.65000000E+01
  0
CIRCLE
  8
0
 62
4
 10
-2.25283966E+02
 20
-9.45834434E+01
 40
5.75000000E+00
  0
CIRCLE
  8
0
 62
4
 10
-1.21284088E+02
 20
-9.45834434E+01
 40
5.75000000E+00
  0
CIRCLE
  8
0
 62
4
 10
-1.21284088E+02
 20
-1.98583443E+02
 40
5.75000000E+00
  0
CIRCLE
  8
0
 62
4
 10
-2.25283966E+02
 20
-1.98583443E+02
 40
5.75000000E+00
  0
LINE
  8
0
  6
CENTER
 62
6
 10
-6.11155697E+01
 20
-1.46583443E+02
 11
-2.85802307E+02
 21
-1.46583443E+02
  0
LINE
  8
0
 62
4
 10
8.02991947E+01
 20
1.99106361E+01
 11
2.23299164E+02
 21
1.99106361E+01
  0
LINE
  8
0
 62
4
 10
8.02991947E+01
 20
4.49106361E+01
 11
2.23299164E+02
 21
4.49106361E+01
  0
LINE
  8
0
 62
4
 10
7.92991947E+01
 20
4.39106361E+01
 11
7.92991947E+01
 21
2.09106361E+01
  0
LINE
  8
0
 62
4
 10
8.02992042E+01
 20
4.49106158E+01
 11
7.92991816E+01
 21
4.39105932E+01
  0
LINE
  8
0
 62
4
 10
7.92992031E+01
 20
2.09106119E+01
 11
8.02992042E+01
 21
1.99106109E+01
  0
LINE
  8
0
 62
4
 10
1.21799164E+02
 20
2.24106361E+01
 11
1.21799164E+02
 21
4.24106361E+01
  0
LINE
  8
0
  6
CENTER
 62
6
 10
9.92991642E+01
 20
4.99106361E+01
 11
9.92991642E+01
 21
1.49106361E+01
  0
LINE
  8
0
 62
4
 10
2.24299164E+02
 20
4.39106361E+01
 11
2.24299164E+02
 21
2.09106361E+01
  0
LINE
  8
0
  6
CENTER
 62
6
 10
2.36685944E+02
 20
3.24106361E+01
 11
6.01741947E+01
 21
3.24106361E+01
  0
LINE
  8
0
 62
4
 10
2.23299194E+02
 20
4.49106266E+01
 11
2.24299195E+02
 21
4.39106256E+01
  0
LINE
  8
0
 62
4
 10
2.24299174E+02
 20
2.09106011E+01
 11
2.23299194E+02
 21
1.99106217E+01
  0
LINE
  8
0
 62
4
 10
1.81799164E+02
 20
2.24106361E+01
 11
1.81799164E+02
 21
4.24106361E+01
  0
LINE
  8
0
  6
CENTER
 62
6
 10
2.04299164E+02
 20
4.99106361E+01
 11
2.04299164E+02
 21
1.49106361E+01
  0
LINE
  8
0
 62
4
 10
8.02991947E+01
 20
2.27910636E+02
 11
2.23299164E+02
 21
2.27910636E+02
  0
LINE
  8
0
 62
4
 10
8.02991947E+01
 20
2.02910636E+02
 11
2.23299164E+02
 21
2.02910636E+02
  0
LINE
  8
0
 62
4
 10
7.92991947E+01
 20
2.03910636E+02
 11
7.92991947E+01
 21
2.26910636E+02
  0
LINE
  8
0
 62
4
 10
8.02991826E+01
 20
2.02910589E+02
 11
7.92991816E+01
 21
2.03910590E+02
  0
LINE
  8
0
 62
4
 10
7.92992031E+01
 20
2.26910615E+02
 11
8.02991826E+01
 21
2.27910594E+02
  0
LINE
  8
0
 62
4
 10
1.21799164E+02
 20
2.25410636E+02
 11
1.21799164E+02
 21
2.05410636E+02
  0
LINE
  8
0
  6
CENTER
 62
6
 10
9.92991642E+01
 20
1.97910636E+02
 11
9.92991642E+01
 21
2.32910636E+02
  0
LINE
  8
0
 62
4
 10
2.24299164E+02
 20
2.03910636E+02
 11
2.24299164E+02
 21
2.26910636E+02
  0
LINE
  8
0
  6
CENTER
 62
6
 10
2.36685944E+02
 20
2.15410636E+02
 11
6.01741947E+01
 21
2.15410636E+02
  0
LINE
  8
0
 62
4
 10
2.23299183E+02
 20
2.02910589E+02
 11
2.24299206E+02
 21
2.03910612E+02
  0
LINE
  8
0
 62
4
 10
2.24299184E+02
 20
2.26910593E+02
 11
2.23299183E+02
 21
2.27910594E+02
  0
LINE
  8
0
 62
4
 10
1.81799164E+02
 20
2.25410636E+02
 11
1.81799164E+02
 21
2.05410636E+02
  0
LINE
  8
0
  6
CENTER
 62
6
 10
2.04299164E+02
 20
1.97910636E+02
 11
2.04299164E+02
 21
2.32910636E+02
  0
ARC
  8
0
 62
4
 10
2.04299164E+02
 20
2.15410636E+02
 40
1.75000000E+01
 50
1.34415282E+02
 51
2.25584660E+02
  0
CIRCLE
  8
0
 62
4
 10
2.04299164E+02
 20
2.15410636E+02
 40
9.00000000E+00
  0
CIRCLE
  8
0
 62
4
 10
1.51799164E+02
 20
3.24106361E+01
 40
2.00000000E+00
  0
CIRCLE
  8
0
 62
4
 10
1.51799164E+02
 20
3.24106361E+01
 40
4.00000000E+00
  0
CIRCLE
  8
0
 62
4
 10
9.92991642E+01
 20
3.24106361E+01
 40
9.00000000E+00
  0
ARC
  8
0
 62
4
 10
9.92991642E+01
 20
3.24106361E+01
 40
1.75000000E+01
 50
3.14415307E+02
 51
4.55846928E+01
  0
ARC
  8
0
 62
4
 10
9.92991642E+01
 20
3.24106361E+01
 40
1.75000000E+01
 50
1.34415336E+02
 51
2.25584646E+02
  0
ARC
  8
0
 62
4
 10
2.04299164E+02
 20
3.24106361E+01
 40
1.75000000E+01
 50
3.14415318E+02
 51
4.55846279E+01
  0
ARC
  8
0
 62
4
 10
2.04299164E+02
 20
3.24106361E+01
 40
1.75000000E+01
 50
1.34415268E+02
 51
2.25584646E+02
  0
CIRCLE
  8
0
 62
4
 10
2.04299164E+02
 20
3.24106361E+01
 40
9.00000000E+00
  0
CIRCLE
  8
0
 62
4
 10
1.51799164E+02
 20
2.15410636E+02
 40
2.00000000E+00
  0
CIRCLE
  8
0
 62
4
 10
1.51799164E+02
 20
2.15410636E+02
 40
4.00000000E+00
  0
CIRCLE
  8
0
 62
4
 10
9.92991642E+01
 20
2.15410636E+02
 40
9.00000000E+00
  0
ARC
  8
0
 62
4
 10
9.92991642E+01
 20
2.15410636E+02
 40
1.75000000E+01
 50
3.14415253E+02
 51
4.55846381E+01
  0
ARC
  8
0
 62
4
 10
9.92991642E+01
 20
2.15410636E+02
 40
1.75000000E+01
 50
1.34415282E+02
 51
2.25584592E+02
  0
ARC
  8
0
 62
4
 10
2.04299164E+02
 20
2.15410636E+02
 40
1.75000000E+01
 50
3.14415318E+02
 51
4.55846279E+01
  0
LINE
  8
0
  6
CENTER
 62
6
 10
1.10103121E+02
 20
1.23910636E+02
 11
1.91933264E+02
 21
1.23910636E+02
  0
LINE
  8
0
  6
CENTER
 62
6
 10
1.51799164E+02
 20
2.36443961E+02
 11
1.51799164E+02
 21
1.06524269E+01
  0
LINE
  8
0
 62
4
 10
1.29799164E+02
 20
2.00910575E+02
 11
1.29799164E+02
 21
4.69106056E+01
  0
LINE
  8
0
 62
4
 10
1.73799164E+02
 20
2.00910575E+02
 11
1.73799164E+02
 21
4.69106056E+01
  0
LINE
  8
0
  6
CENTER
 62
6
 10
1.85080493E+02
 20
7.19105751E+01
 11
1.16552786E+02
 21
7.19105751E+01
  0
LINE
  8
0
 62
4
 10
1.72799164E+02
 20
2.01910575E+02
 11
1.30799164E+02
 21
2.01910575E+02
  0
LINE
  8
0
 62
4
 10
1.32549164E+02
 20
2.02910636E+02
 11
1.32549164E+02
 21
2.01910575E+02
  0
LINE
  8
0
 62
4
 10
1.30799199E+02
 20
2.01910551E+02
 11
1.29799173E+02
 21
2.00910531E+02
  0
LINE
  8
0
 62
4
 10
1.72798997E+02
 20
2.01910389E+02
 11
1.73798993E+02
 21
2.00910383E+02
  0
LINE
  8
0
 62
4
 10
1.71049164E+02
 20
2.02910636E+02
 11
1.71049164E+02
 21
2.01910575E+02
  0
LINE
  8
0
 62
4
 10
1.73799164E+02
 20
2.00910636E+02
 11
1.29799164E+02
 21
2.00910636E+02
  0
LINE
  8
0
 62
4
 10
1.30799164E+02
 20
4.59106361E+01
 11
1.72799164E+02
 21
4.59106361E+01
  0
LINE
  8
0
 62
4
 10
1.29799164E+02
 20
4.69106056E+01
 11
1.73799164E+02
 21
4.69106056E+01
  0
LINE
  8
0
 62
4
 10
1.32549164E+02
 20
4.59106361E+01
 11
1.32549164E+02
 21
4.49106056E+01
  0
LINE
  8
0
 62
4
 10
1.71049164E+02
 20
4.59106361E+01
 11
1.71049164E+02
 21
4.49106056E+01
  0
LINE
  8
0
 62
4
 10
1.73799113E+02
 20
4.69107353E+01
 11
1.72799096E+02
 21
4.59107075E+01
  0
LINE
  8
0
 62
4
 10
1.29799099E+02
 20
4.69106060E+01
 11
1.30799082E+02
 21
4.59106299E+01
  0
LINE
  8
0
  6
CENTER
 62
6
 10
1.85886702E+02
 20
1.75910697E+02
 11
1.17358996E+02
 21
1.75910697E+02
  0
TEXT
  8
0
 62
7
 10
-3.91900291E+02
 20
2.63100000E+02
 40
6.30000019E+00
  1
NEW DYNA CYLINDER
 41
1.07594953E+00
  7
MONOTXT
  0
TEXT
  8
0
 62
7
 10
-3.85600562E+02
 20
2.38100000E+02
 40
6.30000019E+00
  1
MODEL:DDA125-11T
 41
1.00000015E+00
  7
MONOTXT
  0
LINE
  8
0
 62
7
 10
2.79799927E+02
 20
-2.56750000E+02
 11
3.99799805E+02
 21
-2.56750000E+02
  0
LINE
  8
0
 62
7
 10
2.79799927E+02
 20
-2.56750000E+02
 11
2.79799927E+02
 21
-2.76750000E+02
  0
TEXT
  8
0
 62
7
 10
2.87585240E+02
 20
-2.71250000E+02
 40
9.00000000E+00
  1
KOGANEI CORP.
 41
1.04838710E+00
  7
MONOTXT
  0
TEXT
  8
0
 62
7
 10
3.15499641E+02
 20
2.63100000E+02
 40
6.30000019E+00
  1
Ver. 1.0
 41
1.08108124E+00
  7
MONOTXT
  0
LINE
  8
0
 62
7
 10
2.79799927E+02
 20
2.56250000E+02
 11
3.99799805E+02
 21
2.56250000E+02
  0
LINE
  8
0
 62
7
 10
2.79799927E+02
 20
2.76250000E+02
 11
2.79799927E+02
 21
2.56250000E+02
  0
LINE
  8
0
 62
7
 10
-3.99250000E+02
 20
2.56250000E+02
 11
-2.79250000E+02
 21
2.56250000E+02
  0
LINE
  8
0
 62
7
 10
-2.79250000E+02
 20
2.76250000E+02
 11
-2.79250000E+02
 21
2.56250000E+02
  0
LINE
  8
0
 62
7
 10
-3.99250000E+02
 20
-2.76750000E+02
 11
3.99799805E+02
 21
-2.76750000E+02
  0
LINE
  8
0
 62
7
 10
-3.99250000E+02
 20
2.76250000E+02
 11
3.99799805E+02
 21
2.76250000E+02
  0
LINE
  8
0
 62
7
 10
-3.99250000E+02
 20
2.76250000E+02
 11
-3.99250000E+02
 21
-2.76750000E+02
  0
LINE
  8
0
 62
7
 10
3.99799805E+02
 20
2.76250000E+02
 11
3.99799805E+02
 21
-2.76750000E+02
  0
ENDSEC
  0
EOF
