  0
SECTION
  2
HEADER
  9
$ACADVER
  1
AC1003
  9
$EXTMIN
 10
-2.81250000E+02
 20
-1.95000000E+02
  9
$EXTMAX
 10
2.82099854E+02
 20
1.95500000E+02
  9
$LIMMIN
 10
-2.81251000E+02
 20
-1.95001000E+02
  9
$LIMMAX
 10
2.82100854E+02
 20
1.95501000E+02
  9
$SNAPUNIT
 10
1
 20
1
  9
$SNAPBASE
 10
0
 20
0
  9
$GRIDMODE
 70
0
  9
$GRIDUNIT
 10
0
 20
0
  9
$LTSCALE
 40
9.38916423E+00
  9
$TEXTSIZE
 40
3.2
  9
$DIMTAD
 70
0
  9
$LUNITS
 70
2
  9
$LUPREC
 70
4
  9
$FILLETRAD
 40
0
  9
$AUNITS
 70
0
  9
$AUPREC
 70
0
  0
ENDSEC
  0
SECTION
  2
TABLES
  0
TABLE
  2
LTYPE
 70
2
  0
LTYPE
  2
CONTINUOUS
 70
64
  3
Solid-Line
 72
65
 73
0
 40
0
  0
LTYPE
  2
DASHED
 70
64
  3
DASHED
 72
65
 73
2
 40
.75
 49
.5
 49
-.25
  0
LTYPE
  2
HIDDEN
 70
64
  3
HIDDEN
 72
65
 73
2
 40
.375
 49
.25
 49
-.125
  0
LTYPE
  2
CENTER
 70
64
  3
CENTER
 72
65
 73
4
 40
2
 49
1.25
 49
-.25
 49
.25
 49
-.25
  0
LTYPE
  2
PHANTOM
 70
64
  3
PHANTOM
 72
65
 73
6
 40
2.5
 49
1.25
 49
-.25
 49
.25
 49
-.25
 49
.25
 49
-.25
  0
ENDTAB
  0
TABLE
  2
LAYER
 70
1
  0
LAYER
  2
1
 70
0
 62
7
  6
CONTINUOUS
 0
ENDTAB
  0
TABLE
  2
STYLE
 70
2
  0
STYLE
  2
MONOTXT
 70
0
 40
0
 41
1
 50
0
 71
0
 42
.2
  3
monotxt
  0
STYLE
  2
BIGFONT
 70
0
 40
0
 41
1
 50
0
 71
0
 42
.2
  3
txt
  4
bigfont
  0
ENDTAB
  0
ENDSEC
  0
SECTION
  2
ENTITIES
  0
LINE
  8
0
 62
4
 10
4.50077658E+01
 20
-1.46939816E+02
 11
6.70077648E+01
 21
-1.46939816E+02
  0
LINE
  8
0
 62
4
 10
4.10077658E+01
 20
-1.62939816E+02
 11
1.08007766E+02
 21
-1.62939816E+02
  0
LINE
  8
0
 62
4
 10
4.60077658E+01
 20
-1.28939816E+02
 11
7.00077648E+01
 21
-1.28939816E+02
  0
LINE
  8
0
 62
4
 10
1.08007766E+02
 20
-1.47939816E+02
 11
1.08007766E+02
 21
-1.62939816E+02
  0
LINE
  8
0
 62
4
 10
6.10077658E+01
 20
-1.44939816E+02
 11
1.05007766E+02
 21
-1.44939816E+02
  0
LINE
  8
0
 62
4
 10
4.20077658E+01
 20
-1.49939816E+02
 11
4.20077658E+01
 21
-1.62939816E+02
  0
LINE
  8
0
  6
CENTER
 62
6
 10
8.70077653E+01
 20
-1.36579938E+02
 11
8.70077653E+01
 21
-1.70681699E+02
  0
LINE
  8
0
 62
4
 10
4.10077658E+01
 20
-1.33939816E+02
 11
4.10077658E+01
 21
-1.62939816E+02
  0
LINE
  8
0
  6
CENTER
 62
6
 10
7.21842594E+01
 20
-1.45939816E+02
 11
3.75728903E+01
 21
-1.45939816E+02
  0
LINE
  8
0
 62
4
 10
7.00077648E+01
 20
-1.44939816E+02
 11
7.00077648E+01
 21
-1.28939816E+02
  0
ARC
  8
0
 62
4
 10
1.05007766E+02
 20
-1.47939816E+02
 40
3.00000000E+00
 50
0.00000000E+00
 51
8.99999818E+01
  0
ARC
  8
0
 62
4
 10
4.60077658E+01
 20
-1.33939816E+02
 40
5.00000000E+00
 50
8.99999818E+01
 51
1.79999964E+02
  0
ARC
  8
0
 62
4
 10
6.10077658E+01
 20
-1.47939816E+02
 40
3.00000000E+00
 50
8.99999818E+01
 51
1.60528789E+02
  0
ARC
  8
0
 62
4
 10
4.50077658E+01
 20
-1.49939816E+02
 40
3.00000000E+00
 50
8.99999818E+01
 51
1.79999964E+02
  0
LINE
  8
0
 62
4
 10
-6.59947585E+01
 20
-1.62939802E+02
 11
-7.12613304E+01
 21
-1.33071556E+02
  0
LINE
  8
0
 62
4
 10
-1.05989900E+02
 20
-1.62939799E+02
 11
-1.00723328E+02
 21
-1.33071573E+02
  0
LINE
  8
0
 62
4
 10
-7.61853494E+01
 20
-1.28939801E+02
 11
-9.57992563E+01
 21
-1.28939801E+02
  0
LINE
  8
0
  6
CENTER
 62
6
 10
-9.38255624E+01
 20
-1.45939801E+02
 11
-7.70462656E+01
 21
-1.45939801E+02
  0
LINE
  8
0
  6
CENTER
 62
6
 10
-1.37992310E+02
 20
-1.19629407E+02
 11
-1.37992310E+02
 21
-1.69529340E+02
  0
LINE
  8
0
  6
CENTER
 62
6
 10
-1.98245332E+02
 20
-1.45939801E+02
 11
-1.80780824E+02
 21
-1.45939801E+02
  0
LINE
  8
0
  6
CENTER
 62
6
 10
-1.89992188E+02
 20
-1.54541875E+02
 11
-1.89992188E+02
 21
-1.38568249E+02
  0
LINE
  8
0
 62
4
 10
-1.69493165E+02
 20
-1.57839825E+02
 11
-1.06491395E+02
 21
-1.57839825E+02
  0
LINE
  8
0
 62
4
 10
-2.44492310E+02
 20
-1.47939801E+02
 11
-2.44492310E+02
 21
-1.62939801E+02
  0
LINE
  8
0
 62
4
 10
-3.14922952E+01
 20
-1.48939801E+02
 11
-3.14922952E+01
 21
-1.62939801E+02
  0
LINE
  8
0
  6
CENTER
 62
6
 10
-5.04922952E+01
 20
-1.37939801E+02
 11
-5.04922952E+01
 21
-1.73023343E+02
  0
LINE
  8
0
 62
4
 10
-2.41492310E+02
 20
-1.44939801E+02
 11
-2.09509644E+02
 21
-1.44939801E+02
  0
LINE
  8
0
 62
4
 10
-3.44922952E+01
 20
-1.44939801E+02
 11
-6.64750223E+01
 21
-1.44939801E+02
  0
LINE
  8
0
 62
4
 10
-2.44492310E+02
 20
-1.62939801E+02
 11
-3.14922952E+01
 21
-1.62939801E+02
  0
LINE
  8
0
 62
4
 10
-1.69994777E+02
 20
-1.62939801E+02
 11
-1.75261350E+02
 21
-1.33071570E+02
  0
LINE
  8
0
 62
4
 10
-2.09989879E+02
 20
-1.62939801E+02
 11
-2.04723306E+02
 21
-1.33071574E+02
  0
LINE
  8
0
  6
CENTER
 62
6
 10
-2.25492310E+02
 20
-1.37939801E+02
 11
-2.25492310E+02
 21
-1.73023343E+02
  0
LINE
  8
0
 62
4
 10
-1.99799256E+02
 20
-1.28939801E+02
 11
-1.80185365E+02
 21
-1.28939801E+02
  0
LINE
  8
0
 62
4
 10
-1.75992310E+02
 20
-1.31216122E+02
 11
-9.99923105E+01
 21
-1.31216122E+02
  0
LINE
  8
0
  6
CENTER
 62
6
 10
-8.59924173E+01
 20
-1.54799001E+02
 11
-8.59924173E+01
 21
-1.38108487E+02
  0
ARC
  8
0
 62
4
 10
-1.69493165E+02
 20
-1.55839825E+02
 40
2.00000000E+00
 50
2.20294669E+02
 51
2.70000018E+02
  0
ARC
  8
0
 62
4
 10
-1.06491395E+02
 20
-1.55839825E+02
 40
2.00000000E+00
 50
2.70000018E+02
 51
3.19699627E+02
  0
ARC
  8
0
 62
4
 10
-3.44922952E+01
 20
-1.47939801E+02
 40
3.00000000E+00
 50
0.00000000E+00
 51
8.99999818E+01
  0
ARC
  8
0
 62
4
 10
-6.64750223E+01
 20
-1.41939801E+02
 40
3.00000000E+00
 50
1.90000034E+02
 51
2.70000018E+02
  0
ARC
  8
0
 62
4
 10
-7.61853494E+01
 20
-1.33939801E+02
 40
5.00000000E+00
 50
9.99992969E+00
 51
8.99999818E+01
  0
ARC
  8
0
 62
4
 10
-9.57992563E+01
 20
-1.33939801E+02
 40
5.00000000E+00
 50
8.99999818E+01
 51
1.69999966E+02
  0
ARC
  8
0
 62
4
 10
-2.09509644E+02
 20
-1.41939801E+02
 40
3.00000000E+00
 50
2.70000018E+02
 51
3.49999995E+02
  0
ARC
  8
0
 62
4
 10
-2.41492310E+02
 20
-1.47939801E+02
 40
3.00000000E+00
 50
8.99999818E+01
 51
1.79999964E+02
  0
ARC
  8
0
 62
4
 10
-1.80185365E+02
 20
-1.33939801E+02
 40
5.00000000E+00
 50
1.00000014E+01
 51
8.99999818E+01
  0
ARC
  8
0
 62
4
 10
-1.99799256E+02
 20
-1.33939801E+02
 40
5.00000000E+00
 50
8.99999818E+01
 51
1.70000021E+02
  0
CIRCLE
  8
0
 62
4
 10
-1.89992188E+02
 20
-1.45939801E+02
 40
5.75000000E+00
  0
CIRCLE
  8
0
 62
4
 10
-8.59924173E+01
 20
-1.45939801E+02
 40
5.75000000E+00
  0
LINE
  8
0
 62
4
 10
4.10080281E+01
 20
1.53060152E+02
 11
5.20130936E+01
 21
1.83296330E+02
  0
LINE
  8
0
  6
CENTER
 62
6
 10
8.00865748E+01
 20
8.30602142E+01
 11
3.71236105E+01
 21
8.30602142E+01
  0
LINE
  8
0
 62
4
 10
5.95305929E+01
 20
1.88560214E+02
 11
9.50354748E+01
 21
1.88560214E+02
  0
LINE
  8
0
 62
4
 10
7.00079479E+01
 20
1.40602142E+01
 11
7.00079479E+01
 21
1.52060214E+02
  0
LINE
  8
0
 62
4
 10
4.10078879E+01
 20
5.10602142E+01
 11
4.20078879E+01
 21
5.10602142E+01
  0
LINE
  8
0
  6
CENTER
 62
6
 10
3.56166525E+01
 20
1.35060275E+02
 11
7.49113236E+01
 21
1.35060275E+02
  0
LINE
  8
0
  6
CENTER
 62
6
 10
3.59445944E+01
 20
3.10601837E+01
 11
7.38023405E+01
 21
3.10601837E+01
  0
LINE
  8
0
  6
CENTER
 62
6
 10
8.70078874E+01
 20
1.80602142E+01
 11
8.70078874E+01
 21
-2.69397858E+01
  0
LINE
  8
0
 62
4
 10
4.10080710E+01
 20
1.53060214E+02
 11
1.00857375E+02
 21
1.53060214E+02
  0
LINE
  8
0
 62
4
 10
4.10078879E+01
 20
1.30602142E+01
 11
1.00857314E+02
 21
1.30602142E+01
  0
LINE
  8
0
 62
4
 10
6.30078449E+01
 20
1.21060277E+02
 11
4.30078421E+01
 21
1.15060276E+02
  0
LINE
  8
0
 62
4
 10
4.20078879E+01
 20
1.15060214E+02
 11
4.10078879E+01
 21
1.15060214E+02
  0
LINE
  8
0
 62
4
 10
4.10079807E+01
 20
1.30603058E+01
 11
5.20130137E+01
 21
-1.71758508E+01
  0
LINE
  8
0
 62
4
 10
4.30078600E+01
 20
5.10602593E+01
 11
6.30078627E+01
 21
4.50602587E+01
  0
LINE
  8
0
 62
4
 10
7.00079479E+01
 20
1.21060214E+02
 11
6.50078879E+01
 21
1.21060214E+02
  0
LINE
  8
0
 62
4
 10
6.40078879E+01
 20
1.21060214E+02
 11
6.40078879E+01
 21
4.50602142E+01
  0
LINE
  8
0
 62
4
 10
7.00079479E+01
 20
4.50602142E+01
 11
6.50078879E+01
 21
4.50602142E+01
  0
LINE
  8
0
  6
CENTER
 62
6
 10
5.80772238E+01
 20
1.70560214E+02
 11
1.17202163E+02
 21
1.70560214E+02
  0
LINE
  8
0
  6
CENTER
 62
6
 10
8.70078874E+01
 20
1.93060214E+02
 11
8.70078874E+01
 21
1.48060214E+02
  0
LINE
  8
0
 62
4
 10
1.06766230E+02
 20
1.60102086E+02
 11
1.02913943E+02
 21
1.81949441E+02
  0
LINE
  8
0
 62
4
 10
1.06766160E+02
 20
6.01831946E+00
 11
1.02913899E+02
 21
-1.58289477E+01
  0
LINE
  8
0
  6
CENTER
 62
6
 10
5.80772238E+01
 20
-4.43978575E+00
 11
1.17202163E+02
 21
-4.43978575E+00
  0
LINE
  8
0
 62
4
 10
4.20078879E+01
 20
1.15060214E+02
 11
4.20078879E+01
 21
5.10602142E+01
  0
LINE
  8
0
 62
4
 10
4.10078879E+01
 20
5.10602142E+01
 11
4.10078879E+01
 21
1.30602142E+01
  0
LINE
  8
0
 62
4
 10
5.95305929E+01
 20
-2.24397858E+01
 11
9.50354748E+01
 21
-2.24397858E+01
  0
LINE
  8
0
 62
4
 10
4.10078879E+01
 20
1.53060214E+02
 11
4.10078879E+01
 21
1.15060214E+02
  0
ARC
  8
0
 62
4
 10
1.00857314E+02
 20
7.06021425E+00
 40
6.00000000E+00
 50
3.50000038E+02
 51
9.00000162E+01
  0
ARC
  8
0
 62
4
 10
9.50354748E+01
 20
-1.44397858E+01
 40
8.00000000E+00
 50
2.70000038E+02
 51
3.50000021E+02
  0
ARC
  8
0
 62
4
 10
8.70078874E+01
 20
-4.43978575E+00
 40
2.10000000E+01
 50
2.28493136E+01
 51
5.64426718E+01
  0
CIRCLE
  8
0
 62
4
 10
8.70078874E+01
 20
-4.43978575E+00
 40
9.00000000E+00
  0
ARC
  8
0
 62
4
 10
8.70078874E+01
 20
-4.43978575E+00
 40
2.10000000E+01
 50
1.23557370E+02
 51
2.38997253E+02
  0
ARC
  8
0
 62
4
 10
5.95305929E+01
 20
-1.44397858E+01
 40
8.00000000E+00
 50
2.00000018E+02
 51
2.70000038E+02
  0
ARC
  8
0
 62
4
 10
5.95305929E+01
 20
1.80560214E+02
 40
8.00000000E+00
 50
9.00000162E+01
 51
1.59999981E+02
  0
ARC
  8
0
 62
4
 10
8.70078874E+01
 20
1.70560214E+02
 40
2.10000000E+01
 50
1.21002798E+02
 51
2.36442680E+02
  0
CIRCLE
  8
0
 62
4
 10
8.70078874E+01
 20
1.70560214E+02
 40
9.00000000E+00
  0
ARC
  8
0
 62
4
 10
9.50354748E+01
 20
1.80560214E+02
 40
8.00000000E+00
 50
1.00000885E+01
 51
9.00000162E+01
  0
ARC
  8
0
 62
4
 10
8.70078874E+01
 20
1.70560214E+02
 40
2.10000000E+01
 50
3.03557301E+02
 51
3.37150796E+02
  0
ARC
  8
0
 62
4
 10
1.00857375E+02
 20
1.59060214E+02
 40
6.00000000E+00
 50
2.70000052E+02
 51
1.00000339E+01
  0
ARC
  8
0
 62
4
 10
7.10079479E+01
 20
1.40602142E+01
 40
1.00000000E+00
 50
1.79999995E+02
 51
2.69999998E+02
  0
ARC
  8
0
 62
4
 10
7.10079479E+01
 20
1.52060214E+02
 40
1.00000000E+00
 50
9.00000025E+01
 51
1.80000005E+02
  0
LINE
  8
0
 62
7
 10
-2.81250000E+02
 20
1.75500000E+02
 11
-1.61250000E+02
 21
1.75500000E+02
  0
LINE
  8
0
 62
7
 10
-1.61250000E+02
 20
1.95500000E+02
 11
-1.61250000E+02
 21
1.75500000E+02
  0
TEXT
  8
0
 62
7
 10
-2.73900291E+02
 20
1.82350000E+02
 40
6.30000019E+00
  1
NEW DYNA CYLINDER
 41
1.07594953E+00
  7
MONOTXT
  0
LINE
  8
0
 62
7
 10
1.62099976E+02
 20
-1.75000000E+02
 11
1.62099976E+02
 21
-1.95000000E+02
  0
LINE
  8
0
 62
7
 10
1.62099976E+02
 20
-1.75000000E+02
 11
2.82099854E+02
 21
-1.75000000E+02
  0
TEXT
  8
0
 62
7
 10
1.69885289E+02
 20
-1.89500000E+02
 40
9.00000000E+00
  1
KOGANEI CORP.
 41
1.04838710E+00
  7
MONOTXT
  0
TEXT
  8
0
 62
7
 10
1.97799690E+02
 20
1.82350000E+02
 40
6.30000019E+00
  1
Ver. 1.0
 41
1.08108124E+00
  7
MONOTXT
  0
LINE
  8
0
 62
7
 10
1.62099976E+02
 20
1.75500000E+02
 11
2.82099854E+02
 21
1.75500000E+02
  0
LINE
  8
0
 62
7
 10
1.62099976E+02
 20
1.95500000E+02
 11
1.62099976E+02
 21
1.75500000E+02
  0
LINE
  8
0
 62
7
 10
2.82099854E+02
 20
1.95500000E+02
 11
2.82099854E+02
 21
-1.95000000E+02
  0
LINE
  8
0
 62
7
 10
-2.81250000E+02
 20
1.95500000E+02
 11
2.82099854E+02
 21
1.95500000E+02
  0
LINE
  8
0
 62
7
 10
-2.81250000E+02
 20
1.95500000E+02
 11
-2.81250000E+02
 21
-1.95000000E+02
  0
LINE
  8
0
 62
7
 10
-2.81250000E+02
 20
-1.95000000E+02
 11
2.82099854E+02
 21
-1.95000000E+02
  0
TEXT
  8
0
 62
7
 10
-2.67600562E+02
 20
1.57350000E+02
 40
6.30000019E+00
  1
MODEL:DDA125-2
 41
1.00000015E+00
  7
MONOTXT
  0
ENDSEC
  0
EOF
