  0
SECTION
  2
HEADER
  9
$ACADVER
  1
AC1003
  9
$EXTMIN
 10
-2.81674927E+02
 20
-1.95250000E+02
  9
$EXTMAX
 10
2.81674927E+02
 20
1.95250000E+02
  9
$LIMMIN
 10
-2.81675927E+02
 20
-1.95251000E+02
  9
$LIMMAX
 10
2.81675927E+02
 20
1.95251000E+02
  9
$SNAPUNIT
 10
1
 20
1
  9
$SNAPBASE
 10
0
 20
0
  9
$GRIDMODE
 70
0
  9
$GRIDUNIT
 10
0
 20
0
  9
$LTSCALE
 40
9.38916423E+00
  9
$TEXTSIZE
 40
3.2
  9
$DIMTAD
 70
0
  9
$LUNITS
 70
2
  9
$LUPREC
 70
4
  9
$FILLETRAD
 40
0
  9
$AUNITS
 70
0
  9
$AUPREC
 70
0
  0
ENDSEC
  0
SECTION
  2
TABLES
  0
TABLE
  2
LTYPE
 70
2
  0
LTYPE
  2
CONTINUOUS
 70
64
  3
Solid-Line
 72
65
 73
0
 40
0
  0
LTYPE
  2
DASHED
 70
64
  3
DASHED
 72
65
 73
2
 40
.75
 49
.5
 49
-.25
  0
LTYPE
  2
HIDDEN
 70
64
  3
HIDDEN
 72
65
 73
2
 40
.375
 49
.25
 49
-.125
  0
LTYPE
  2
CENTER
 70
64
  3
CENTER
 72
65
 73
4
 40
2
 49
1.25
 49
-.25
 49
.25
 49
-.25
  0
LTYPE
  2
PHANTOM
 70
64
  3
PHANTOM
 72
65
 73
6
 40
2.5
 49
1.25
 49
-.25
 49
.25
 49
-.25
 49
.25
 49
-.25
  0
ENDTAB
  0
TABLE
  2
LAYER
 70
1
  0
LAYER
  2
1
 70
0
 62
7
  6
CONTINUOUS
 0
ENDTAB
  0
TABLE
  2
STYLE
 70
2
  0
STYLE
  2
MONOTXT
 70
0
 40
0
 41
1
 50
0
 71
0
 42
.2
  3
monotxt
  0
STYLE
  2
BIGFONT
 70
0
 40
0
 41
1
 50
0
 71
0
 42
.2
  3
txt
  4
bigfont
  0
ENDTAB
  0
ENDSEC
  0
SECTION
  2
ENTITIES
  0
CIRCLE
  8
0
 62
4
 10
-6.96749268E+01
 20
-9.02500000E+01
 40
9.00000000E+00
  0
LINE
  8
0
 62
4
 10
-1.01674927E+02
 20
-1.57250008E+02
 11
-1.01674927E+02
 21
-2.32500000E+01
  0
LINE
  8
0
 62
4
 10
-8.76749268E+01
 20
-2.52500000E+01
 11
-8.76749268E+01
 21
-1.55250008E+02
  0
CIRCLE
  8
0
 62
4
 10
-6.96749268E+01
 20
-9.02500000E+01
 40
1.00000000E+01
  0
ARC
  8
0
 62
4
 10
-6.96749268E+01
 20
-9.02500000E+01
 40
2.20000000E+01
 50
4.33417577E+01
 51
5.39216900E+01
  0
ARC
  8
0
 62
4
 10
-6.96749268E+01
 20
-9.02500000E+01
 40
2.20000000E+01
 50
3.06078495E+02
 51
3.16658242E+02
  0
ARC
  8
0
 62
4
 10
-8.16749268E+01
 20
-5.61678925E+01
 40
6.00000000E+00
 50
1.80000091E+02
 51
2.48459076E+02
  0
ARC
  8
0
 62
4
 10
-8.16749268E+01
 20
-1.24332130E+02
 40
6.00000000E+00
 50
1.11540978E+02
 51
1.80000073E+02
  0
ARC
  8
0
 62
4
 10
-8.96749268E+01
 20
-2.52500000E+01
 40
2.00000000E+00
 50
0.00000000E+00
 51
8.99999818E+01
  0
LINE
  8
0
  6
CENTER
 62
6
 10
-6.96749268E+01
 20
-7.60511017E+01
 11
-6.96749268E+01
 21
-1.05751083E+02
  0
LINE
  8
0
 62
4
 10
-5.67194105E+01
 20
-7.24692979E+01
 11
-8.38779104E+01
 21
-6.17488379E+01
  0
LINE
  8
0
 62
4
 10
-1.01674927E+02
 20
-2.32500000E+01
 11
-8.96749268E+01
 21
-2.32500000E+01
  0
LINE
  8
0
 62
4
 10
-5.67193864E+01
 20
-1.08030704E+02
 11
-8.38779147E+01
 21
-1.18751175E+02
  0
LINE
  8
0
  6
CENTER
 62
6
 10
-1.12137161E+02
 20
-9.02500000E+01
 11
-4.71999359E+01
 21
-9.02500000E+01
  0
LINE
  8
0
  6
CENTER
 62
6
 10
-7.99564819E+01
 20
-3.82499847E+01
 11
-1.06567444E+02
 21
-3.82499847E+01
  0
LINE
  8
0
 62
4
 10
-5.36749268E+01
 20
-7.51503296E+01
 11
-5.36749268E+01
 21
-1.05349678E+02
  0
ARC
  8
0
 62
4
 10
-8.96749268E+01
 20
-1.55250008E+02
 40
2.00000000E+00
 50
2.70000018E+02
 51
0.00000000E+00
  0
LINE
  8
0
 62
4
 10
-1.01674927E+02
 20
-1.57250008E+02
 11
-8.96749268E+01
 21
-1.57250008E+02
  0
LINE
  8
0
  6
CENTER
 62
6
 10
-7.99564819E+01
 20
-1.42250023E+02
 11
-1.09394241E+02
 21
-1.42250023E+02
  0
LINE
  8
0
 62
4
 10
1.24325073E+02
 20
-1.00250000E+02
 11
9.23250732E+01
 21
-1.00250000E+02
  0
LINE
  8
0
 62
4
 10
1.24325073E+02
 20
-8.02500000E+01
 11
9.23250732E+01
 21
-8.02500000E+01
  0
LINE
  8
0
 62
4
 10
7.58250732E+01
 20
-1.00250000E+02
 11
7.03250732E+01
 21
-1.00250000E+02
  0
LINE
  8
0
 62
4
 10
7.58250732E+01
 20
-8.02500000E+01
 11
7.03250732E+01
 21
-8.02500000E+01
  0
LINE
  8
0
 62
4
 10
7.03250732E+01
 20
-1.00250000E+02
 11
7.03250732E+01
 21
-8.02500000E+01
  0
LINE
  8
0
 62
4
 10
6.93250683E+01
 20
-8.12499905E+01
 11
7.03250695E+01
 21
-8.02499895E+01
  0
LINE
  8
0
 62
4
 10
6.93250732E+01
 20
-9.92500000E+01
 11
6.93250732E+01
 21
-8.12500000E+01
  0
LINE
  8
0
 62
4
 10
1.46325071E+02
 20
-1.00250000E+02
 11
1.46325071E+02
 21
-8.02500000E+01
  0
LINE
  8
0
 62
4
 10
1.46325071E+02
 20
-8.02500000E+01
 11
1.40825073E+02
 21
-8.02500000E+01
  0
LINE
  8
0
 62
4
 10
1.46325076E+02
 20
-1.00249992E+02
 11
1.47325078E+02
 21
-9.92499908E+01
  0
LINE
  8
0
 62
4
 10
1.47325071E+02
 20
-9.92500000E+01
 11
1.47325071E+02
 21
-8.12500000E+01
  0
LINE
  8
0
 62
4
 10
1.47325077E+02
 20
-8.12499925E+01
 11
1.46325076E+02
 21
-8.02499915E+01
  0
LINE
  8
0
 62
4
 10
6.93250618E+01
 20
-9.92499991E+01
 11
7.03250630E+01
 21
-1.00250000E+02
  0
LINE
  8
0
 62
4
 10
1.46325071E+02
 20
-1.00250000E+02
 11
1.40825073E+02
 21
-1.00250000E+02
  0
LINE
  8
0
  6
CENTER
 62
6
 10
1.08325073E+02
 20
-1.46313782E+01
 11
1.08325073E+02
 21
-1.65839546E+02
  0
CIRCLE
  8
0
 62
4
 10
5.63251953E+01
 20
-1.42250008E+02
 40
5.75000000E+00
  0
CIRCLE
  8
0
 62
4
 10
1.60324951E+02
 20
-1.42250008E+02
 40
5.75000000E+00
  0
CIRCLE
  8
0
 62
4
 10
1.60324951E+02
 20
-3.82500000E+01
 40
5.75000000E+00
  0
CIRCLE
  8
0
 62
4
 10
5.63251953E+01
 20
-3.82500000E+01
 40
5.75000000E+00
  0
ARC
  8
0
 62
4
 10
1.60324951E+02
 20
-3.82500000E+01
 40
1.50000000E+01
 50
0.00000000E+00
 51
9.00000025E+01
  0
ARC
  8
0
 62
4
 10
1.60324951E+02
 20
-1.42250008E+02
 40
1.50000000E+01
 50
2.69999998E+02
 51
0.00000000E+00
  0
ARC
  8
0
 62
4
 10
5.63251953E+01
 20
-1.42250008E+02
 40
1.50000000E+01
 50
1.79999991E+02
 51
2.70000001E+02
  0
ARC
  8
0
 62
4
 10
5.63251953E+01
 20
-3.82500000E+01
 40
1.50000000E+01
 50
9.00000025E+01
 51
1.80000005E+02
  0
ARC
  8
0
 62
4
 10
1.24825073E+02
 20
-1.20671074E+02
 40
2.00000000E+00
 50
0.00000000E+00
 51
8.99999818E+01
  0
ARC
  8
0
 62
4
 10
1.24825073E+02
 20
-5.98289642E+01
 40
2.00000000E+00
 50
2.70000018E+02
 51
0.00000000E+00
  0
ARC
  8
0
 62
4
 10
1.24825073E+02
 20
-5.72500000E+01
 40
2.00000000E+00
 50
0.00000000E+00
 51
8.99999818E+01
  0
ARC
  8
0
 62
4
 10
9.18250732E+01
 20
-5.98289642E+01
 40
2.00000000E+00
 50
1.79999964E+02
 51
2.70000001E+02
  0
ARC
  8
0
 62
4
 10
9.18250732E+01
 20
-1.23250008E+02
 40
2.00000000E+00
 50
1.79999964E+02
 51
2.70000001E+02
  0
ARC
  8
0
 62
4
 10
9.18250732E+01
 20
-1.20671074E+02
 40
2.00000000E+00
 50
8.99999818E+01
 51
1.79999964E+02
  0
ARC
  8
0
 62
4
 10
1.24825073E+02
 20
-1.23250008E+02
 40
2.00000000E+00
 50
2.70000018E+02
 51
0.00000000E+00
  0
ARC
  8
0
 62
4
 10
9.18250732E+01
 20
-5.72500000E+01
 40
2.00000000E+00
 50
8.99999818E+01
 51
1.79999964E+02
  0
LINE
  8
0
 62
4
 10
5.63251953E+01
 20
-2.32500000E+01
 11
1.60324951E+02
 21
-2.32500000E+01
  0
LINE
  8
0
 62
4
 10
1.75325073E+02
 20
-3.82500000E+01
 11
1.75325073E+02
 21
-1.42250008E+02
  0
LINE
  8
0
 62
4
 10
4.13250732E+01
 20
-3.82500000E+01
 11
4.13250732E+01
 21
-1.42250008E+02
  0
LINE
  8
0
 62
4
 10
5.63251953E+01
 20
-1.57250008E+02
 11
1.60324951E+02
 21
-1.57250008E+02
  0
LINE
  8
0
 62
4
 10
7.58250732E+01
 20
-1.20250008E+02
 11
8.98699341E+01
 21
-1.20250008E+02
  0
LINE
  8
0
  6
CENTER
 62
6
 10
5.63251953E+01
 20
-2.84779205E+01
 11
5.63251953E+01
 21
-4.80674133E+01
  0
LINE
  8
0
 62
4
 10
9.18250732E+01
 20
-1.25250008E+02
 11
1.24825073E+02
 21
-1.25250008E+02
  0
LINE
  8
0
  6
CENTER
 62
6
 10
5.63251953E+01
 20
-1.50831955E+02
 11
5.63251953E+01
 21
-1.34453850E+02
  0
LINE
  8
0
  6
CENTER
 62
6
 10
1.68895844E+02
 20
-1.42250008E+02
 11
1.52196609E+02
 21
-1.42250008E+02
  0
LINE
  8
0
 62
4
 10
1.24325073E+02
 20
-6.18289642E+01
 11
1.24325073E+02
 21
-1.18671074E+02
  0
LINE
  8
0
 62
4
 10
9.23250732E+01
 20
-6.18289642E+01
 11
9.23250732E+01
 21
-1.18671074E+02
  0
LINE
  8
0
 62
4
 10
1.26780212E+02
 20
-1.20250008E+02
 11
1.40825073E+02
 21
-1.20250008E+02
  0
LINE
  8
0
  6
CENTER
 62
6
 10
4.62206707E+01
 20
-3.82500000E+01
 11
6.54890213E+01
 21
-3.82500000E+01
  0
LINE
  8
0
  6
CENTER
 62
6
 10
1.60324951E+02
 20
-2.87990570E+01
 11
1.60324951E+02
 21
-4.80674133E+01
  0
LINE
  8
0
 62
4
 10
9.18250732E+01
 20
-1.18671074E+02
 11
9.23250732E+01
 21
-1.18671074E+02
  0
LINE
  8
0
 62
4
 10
1.40825073E+02
 20
-5.52500000E+01
 11
1.40825073E+02
 21
-1.25250008E+02
  0
LINE
  8
0
 62
4
 10
7.58250732E+01
 20
-5.52500000E+01
 11
7.58250732E+01
 21
-1.25250008E+02
  0
LINE
  8
0
  6
CENTER
 62
6
 10
1.82728943E+02
 20
-9.02500000E+01
 11
3.28113403E+01
 21
-9.02500000E+01
  0
LINE
  8
0
 62
4
 10
8.98250732E+01
 20
-5.72500000E+01
 11
8.98250732E+01
 21
-5.98289642E+01
  0
LINE
  8
0
  6
CENTER
 62
6
 10
1.60324951E+02
 20
-1.52437645E+02
 11
1.60324951E+02
 21
-1.34132713E+02
  0
LINE
  8
0
 62
4
 10
1.26825073E+02
 20
-1.20671074E+02
 11
1.26825073E+02
 21
-1.23250008E+02
  0
LINE
  8
0
 62
4
 10
8.98250732E+01
 20
-1.20671074E+02
 11
8.98250732E+01
 21
-1.23250008E+02
  0
LINE
  8
0
 62
4
 10
1.26780212E+02
 20
-6.02500000E+01
 11
1.40825073E+02
 21
-6.02500000E+01
  0
LINE
  8
0
 62
4
 10
1.24325073E+02
 20
-1.18671074E+02
 11
1.24825073E+02
 21
-1.18671074E+02
  0
LINE
  8
0
 62
4
 10
9.18250732E+01
 20
-6.18289642E+01
 11
9.23250732E+01
 21
-6.18289642E+01
  0
LINE
  8
0
 62
4
 10
1.26825073E+02
 20
-5.72500000E+01
 11
1.26825073E+02
 21
-5.98289642E+01
  0
LINE
  8
0
 62
4
 10
1.24325073E+02
 20
-6.18289642E+01
 11
1.24825073E+02
 21
-6.18289642E+01
  0
LINE
  8
0
 62
4
 10
7.58250732E+01
 20
-6.02500000E+01
 11
8.98699341E+01
 21
-6.02500000E+01
  0
LINE
  8
0
  6
CENTER
 62
6
 10
4.62206707E+01
 20
-1.42250008E+02
 11
6.45256042E+01
 21
-1.42250008E+02
  0
LINE
  8
0
  6
CENTER
 62
6
 10
1.68574707E+02
 20
-3.82500000E+01
 11
1.50912048E+02
 21
-3.82500000E+01
  0
LINE
  8
0
 62
4
 10
9.18250732E+01
 20
-5.52500000E+01
 11
1.24825073E+02
 21
-5.52500000E+01
  0
LINE
  8
0
 62
4
 10
-5.96749268E+01
 20
7.37500000E+01
 11
-5.96749268E+01
 21
1.05750000E+02
  0
LINE
  8
0
 62
4
 10
-7.96749268E+01
 20
7.37500000E+01
 11
-7.96749268E+01
 21
1.05750000E+02
  0
LINE
  8
0
 62
4
 10
-7.96749268E+01
 20
1.21750000E+02
 11
-7.96749268E+01
 21
1.27750000E+02
  0
LINE
  8
0
 62
4
 10
-5.96749268E+01
 20
1.21750000E+02
 11
-5.96749268E+01
 21
1.27750000E+02
  0
LINE
  8
0
 62
4
 10
-7.96749268E+01
 20
5.17500000E+01
 11
-7.96749268E+01
 21
5.77500000E+01
  0
LINE
  8
0
 62
4
 10
-7.96749268E+01
 20
1.27750000E+02
 11
-5.96749268E+01
 21
1.27750000E+02
  0
LINE
  8
0
 62
4
 10
-6.06749294E+01
 20
1.28750006E+02
 11
-5.96749284E+01
 21
1.27750004E+02
  0
LINE
  8
0
 62
4
 10
-7.86749268E+01
 20
1.28750000E+02
 11
-6.06749268E+01
 21
1.28750000E+02
  0
LINE
  8
0
 62
4
 10
-7.96749268E+01
 20
5.17500000E+01
 11
-5.96749268E+01
 21
5.17500000E+01
  0
LINE
  8
0
 62
4
 10
-7.96749289E+01
 20
5.17500036E+01
 11
-7.86749277E+01
 21
5.07500025E+01
  0
LINE
  8
0
 62
4
 10
-6.06749294E+01
 20
5.07500033E+01
 11
-5.96749284E+01
 21
5.17500044E+01
  0
LINE
  8
0
 62
4
 10
-7.86749218E+01
 20
1.28749995E+02
 11
-7.96749229E+01
 21
1.27749993E+02
  0
LINE
  8
0
 62
4
 10
-5.96749268E+01
 20
5.17500000E+01
 11
-5.96749268E+01
 21
5.77500000E+01
  0
LINE
  8
0
 62
4
 10
-7.86749268E+01
 20
5.07500000E+01
 11
-6.06749268E+01
 21
5.07500000E+01
  0
ARC
  8
0
 62
4
 10
-8.56749268E+01
 20
7.33980103E+01
 40
2.00000000E+00
 50
2.74085673E+02
 51
2.55221468E-04
  0
ARC
  8
0
 62
4
 10
-8.56751709E+01
 20
1.06102051E+02
 40
2.00000000E+00
 50
3.59999654E+02
 51
8.59142720E+01
  0
ARC
  8
0
 62
4
 10
-8.96751709E+01
 20
1.54750000E+02
 40
2.00000000E+00
 50
3.59999982E+02
 51
8.99999274E+01
  0
ARC
  8
0
 62
4
 10
-8.96749268E+01
 20
2.47500000E+01
 40
2.00000000E+00
 50
2.70000018E+02
 51
3.59999982E+02
  0
ARC
  8
0
 62
4
 10
-8.36749268E+01
 20
5.37500000E+01
 40
4.00000000E+00
 50
8.99999274E+01
 51
1.79999964E+02
  0
ARC
  8
0
 62
4
 10
-8.36751709E+01
 20
1.25750000E+02
 40
4.00000000E+00
 50
1.80000036E+02
 51
2.70000018E+02
  0
ARC
  8
0
 62
4
 10
-5.16751709E+01
 20
1.19750000E+02
 40
2.00000000E+00
 50
3.59999982E+02
 51
8.99999274E+01
  0
ARC
  8
0
 62
4
 10
-5.16749268E+01
 20
5.97500000E+01
 40
2.00000000E+00
 50
2.70000018E+02
 51
3.59999982E+02
  0
LINE
  8
0
 62
4
 10
-4.96749268E+01
 20
1.19750000E+02
 11
-4.96749268E+01
 21
1.05750000E+02
  0
LINE
  8
0
 62
4
 10
-5.16749268E+01
 20
1.21750000E+02
 11
-8.36749268E+01
 21
1.21750000E+02
  0
LINE
  8
0
 62
4
 10
-8.96749268E+01
 20
2.27500000E+01
 11
-1.01674927E+02
 21
2.27500000E+01
  0
LINE
  8
0
 62
4
 10
-4.96749268E+01
 20
1.05750000E+02
 11
-8.36749268E+01
 21
1.05750000E+02
  0
LINE
  8
0
 62
4
 10
-4.96749268E+01
 20
7.37500000E+01
 11
-8.36749268E+01
 21
7.37500000E+01
  0
LINE
  8
0
 62
4
 10
-8.76749268E+01
 20
1.54750000E+02
 11
-8.76749268E+01
 21
2.47500000E+01
  0
LINE
  8
0
 62
4
 10
-8.96749268E+01
 20
1.56750000E+02
 11
-1.01674927E+02
 21
1.56750000E+02
  0
LINE
  8
0
 62
4
 10
-5.16749268E+01
 20
5.77500000E+01
 11
-8.36749268E+01
 21
5.77500000E+01
  0
LINE
  8
0
 62
4
 10
-4.96749268E+01
 20
7.37500000E+01
 11
-4.96749268E+01
 21
5.97500000E+01
  0
LINE
  8
0
  6
CENTER
 62
6
 10
-7.93833618E+01
 20
3.77499695E+01
 11
-1.06235031E+02
 21
3.77499695E+01
  0
LINE
  8
0
  6
CENTER
 62
6
 10
-7.93833618E+01
 20
1.41750061E+02
 11
-1.04375992E+02
 21
1.41750061E+02
  0
LINE
  8
0
 62
4
 10
-1.01674927E+02
 20
2.27500000E+01
 11
-1.01674927E+02
 21
1.56750000E+02
  0
LINE
  8
0
 62
4
 10
-8.36749268E+01
 20
1.06101990E+02
 11
-8.36749268E+01
 21
1.05750000E+02
  0
LINE
  8
0
 62
4
 10
-8.76750423E+01
 20
1.08250032E+02
 11
-8.55325517E+01
 21
1.08096997E+02
  0
LINE
  8
0
 62
4
 10
-8.76750892E+01
 20
7.12500195E+01
 11
-8.55325986E+01
 21
7.14030545E+01
  0
LINE
  8
0
 62
4
 10
-8.36749268E+01
 20
7.37500000E+01
 11
-8.36749268E+01
 21
7.33979492E+01
  0
LINE
  8
0
  6
CENTER
 62
6
 10
-1.12726913E+02
 20
8.97500000E+01
 11
-4.12064819E+01
 21
8.97500000E+01
  0
LINE
  8
0
  6
CENTER
 62
6
 10
-6.96749268E+01
 20
1.35672729E+02
 11
-6.96749268E+01
 21
4.85460815E+01
  0
TEXT
  8
0
 62
7
 10
-2.68025489E+02
 20
1.57100000E+02
 40
6.30000019E+00
  1
MODEL:DDA125-7
 41
1.00000015E+00
  7
MONOTXT
  0
LINE
  8
0
 62
7
 10
-2.81674927E+02
 20
-1.95250000E+02
 11
2.81674927E+02
 21
-1.95250000E+02
  0
LINE
  8
0
 62
7
 10
-2.81674927E+02
 20
1.95250000E+02
 11
-2.81674927E+02
 21
-1.95250000E+02
  0
LINE
  8
0
 62
7
 10
-2.81674927E+02
 20
1.95250000E+02
 11
2.81674927E+02
 21
1.95250000E+02
  0
LINE
  8
0
 62
7
 10
2.81674927E+02
 20
1.95250000E+02
 11
2.81674927E+02
 21
-1.95250000E+02
  0
LINE
  8
0
 62
7
 10
-1.61674927E+02
 20
1.95250000E+02
 11
-1.61674927E+02
 21
1.75250000E+02
  0
LINE
  8
0
 62
7
 10
-2.81674927E+02
 20
1.75250000E+02
 11
-1.61674927E+02
 21
1.75250000E+02
  0
TEXT
  8
0
 62
7
 10
-2.74325217E+02
 20
1.82100000E+02
 40
6.30000019E+00
  1
NEW DYNA CYLINDER
 41
1.07594953E+00
  7
MONOTXT
  0
LINE
  8
0
 62
7
 10
1.61675049E+02
 20
1.95250000E+02
 11
1.61675049E+02
 21
1.75250000E+02
  0
LINE
  8
0
 62
7
 10
1.61675049E+02
 20
1.75250000E+02
 11
2.81674927E+02
 21
1.75250000E+02
  0
TEXT
  8
0
 62
7
 10
1.97374763E+02
 20
1.82100000E+02
 40
6.30000019E+00
  1
Ver. 1.0
 41
1.08108124E+00
  7
MONOTXT
  0
TEXT
  8
0
 62
7
 10
1.69460362E+02
 20
-1.89750000E+02
 40
9.00000000E+00
  1
KOGANEI CORP.
 41
1.04838710E+00
  7
MONOTXT
  0
LINE
  8
0
 62
7
 10
1.61675049E+02
 20
-1.75250000E+02
 11
2.81674927E+02
 21
-1.75250000E+02
  0
LINE
  8
0
 62
7
 10
1.61675049E+02
 20
-1.75250000E+02
 11
1.61675049E+02
 21
-1.95250000E+02
  0
ENDSEC
  0
EOF
