  0
SECTION
  2
HEADER
  9
$ACADVER
  1
AC1003
  9
$EXTMIN
 10
-2.83424991E+02
 20
-1.96875000E+02
  9
$EXTMAX
 10
2.79924863E+02
 20
1.93625000E+02
  9
$LIMMIN
 10
-2.83425991E+02
 20
-1.96876000E+02
  9
$LIMMAX
 10
2.79925863E+02
 20
1.93626000E+02
  9
$SNAPUNIT
 10
1
 20
1
  9
$SNAPBASE
 10
0
 20
0
  9
$GRIDMODE
 70
0
  9
$GRIDUNIT
 10
0
 20
0
  9
$LTSCALE
 40
9.38916423E+00
  9
$TEXTSIZE
 40
3.2
  9
$DIMTAD
 70
0
  9
$LUNITS
 70
2
  9
$LUPREC
 70
4
  9
$FILLETRAD
 40
0
  9
$AUNITS
 70
0
  9
$AUPREC
 70
0
  0
ENDSEC
  0
SECTION
  2
TABLES
  0
TABLE
  2
LTYPE
 70
2
  0
LTYPE
  2
CONTINUOUS
 70
64
  3
Solid-Line
 72
65
 73
0
 40
0
  0
LTYPE
  2
DASHED
 70
64
  3
DASHED
 72
65
 73
2
 40
.75
 49
.5
 49
-.25
  0
LTYPE
  2
HIDDEN
 70
64
  3
HIDDEN
 72
65
 73
2
 40
.375
 49
.25
 49
-.125
  0
LTYPE
  2
CENTER
 70
64
  3
CENTER
 72
65
 73
4
 40
2
 49
1.25
 49
-.25
 49
.25
 49
-.25
  0
LTYPE
  2
PHANTOM
 70
64
  3
PHANTOM
 72
65
 73
6
 40
2.5
 49
1.25
 49
-.25
 49
.25
 49
-.25
 49
.25
 49
-.25
  0
ENDTAB
  0
TABLE
  2
LAYER
 70
1
  0
LAYER
  2
1
 70
0
 62
7
  6
CONTINUOUS
 0
ENDTAB
  0
TABLE
  2
STYLE
 70
2
  0
STYLE
  2
MONOTXT
 70
0
 40
0
 41
1
 50
0
 71
0
 42
.2
  3
monotxt
  0
STYLE
  2
BIGFONT
 70
0
 40
0
 41
1
 50
0
 71
0
 42
.2
  3
txt
  4
bigfont
  0
ENDTAB
  0
ENDSEC
  0
SECTION
  2
ENTITIES
  0
CIRCLE
  8
0
 62
4
 10
-1.21424991E+02
 20
-9.18749998E+01
 40
9.00000000E+00
  0
LINE
  8
0
 62
4
 10
-1.53424991E+02
 20
-1.58875007E+02
 11
-1.53424991E+02
 21
-2.48749998E+01
  0
LINE
  8
0
 62
4
 10
-1.39424991E+02
 20
-2.68749998E+01
 11
-1.39424991E+02
 21
-1.56875007E+02
  0
CIRCLE
  8
0
 62
4
 10
-1.21424991E+02
 20
-9.18749998E+01
 40
1.00000000E+01
  0
ARC
  8
0
 62
4
 10
-1.21424991E+02
 20
-9.18749998E+01
 40
2.20000000E+01
 50
4.33417577E+01
 51
5.39216900E+01
  0
ARC
  8
0
 62
4
 10
-1.21424991E+02
 20
-9.18749998E+01
 40
2.20000000E+01
 50
3.06078495E+02
 51
3.16658242E+02
  0
ARC
  8
0
 62
4
 10
-1.33424991E+02
 20
-5.77928922E+01
 40
6.00000000E+00
 50
1.80000091E+02
 51
2.48459076E+02
  0
ARC
  8
0
 62
4
 10
-1.33424991E+02
 20
-1.25957130E+02
 40
6.00000000E+00
 50
1.11540978E+02
 51
1.80000073E+02
  0
ARC
  8
0
 62
4
 10
-1.41424991E+02
 20
-2.68749998E+01
 40
2.00000000E+00
 50
0.00000000E+00
 51
8.99999818E+01
  0
LINE
  8
0
  6
CENTER
 62
6
 10
-1.21424991E+02
 20
-7.76761014E+01
 11
-1.21424991E+02
 21
-1.07376083E+02
  0
LINE
  8
0
 62
4
 10
-1.08469475E+02
 20
-7.40942977E+01
 11
-1.35627975E+02
 21
-6.33738376E+01
  0
LINE
  8
0
 62
4
 10
-1.53424991E+02
 20
-2.48749998E+01
 11
-1.41424991E+02
 21
-2.48749998E+01
  0
LINE
  8
0
 62
4
 10
-1.08469451E+02
 20
-1.09655703E+02
 11
-1.35627979E+02
 21
-1.20376175E+02
  0
LINE
  8
0
  6
CENTER
 62
6
 10
-1.63887225E+02
 20
-9.18749998E+01
 11
-9.89500000E+01
 21
-9.18749998E+01
  0
LINE
  8
0
  6
CENTER
 62
6
 10
-1.31706546E+02
 20
-3.98749845E+01
 11
-1.58317508E+02
 21
-3.98749845E+01
  0
LINE
  8
0
 62
4
 10
-1.05424991E+02
 20
-7.67753294E+01
 11
-1.05424991E+02
 21
-1.06974678E+02
  0
ARC
  8
0
 62
4
 10
-1.41424991E+02
 20
-1.56875007E+02
 40
2.00000000E+00
 50
2.70000018E+02
 51
0.00000000E+00
  0
LINE
  8
0
 62
4
 10
-1.53424991E+02
 20
-1.58875007E+02
 11
-1.41424991E+02
 21
-1.58875007E+02
  0
LINE
  8
0
  6
CENTER
 62
6
 10
-1.31706546E+02
 20
-1.43875023E+02
 11
-1.61144305E+02
 21
-1.43875023E+02
  0
ARC
  8
0
 62
4
 10
-1.21924991E+02
 20
-1.53875000E+02
 40
2.00000000E+00
 50
8.99999818E+01
 51
1.79999964E+02
  0
ARC
  8
0
 62
4
 10
-1.21424991E+02
 20
-9.18749998E+01
 40
2.00000000E+01
 50
3.23130102E+02
 51
3.68698977E+01
  0
ARC
  8
0
 62
4
 10
-1.39424991E+02
 20
-1.25341392E+02
 40
1.80000000E+01
 50
0.00000000E+00
 51
3.18598936E+01
  0
LINE
  8
0
 62
4
 10
-6.92499089E+00
 20
-1.53875000E+02
 11
-6.92499089E+00
 21
-1.66875000E+02
  0
LINE
  8
0
 62
4
 10
-1.23924991E+02
 20
-1.53875000E+02
 11
-1.23924991E+02
 21
-1.66875000E+02
  0
LINE
  8
0
 62
4
 10
-7.72372028E+00
 20
-1.52275949E+02
 11
-1.05424991E+02
 21
-7.88799000E+01
  0
LINE
  8
0
  6
CENTER
 62
6
 10
-1.03924991E+02
 20
-1.46986358E+02
 11
-1.03924991E+02
 21
-1.71842544E+02
  0
LINE
  8
0
  6
CENTER
 62
6
 10
-2.69249909E+01
 20
-1.46986358E+02
 11
-2.69249909E+01
 21
-1.71454643E+02
  0
LINE
  8
0
 62
4
 10
-6.92499089E+00
 20
-1.66875000E+02
 11
-1.23924991E+02
 21
-1.66875000E+02
  0
LINE
  8
0
 62
4
 10
-8.92499089E+00
 20
-1.51875000E+02
 11
-1.21924991E+02
 21
-1.51875000E+02
  0
LINE
  8
0
 62
4
 10
-1.21424991E+02
 20
-1.25341392E+02
 11
-1.21424991E+02
 21
-1.51875000E+02
  0
LINE
  8
0
 62
4
 10
1.19075009E+02
 20
-1.26875007E+02
 11
1.23075009E+02
 21
-1.26875007E+02
  0
LINE
  8
0
 62
4
 10
7.40750091E+01
 20
-1.01875000E+02
 11
6.85750091E+01
 21
-1.01875000E+02
  0
LINE
  8
0
 62
4
 10
7.40750091E+01
 20
-8.18749998E+01
 11
6.85750091E+01
 21
-8.18749998E+01
  0
LINE
  8
0
 62
4
 10
6.85750091E+01
 20
-1.01875000E+02
 11
6.85750091E+01
 21
-8.18749998E+01
  0
LINE
  8
0
 62
4
 10
6.75750042E+01
 20
-8.28749903E+01
 11
6.85750053E+01
 21
-8.18749892E+01
  0
LINE
  8
0
 62
4
 10
6.75750091E+01
 20
-1.00875000E+02
 11
6.75750091E+01
 21
-8.28749998E+01
  0
LINE
  8
0
 62
4
 10
1.44575007E+02
 20
-1.01875000E+02
 11
1.44575007E+02
 21
-8.18749998E+01
  0
LINE
  8
0
 62
4
 10
1.44575007E+02
 20
-8.18749998E+01
 11
1.39075009E+02
 21
-8.18749998E+01
  0
LINE
  8
0
 62
4
 10
1.44575012E+02
 20
-1.01874992E+02
 11
1.45575013E+02
 21
-1.00874991E+02
  0
LINE
  8
0
 62
4
 10
1.45575007E+02
 20
-1.00875000E+02
 11
1.45575007E+02
 21
-8.28749998E+01
  0
LINE
  8
0
 62
4
 10
1.45575013E+02
 20
-8.28749923E+01
 11
1.44575012E+02
 21
-8.18749912E+01
  0
LINE
  8
0
 62
4
 10
6.75749977E+01
 20
-1.00874999E+02
 11
6.85749989E+01
 21
-1.01875000E+02
  0
LINE
  8
0
 62
4
 10
1.44575007E+02
 20
-1.01875000E+02
 11
1.39075009E+02
 21
-1.01875000E+02
  0
LINE
  8
0
  6
CENTER
 62
6
 10
1.06575009E+02
 20
-1.62563779E+01
 11
1.06575009E+02
 21
-1.67464546E+02
  0
CIRCLE
  8
0
 62
4
 10
5.45751312E+01
 20
-1.43875007E+02
 40
5.75000000E+00
  0
CIRCLE
  8
0
 62
4
 10
1.58574887E+02
 20
-1.43875007E+02
 40
5.75000000E+00
  0
CIRCLE
  8
0
 62
4
 10
1.58574887E+02
 20
-3.98749998E+01
 40
5.75000000E+00
  0
CIRCLE
  8
0
 62
4
 10
5.45751312E+01
 20
-3.98749998E+01
 40
5.75000000E+00
  0
ARC
  8
0
 62
4
 10
1.58574887E+02
 20
-3.98749998E+01
 40
1.50000000E+01
 50
0.00000000E+00
 51
9.00000025E+01
  0
ARC
  8
0
 62
4
 10
1.58574887E+02
 20
-1.43875007E+02
 40
1.50000000E+01
 50
3.27769082E+02
 51
0.00000000E+00
  0
ARC
  8
0
 62
4
 10
5.45751312E+01
 20
-1.43875007E+02
 40
1.50000000E+01
 50
1.79999991E+02
 51
2.12230918E+02
  0
ARC
  8
0
 62
4
 10
5.45751312E+01
 20
-3.98749998E+01
 40
1.50000000E+01
 50
9.00000025E+01
 51
1.80000005E+02
  0
ARC
  8
0
 62
4
 10
1.23075009E+02
 20
-1.22296074E+02
 40
2.00000000E+00
 50
0.00000000E+00
 51
8.99999818E+01
  0
ARC
  8
0
 62
4
 10
1.23075009E+02
 20
-6.14539640E+01
 40
2.00000000E+00
 50
2.70000018E+02
 51
0.00000000E+00
  0
ARC
  8
0
 62
4
 10
1.23075009E+02
 20
-5.88749998E+01
 40
2.00000000E+00
 50
0.00000000E+00
 51
8.99999818E+01
  0
ARC
  8
0
 62
4
 10
9.00750091E+01
 20
-6.14539640E+01
 40
2.00000000E+00
 50
1.79999964E+02
 51
2.70000001E+02
  0
ARC
  8
0
 62
4
 10
9.00750091E+01
 20
-1.24875007E+02
 40
2.00000000E+00
 50
1.79999964E+02
 51
2.70000001E+02
  0
ARC
  8
0
 62
4
 10
9.00750091E+01
 20
-1.22296074E+02
 40
2.00000000E+00
 50
8.99999818E+01
 51
1.79999964E+02
  0
ARC
  8
0
 62
4
 10
1.23075009E+02
 20
-1.24875007E+02
 40
2.00000000E+00
 50
2.70000018E+02
 51
0.00000000E+00
  0
ARC
  8
0
 62
4
 10
9.00750091E+01
 20
-5.88749998E+01
 40
2.00000000E+00
 50
8.99999818E+01
 51
1.79999964E+02
  0
LINE
  8
0
 62
4
 10
5.45751312E+01
 20
-2.48749998E+01
 11
1.58574887E+02
 21
-2.48749998E+01
  0
LINE
  8
0
 62
4
 10
1.73575009E+02
 20
-3.98749998E+01
 11
1.73575009E+02
 21
-1.43875007E+02
  0
LINE
  8
0
 62
4
 10
3.95750091E+01
 20
-3.98749998E+01
 11
3.95750091E+01
 21
-1.43875007E+02
  0
LINE
  8
0
 62
4
 10
7.40750091E+01
 20
-1.21875007E+02
 11
8.81198699E+01
 21
-1.21875007E+02
  0
LINE
  8
0
  6
CENTER
 62
6
 10
5.45751312E+01
 20
-3.01029203E+01
 11
5.45751312E+01
 21
-4.96924131E+01
  0
LINE
  8
0
 62
4
 10
9.00750091E+01
 20
-1.26875007E+02
 11
9.40750091E+01
 21
-1.26875007E+02
  0
LINE
  8
0
  6
CENTER
 62
6
 10
5.45751312E+01
 20
-1.52456955E+02
 11
5.45751312E+01
 21
-1.36078850E+02
  0
LINE
  8
0
  6
CENTER
 62
6
 10
1.67145779E+02
 20
-1.43875007E+02
 11
1.50446545E+02
 21
-1.43875007E+02
  0
LINE
  8
0
 62
4
 10
1.22575009E+02
 20
-6.34539640E+01
 11
1.22575009E+02
 21
-1.20296074E+02
  0
LINE
  8
0
 62
4
 10
9.05750091E+01
 20
-6.34539640E+01
 11
9.05750091E+01
 21
-1.20296074E+02
  0
LINE
  8
0
 62
4
 10
1.25030148E+02
 20
-1.21875007E+02
 11
1.39075009E+02
 21
-1.21875007E+02
  0
LINE
  8
0
  6
CENTER
 62
6
 10
4.44706066E+01
 20
-3.98749998E+01
 11
6.37389572E+01
 21
-3.98749998E+01
  0
LINE
  8
0
  6
CENTER
 62
6
 10
1.58574887E+02
 20
-3.04240568E+01
 11
1.58574887E+02
 21
-4.96924131E+01
  0
LINE
  8
0
 62
4
 10
9.00750091E+01
 20
-1.20296074E+02
 11
9.05750091E+01
 21
-1.20296074E+02
  0
LINE
  8
0
 62
4
 10
1.39075009E+02
 20
-5.68749998E+01
 11
1.39075009E+02
 21
-1.26875007E+02
  0
LINE
  8
0
 62
4
 10
7.40750091E+01
 20
-5.68749998E+01
 11
7.40750091E+01
 21
-1.26875007E+02
  0
LINE
  8
0
  6
CENTER
 62
6
 10
1.80978879E+02
 20
-9.18749998E+01
 11
3.10612762E+01
 21
-9.18749998E+01
  0
LINE
  8
0
 62
4
 10
8.80750091E+01
 20
-5.88749998E+01
 11
8.80750091E+01
 21
-6.14539640E+01
  0
LINE
  8
0
  6
CENTER
 62
6
 10
1.58574887E+02
 20
-1.54062645E+02
 11
1.58574887E+02
 21
-1.35757713E+02
  0
LINE
  8
0
 62
4
 10
1.25075009E+02
 20
-1.22296074E+02
 11
1.25075009E+02
 21
-1.24875007E+02
  0
LINE
  8
0
 62
4
 10
8.80750091E+01
 20
-1.22296074E+02
 11
8.80750091E+01
 21
-1.24875007E+02
  0
LINE
  8
0
 62
4
 10
1.25030148E+02
 20
-6.18749998E+01
 11
1.39075009E+02
 21
-6.18749998E+01
  0
LINE
  8
0
 62
4
 10
1.22575009E+02
 20
-1.20296074E+02
 11
1.23075009E+02
 21
-1.20296074E+02
  0
LINE
  8
0
 62
4
 10
9.00750091E+01
 20
-6.34539640E+01
 11
9.05750091E+01
 21
-6.34539640E+01
  0
LINE
  8
0
 62
4
 10
1.25075009E+02
 20
-5.88749998E+01
 11
1.25075009E+02
 21
-6.14539640E+01
  0
LINE
  8
0
 62
4
 10
1.22575009E+02
 20
-6.34539640E+01
 11
1.23075009E+02
 21
-6.34539640E+01
  0
LINE
  8
0
 62
4
 10
7.40750091E+01
 20
-6.18749998E+01
 11
8.81198699E+01
 21
-6.18749998E+01
  0
LINE
  8
0
  6
CENTER
 62
6
 10
4.44706066E+01
 20
-1.43875007E+02
 11
6.27755401E+01
 21
-1.43875007E+02
  0
LINE
  8
0
  6
CENTER
 62
6
 10
1.66824643E+02
 20
-3.98749998E+01
 11
1.49161984E+02
 21
-3.98749998E+01
  0
LINE
  8
0
 62
4
 10
9.00750091E+01
 20
-5.68749998E+01
 11
1.23075009E+02
 21
-5.68749998E+01
  0
ARC
  8
0
 62
4
 10
1.22075008E+02
 20
-1.14875023E+02
 40
3.00000000E+00
 50
8.99999818E+01
 51
1.79999964E+02
  0
ARC
  8
0
 62
4
 10
9.10750091E+01
 20
-1.14875023E+02
 40
3.00000000E+00
 50
0.00000000E+00
 51
8.99999818E+01
  0
ARC
  8
0
 62
4
 10
1.22075008E+02
 20
-7.88844450E+01
 40
3.00000000E+00
 50
8.99999818E+01
 51
1.79999964E+02
  0
ARC
  8
0
 62
4
 10
9.10750091E+01
 20
-7.88844450E+01
 40
3.00000000E+00
 50
0.00000000E+00
 51
8.99999818E+01
  0
ARC
  8
0
 62
4
 10
3.60750053E+01
 20
-1.53875000E+02
 40
2.00000000E+00
 50
8.99999818E+01
 51
1.79999964E+02
  0
ARC
  8
0
 62
4
 10
1.33075009E+02
 20
-1.37875000E+02
 40
1.40000000E+01
 50
1.79999977E+02
 51
2.70000028E+02
  0
ARC
  8
0
 62
4
 10
1.77075009E+02
 20
-1.53875000E+02
 40
2.00000000E+00
 50
0.00000000E+00
 51
8.99999818E+01
  0
ARC
  8
0
 62
4
 10
8.00750091E+01
 20
-1.37875000E+02
 40
1.40000000E+01
 50
2.70000018E+02
 51
0.00000000E+00
  0
LINE
  8
0
 62
4
 10
9.10750091E+01
 20
-1.11875023E+02
 11
9.05750091E+01
 21
-1.11875023E+02
  0
LINE
  8
0
  6
CENTER
 62
6
 10
5.15750053E+01
 20
-1.46986358E+02
 11
5.15750053E+01
 21
-1.71842544E+02
  0
LINE
  8
0
 62
4
 10
1.79075009E+02
 20
-1.66875000E+02
 11
1.79075009E+02
 21
-1.53875000E+02
  0
LINE
  8
0
 62
4
 10
3.40750053E+01
 20
-1.66875000E+02
 11
3.40750053E+01
 21
-1.53875000E+02
  0
LINE
  8
0
 62
4
 10
3.60750053E+01
 20
-1.51875000E+02
 11
1.77075009E+02
 21
-1.51875000E+02
  0
LINE
  8
0
 62
4
 10
3.40750053E+01
 20
-1.66875000E+02
 11
1.79075009E+02
 21
-1.66875000E+02
  0
LINE
  8
0
 62
4
 10
1.22575008E+02
 20
-1.11874992E+02
 11
1.22575008E+02
 21
-7.18749998E+01
  0
LINE
  8
0
 62
4
 10
1.19075009E+02
 20
-1.37875000E+02
 11
1.19075009E+02
 21
-7.88844450E+01
  0
LINE
  8
0
 62
4
 10
9.05750091E+01
 20
-1.11874992E+02
 11
9.05750091E+01
 21
-7.18749998E+01
  0
LINE
  8
0
 62
4
 10
9.40750091E+01
 20
-1.37875000E+02
 11
9.40750091E+01
 21
-7.88844450E+01
  0
LINE
  8
0
 62
4
 10
1.22575008E+02
 20
-7.18750303E+01
 11
9.05750091E+01
 21
-7.18750303E+01
  0
LINE
  8
0
 62
4
 10
1.22575008E+02
 20
-1.11875023E+02
 11
1.22075008E+02
 21
-1.11875023E+02
  0
LINE
  8
0
  6
CENTER
 62
6
 10
1.61575009E+02
 20
-1.46986358E+02
 11
1.61575009E+02
 21
-1.71842544E+02
  0
LINE
  8
0
  6
CENTER
 62
6
 10
-1.64476978E+02
 20
8.81250007E+01
 11
-9.29565461E+01
 21
8.81249976E+01
  0
LINE
  8
0
  6
CENTER
 62
6
 10
-1.31133428E+02
 20
3.61249688E+01
 11
-1.57985098E+02
 21
3.61249699E+01
  0
LINE
  8
0
 62
4
 10
-1.31424990E+02
 20
1.20124999E+02
 11
-1.31424989E+02
 21
1.26124999E+02
  0
LINE
  8
0
 62
4
 10
-1.11424990E+02
 20
1.20124998E+02
 11
-1.11424989E+02
 21
1.26124998E+02
  0
LINE
  8
0
 62
4
 10
-1.31424993E+02
 20
5.01249993E+01
 11
-1.31424992E+02
 21
5.61249993E+01
  0
LINE
  8
0
 62
4
 10
-1.31424989E+02
 20
1.26124999E+02
 11
-1.11424989E+02
 21
1.26124998E+02
  0
LINE
  8
0
 62
4
 10
-1.12424992E+02
 20
1.27125004E+02
 11
-1.11424991E+02
 21
1.26125003E+02
  0
LINE
  8
0
 62
4
 10
-1.30424989E+02
 20
1.27124999E+02
 11
-1.12424989E+02
 21
1.27124998E+02
  0
LINE
  8
0
 62
4
 10
-1.31424993E+02
 20
5.01249993E+01
 11
-1.11424993E+02
 21
5.01249984E+01
  0
LINE
  8
0
 62
4
 10
-1.31424995E+02
 20
5.01250029E+01
 11
-1.30424994E+02
 21
4.91250017E+01
  0
LINE
  8
0
 62
4
 10
-1.12424995E+02
 20
4.91250017E+01
 11
-1.11424994E+02
 21
5.01250028E+01
  0
LINE
  8
0
 62
4
 10
-1.30424984E+02
 20
1.27124994E+02
 11
-1.31424985E+02
 21
1.26124993E+02
  0
LINE
  8
0
 62
4
 10
-1.11424993E+02
 20
5.01249984E+01
 11
-1.11424992E+02
 21
5.61249984E+01
  0
LINE
  8
0
 62
4
 10
-1.30424993E+02
 20
4.91249992E+01
 11
-1.12424993E+02
 21
4.91249985E+01
  0
ARC
  8
0
 62
4
 10
-1.37424992E+02
 20
7.17730098E+01
 40
2.00000000E+00
 50
2.74085671E+02
 51
2.52745575E-04
  0
ARC
  8
0
 62
4
 10
-1.37425234E+02
 20
1.04477050E+02
 40
2.00000000E+00
 50
3.59999652E+02
 51
8.59142697E+01
  0
ARC
  8
0
 62
4
 10
-1.41425232E+02
 20
1.53125000E+02
 40
2.00000000E+00
 50
3.59999980E+02
 51
8.99999251E+01
  0
ARC
  8
0
 62
4
 10
-1.41424994E+02
 20
2.31249997E+01
 40
2.00000000E+00
 50
2.70000015E+02
 51
3.59999980E+02
  0
ARC
  8
0
 62
4
 10
-1.35424992E+02
 20
5.21249995E+01
 40
4.00000000E+00
 50
8.99999251E+01
 51
1.79999961E+02
  0
ARC
  8
0
 62
4
 10
-1.35425233E+02
 20
1.24124999E+02
 40
4.00000000E+00
 50
1.80000034E+02
 51
2.70000015E+02
  0
ARC
  8
0
 62
4
 10
-1.03425234E+02
 20
1.18124998E+02
 40
2.00000000E+00
 50
3.59999980E+02
 51
8.99999251E+01
  0
ARC
  8
0
 62
4
 10
-1.03424992E+02
 20
5.81249981E+01
 40
2.00000000E+00
 50
2.70000015E+02
 51
3.59999980E+02
  0
LINE
  8
0
 62
4
 10
-1.01424990E+02
 20
1.18124998E+02
 11
-1.01424990E+02
 21
1.04124998E+02
  0
LINE
  8
0
 62
4
 10
-1.03424990E+02
 20
1.20124998E+02
 11
-1.35424990E+02
 21
1.20124999E+02
  0
LINE
  8
0
 62
4
 10
-1.41424994E+02
 20
2.11249997E+01
 11
-1.53424994E+02
 21
2.11250002E+01
  0
LINE
  8
0
 62
4
 10
-1.39424988E+02
 20
1.53125000E+02
 11
-1.39424994E+02
 21
2.31249996E+01
  0
LINE
  8
0
 62
4
 10
-1.41424988E+02
 20
1.55125000E+02
 11
-1.53424988E+02
 21
1.55125000E+02
  0
LINE
  8
0
 62
4
 10
-1.03424992E+02
 20
5.61249981E+01
 11
-1.35424992E+02
 21
5.61249995E+01
  0
LINE
  8
0
 62
4
 10
-1.01424992E+02
 20
7.21249980E+01
 11
-1.01424992E+02
 21
5.81249980E+01
  0
LINE
  8
0
  6
CENTER
 62
6
 10
-1.31133424E+02
 20
1.40125060E+02
 11
-1.56126054E+02
 21
1.40125061E+02
  0
LINE
  8
0
 62
4
 10
-1.53424994E+02
 20
2.11250002E+01
 11
-1.53424988E+02
 21
1.55125000E+02
  0
LINE
  8
0
 62
4
 10
-1.35424990E+02
 20
1.04476989E+02
 11
-1.35424990E+02
 21
1.04124999E+02
  0
LINE
  8
0
 62
4
 10
-1.39425106E+02
 20
1.06625032E+02
 11
-1.37282615E+02
 21
1.06471997E+02
  0
LINE
  8
0
 62
4
 10
-1.39425154E+02
 20
6.96250191E+01
 11
-1.37282664E+02
 21
6.97780540E+01
  0
LINE
  8
0
 62
4
 10
-1.35424992E+02
 20
7.21249995E+01
 11
-1.35424992E+02
 21
7.17729487E+01
  0
LINE
  8
0
  6
CENTER
 62
6
 10
-1.21424989E+02
 20
1.34047728E+02
 11
-1.21424993E+02
 21
4.69210804E+01
  0
ARC
  8
0
 62
4
 10
-2.18471112E+01
 20
6.16249946E+01
 40
1.40000000E+01
 50
2.65235482E+01
 51
8.99999796E+01
  0
ARC
  8
0
 62
4
 10
-9.84249902E+01
 20
1.03624998E+02
 40
3.00000000E+00
 50
1.79999975E+02
 51
2.70000026E+02
  0
ARC
  8
0
 62
4
 10
-1.06412417E+02
 20
1.03624998E+02
 40
3.00000000E+00
 50
1.79999975E+02
 51
2.70000026E+02
  0
ARC
  8
0
 62
4
 10
-2.18471089E+01
 20
1.14624995E+02
 40
1.40000000E+01
 50
2.70000015E+02
 51
3.34428121E+02
  0
ARC
  8
0
 62
4
 10
-1.06412418E+02
 20
7.26249982E+01
 40
3.00000000E+00
 50
8.99999796E+01
 51
1.79999961E+02
  0
CIRCLE
  8
0
 62
4
 10
-1.21424991E+02
 20
8.81249989E+01
 40
2.00000000E+00
  0
CIRCLE
  8
0
 62
4
 10
-2.69249933E+01
 20
3.31249948E+01
 40
9.00000000E+00
  0
CIRCLE
  8
0
 62
4
 10
-1.03924993E+02
 20
3.31249981E+01
 40
9.00000000E+00
  0
CIRCLE
  8
0
 62
4
 10
-1.03924993E+02
 20
3.31249981E+01
 40
1.75000000E+01
  0
CIRCLE
  8
0
 62
4
 10
-2.69249933E+01
 20
3.31249948E+01
 40
1.75000000E+01
  0
CIRCLE
  8
0
 62
4
 10
-1.03924989E+02
 20
1.43124998E+02
 40
1.75000000E+01
  0
CIRCLE
  8
0
 62
4
 10
-1.03924989E+02
 20
1.43124998E+02
 40
9.00000000E+00
  0
CIRCLE
  8
0
 62
4
 10
-2.69249885E+01
 20
1.43124995E+02
 40
9.00000000E+00
  0
CIRCLE
  8
0
 62
4
 10
-1.21424991E+02
 20
8.81249989E+01
 40
4.00000000E+00
  0
CIRCLE
  8
0
 62
4
 10
-2.69249885E+01
 20
1.43124995E+02
 40
1.75000000E+01
  0
ARC
  8
0
 62
4
 10
-9.84249916E+01
 20
7.26249979E+01
 40
3.00000000E+00
 50
8.99999796E+01
 51
1.79999961E+02
  0
LINE
  8
0
 62
4
 10
-6.92499003E+00
 20
8.81250002E+01
 11
-9.42499324E+00
 21
1.56250016E+01
  0
LINE
  8
0
  6
CENTER
 62
6
 10
-1.03924992E+02
 20
5.56249981E+01
 11
-1.03924994E+02
 21
1.06249981E+01
  0
LINE
  8
0
  6
CENTER
 62
6
 10
-4.42499327E+00
 20
3.31249938E+01
 11
-4.94249933E+01
 21
3.31249957E+01
  0
LINE
  8
0
  6
CENTER
 62
6
 10
-8.14249933E+01
 20
3.31249971E+01
 11
-1.26424993E+02
 21
3.31249991E+01
  0
LINE
  8
0
  6
CENTER
 62
6
 10
-2.69249923E+01
 20
5.56249948E+01
 11
-2.69249942E+01
 21
1.06249948E+01
  0
LINE
  8
0
 62
4
 10
-9.42499488E+00
 20
1.60624997E+02
 11
-6.92499794E+00
 21
8.81249978E+01
  0
LINE
  8
0
  6
CENTER
 62
6
 10
-8.14249885E+01
 20
1.43124997E+02
 11
-1.26424989E+02
 21
1.43124999E+02
  0
LINE
  8
0
  6
CENTER
 62
6
 10
-1.03924989E+02
 20
1.20624998E+02
 11
-1.03924988E+02
 21
1.65624998E+02
  0
LINE
  8
0
 62
4
 10
-1.22580153E+02
 20
1.27124999E+02
 11
-1.21424978E+02
 21
1.60625016E+02
  0
LINE
  8
0
 62
4
 10
-9.42498776E+00
 20
1.60624994E+02
 11
-1.21424988E+02
 21
1.60624999E+02
  0
LINE
  8
0
  6
CENTER
 62
6
 10
-2.69249895E+01
 20
1.20624995E+02
 11
-2.69249875E+01
 21
1.65624995E+02
  0
LINE
  8
0
 62
4
 10
-1.01424990E+02
 20
1.04124998E+02
 11
-1.01424990E+02
 21
1.03624998E+02
  0
LINE
  8
0
 62
4
 10
-1.01424992E+02
 20
7.26249980E+01
 11
-1.01424992E+02
 21
7.21249980E+01
  0
LINE
  8
0
  6
CENTER
 62
6
 10
-4.42498852E+00
 20
1.43124994E+02
 11
-4.94249885E+01
 21
1.43124996E+02
  0
LINE
  8
0
 62
4
 10
-2.18471106E+01
 20
7.56249946E+01
 11
-1.06412418E+02
 21
7.56249982E+01
  0
LINE
  8
0
 62
4
 10
-1.01424992E+02
 20
7.21249980E+01
 11
-1.39424992E+02
 21
7.21249996E+01
  0
LINE
  8
0
 62
4
 10
-2.18471095E+01
 20
1.00624995E+02
 11
-1.06412417E+02
 21
1.00624998E+02
  0
LINE
  8
0
 62
4
 10
-1.01424990E+02
 20
1.04124998E+02
 11
-1.39424990E+02
 21
1.04125000E+02
  0
LINE
  8
0
 62
4
 10
-1.21424977E+02
 20
1.56249922E+01
 11
-1.22580149E+02
 21
4.91249989E+01
  0
LINE
  8
0
 62
4
 10
-9.42499403E+00
 20
1.56249940E+01
 11
-1.21424994E+02
 21
1.56249989E+01
  0
TEXT
  8
0
 62
7
 10
-2.69775553E+02
 20
1.55475000E+02
 40
6.30000019E+00
  1
MODEL:DDA125-7C
 41
1.00000015E+00
  7
MONOTXT
  0
LINE
  8
0
 62
7
 10
-2.83424991E+02
 20
-1.96875000E+02
 11
2.79924863E+02
 21
-1.96875000E+02
  0
LINE
  8
0
 62
7
 10
-2.83424991E+02
 20
1.93625000E+02
 11
-2.83424991E+02
 21
-1.96875000E+02
  0
LINE
  8
0
 62
7
 10
-2.83424991E+02
 20
1.93625000E+02
 11
2.79924863E+02
 21
1.93625000E+02
  0
LINE
  8
0
 62
7
 10
2.79924863E+02
 20
1.93625000E+02
 11
2.79924863E+02
 21
-1.96875000E+02
  0
LINE
  8
0
 62
7
 10
-1.63424991E+02
 20
1.93625000E+02
 11
-1.63424991E+02
 21
1.73625000E+02
  0
LINE
  8
0
 62
7
 10
-2.83424991E+02
 20
1.73625000E+02
 11
-1.63424991E+02
 21
1.73625000E+02
  0
TEXT
  8
0
 62
7
 10
-2.76075282E+02
 20
1.80475000E+02
 40
6.30000019E+00
  1
NEW DYNA CYLINDER
 41
1.07594953E+00
  7
MONOTXT
  0
LINE
  8
0
 62
7
 10
1.59924985E+02
 20
1.93625000E+02
 11
1.59924985E+02
 21
1.73625000E+02
  0
LINE
  8
0
 62
7
 10
1.59924985E+02
 20
1.73625000E+02
 11
2.79924863E+02
 21
1.73625000E+02
  0
TEXT
  8
0
 62
7
 10
1.95624699E+02
 20
1.80475000E+02
 40
6.30000019E+00
  1
Ver. 1.0
 41
1.08108124E+00
  7
MONOTXT
  0
TEXT
  8
0
 62
7
 10
1.67710298E+02
 20
-1.91375000E+02
 40
9.00000000E+00
  1
KOGANEI CORP.
 41
1.04838710E+00
  7
MONOTXT
  0
LINE
  8
0
 62
7
 10
1.59924985E+02
 20
-1.76875000E+02
 11
2.79924863E+02
 21
-1.76875000E+02
  0
LINE
  8
0
 62
7
 10
1.59924985E+02
 20
-1.76875000E+02
 11
1.59924985E+02
 21
-1.96875000E+02
  0
ENDSEC
  0
EOF
