  0
SECTION
  2
HEADER
  9
$ACADVER
  1
AC1003
  9
$EXTMIN
 10
-2.81674927E+02
 20
-1.95250000E+02
  9
$EXTMAX
 10
2.81674927E+02
 20
1.95250000E+02
  9
$LIMMIN
 10
-2.81675927E+02
 20
-1.95251000E+02
  9
$LIMMAX
 10
2.81675927E+02
 20
1.95251000E+02
  9
$SNAPUNIT
 10
1
 20
1
  9
$SNAPBASE
 10
0
 20
0
  9
$GRIDMODE
 70
0
  9
$GRIDUNIT
 10
0
 20
0
  9
$LTSCALE
 40
9.38916423E+00
  9
$TEXTSIZE
 40
3.2
  9
$DIMTAD
 70
0
  9
$LUNITS
 70
2
  9
$LUPREC
 70
4
  9
$FILLETRAD
 40
0
  9
$AUNITS
 70
0
  9
$AUPREC
 70
0
  0
ENDSEC
  0
SECTION
  2
TABLES
  0
TABLE
  2
LTYPE
 70
2
  0
LTYPE
  2
CONTINUOUS
 70
64
  3
Solid-Line
 72
65
 73
0
 40
0
  0
LTYPE
  2
DASHED
 70
64
  3
DASHED
 72
65
 73
2
 40
.75
 49
.5
 49
-.25
  0
LTYPE
  2
HIDDEN
 70
64
  3
HIDDEN
 72
65
 73
2
 40
.375
 49
.25
 49
-.125
  0
LTYPE
  2
CENTER
 70
64
  3
CENTER
 72
65
 73
4
 40
2
 49
1.25
 49
-.25
 49
.25
 49
-.25
  0
LTYPE
  2
PHANTOM
 70
64
  3
PHANTOM
 72
65
 73
6
 40
2.5
 49
1.25
 49
-.25
 49
.25
 49
-.25
 49
.25
 49
-.25
  0
ENDTAB
  0
TABLE
  2
LAYER
 70
1
  0
LAYER
  2
1
 70
0
 62
7
  6
CONTINUOUS
 0
ENDTAB
  0
TABLE
  2
STYLE
 70
2
  0
STYLE
  2
MONOTXT
 70
0
 40
0
 41
1
 50
0
 71
0
 42
.2
  3
monotxt
  0
STYLE
  2
BIGFONT
 70
0
 40
0
 41
1
 50
0
 71
0
 42
.2
  3
txt
  4
bigfont
  0
ENDTAB
  0
ENDSEC
  0
SECTION
  2
ENTITIES
  0
LINE
  8
0
  6
CENTER
 62
6
 10
-6.96749268E+01
 20
-5.02500000E+01
 11
-6.96749268E+01
 21
-1.30250000E+02
  0
LINE
  8
0
 62
4
 10
-8.56749268E+01
 20
-6.32500000E+01
 11
-1.01674927E+02
 21
-6.32500000E+01
  0
LINE
  8
0
 62
4
 10
-8.26749268E+01
 20
-2.32500153E+01
 11
-1.01674927E+02
 21
-2.32500153E+01
  0
LINE
  8
0
 62
4
 10
-4.96749268E+01
 20
-9.88798523E+01
 11
-4.96749268E+01
 21
-8.16201477E+01
  0
LINE
  8
0
 62
4
 10
-8.06749268E+01
 20
-5.82500000E+01
 11
-8.06749268E+01
 21
-2.52500153E+01
  0
LINE
  8
0
 62
4
 10
-8.56749875E+01
 20
-6.32500138E+01
 11
-8.06749775E+01
 21
-5.82500127E+01
  0
LINE
  8
0
 62
4
 10
-8.26749268E+01
 20
-1.57250000E+02
 11
-1.01674927E+02
 21
-1.57250000E+02
  0
LINE
  8
0
 62
4
 10
-8.06749421E+01
 20
-1.22250005E+02
 11
-8.56749305E+01
 21
-1.17250025E+02
  0
LINE
  8
0
 62
4
 10
-7.75393055E+01
 20
-5.43544526E+01
 11
-5.43783758E+01
 21
-7.20933253E+01
  0
LINE
  8
0
 62
4
 10
-1.01674927E+02
 20
-1.17250000E+02
 11
-8.56749268E+01
 21
-1.17250000E+02
  0
LINE
  8
0
 62
4
 10
-1.01674927E+02
 20
-1.56638840E+02
 11
-1.01674927E+02
 21
-2.32500153E+01
  0
LINE
  8
0
  6
CENTER
 62
6
 10
-7.19086914E+01
 20
-3.82499847E+01
 11
-1.08696930E+02
 21
-3.82499847E+01
  0
LINE
  8
0
 62
4
 10
-7.75392969E+01
 20
-1.26145532E+02
 11
-5.43783975E+01
 21
-1.08406682E+02
  0
LINE
  8
0
  6
CENTER
 62
6
 10
-1.13072357E+02
 20
-9.02500000E+01
 11
-3.21666412E+01
 21
-9.02500000E+01
  0
LINE
  8
0
 62
4
 10
-8.06749268E+01
 20
-1.55250000E+02
 11
-8.06749268E+01
 21
-1.22249939E+02
  0
LINE
  8
0
  6
CENTER
 62
6
 10
-7.19086914E+01
 20
-1.42250015E+02
 11
-1.11076965E+02
 21
-1.42250015E+02
  0
ARC
  8
0
 62
4
 10
-7.26749268E+01
 20
-4.80032501E+01
 40
8.00000000E+00
 50
1.80000091E+02
 51
2.35922893E+02
  0
ARC
  8
0
 62
4
 10
-8.26749268E+01
 20
-2.52500153E+01
 40
2.00000000E+00
 50
3.59999964E+02
 51
8.99999818E+01
  0
ARC
  8
0
 62
4
 10
-7.26749268E+01
 20
-1.32496750E+02
 40
8.00000000E+00
 50
1.24077107E+02
 51
1.79999909E+02
  0
ARC
  8
0
 62
4
 10
-6.16749268E+01
 20
-9.88798523E+01
 40
1.20000000E+01
 50
3.04077201E+02
 51
3.34834202E-06
  0
ARC
  8
0
 62
4
 10
-6.16749268E+01
 20
-8.16201477E+01
 40
1.20000000E+01
 50
3.59999997E+02
 51
5.59228022E+01
  0
ARC
  8
0
 62
4
 10
-8.26749268E+01
 20
-1.55250000E+02
 40
2.00000000E+00
 50
2.70000018E+02
 51
3.59999964E+02
  0
CIRCLE
  8
0
 62
4
 10
-6.96749268E+01
 20
-9.02500000E+01
 40
1.80000000E+01
  0
CIRCLE
  8
0
 62
4
 10
-6.96749268E+01
 20
-9.02500000E+01
 40
1.00000000E+01
  0
LINE
  8
0
 62
4
 10
9.33250751E+01
 20
-6.02500000E+01
 11
9.33250751E+01
 21
-1.20250000E+02
  0
LINE
  8
0
 62
4
 10
1.60848540E+02
 20
-2.50841807E+01
 11
1.08325074E+02
 21
-2.32500207E+01
  0
LINE
  8
0
 62
4
 10
1.23325074E+02
 20
-7.22500000E+01
 11
1.24325074E+02
 21
-7.22500000E+01
  0
LINE
  8
0
 62
4
 10
1.72469851E+02
 20
-5.82500000E+01
 11
4.41802998E+01
 21
-5.82500000E+01
  0
LINE
  8
0
 62
4
 10
4.41802998E+01
 20
-1.22250000E+02
 11
1.72469851E+02
 21
-1.22250000E+02
  0
LINE
  8
0
 62
4
 10
9.33250751E+01
 20
-7.52500000E+01
 11
1.23325074E+02
 21
-7.52500000E+01
  0
LINE
  8
0
 62
4
 10
9.23250751E+01
 20
-1.08250000E+02
 11
9.33250751E+01
 21
-1.08250000E+02
  0
LINE
  8
0
 62
4
 10
1.65674048E+02
 20
-6.12473585E+01
 11
1.23325106E+02
 21
-6.27262163E+01
  0
LINE
  8
0
 62
4
 10
9.33250794E+01
 20
-6.27262237E+01
 11
5.09760755E+01
 21
-6.12473639E+01
  0
LINE
  8
0
 62
4
 10
9.23250751E+01
 20
-7.22500000E+01
 11
9.33250751E+01
 21
-7.22500000E+01
  0
LINE
  8
0
 62
4
 10
1.75325075E+02
 20
-4.00750122E+01
 11
1.75325075E+02
 21
-5.12534027E+01
  0
LINE
  8
0
 62
4
 10
4.13250751E+01
 20
-4.00750122E+01
 11
4.13250751E+01
 21
-5.12534027E+01
  0
LINE
  8
0
 62
4
 10
1.23325074E+02
 20
-1.08250000E+02
 11
1.24325074E+02
 21
-1.08250000E+02
  0
LINE
  8
0
 62
4
 10
1.24325074E+02
 20
-7.22500000E+01
 11
1.24325074E+02
 21
-1.08250000E+02
  0
LINE
  8
0
 62
4
 10
9.23250751E+01
 20
-7.22500000E+01
 11
9.23250751E+01
 21
-1.08250000E+02
  0
LINE
  8
0
 62
4
 10
1.23325074E+02
 20
-6.02500000E+01
 11
1.23325074E+02
 21
-1.20250000E+02
  0
LINE
  8
0
  6
CENTER
 62
6
 10
3.39212055E+01
 20
-9.02500000E+01
 11
1.83838808E+02
 21
-9.02500000E+01
  0
LINE
  8
0
  6
CENTER
 62
6
 10
5.63250751E+01
 20
-1.51055710E+02
 11
5.63250751E+01
 21
-1.35178589E+02
  0
LINE
  8
0
  6
CENTER
 62
6
 10
6.63697720E+01
 20
-3.82500000E+01
 11
4.66115818E+01
 21
-3.82500000E+01
  0
LINE
  8
0
  6
CENTER
 62
6
 10
6.46056461E+01
 20
-1.42250000E+02
 11
4.80228825E+01
 21
-1.42250000E+02
  0
LINE
  8
0
  6
CENTER
 62
6
 10
1.08325073E+02
 20
-1.46313934E+01
 11
1.08325073E+02
 21
-1.65839546E+02
  0
LINE
  8
0
 62
4
 10
1.08325127E+02
 20
-1.57249994E+02
 11
1.60848594E+02
 21
-1.55415834E+02
  0
LINE
  8
0
 62
4
 10
1.75325075E+02
 20
-1.29246597E+02
 11
1.75325075E+02
 21
-1.40424988E+02
  0
LINE
  8
0
 62
4
 10
5.58015913E+01
 20
-1.55415841E+02
 11
1.08325056E+02
 21
-1.57250001E+02
  0
LINE
  8
0
  6
CENTER
 62
6
 10
5.63250751E+01
 20
-2.89783478E+01
 11
5.63250751E+01
 21
-4.83836975E+01
  0
LINE
  8
0
  6
CENTER
 62
6
 10
1.69747431E+02
 20
-3.82500000E+01
 11
1.51047718E+02
 21
-3.82500000E+01
  0
LINE
  8
0
 62
4
 10
4.13250751E+01
 20
-1.29246597E+02
 11
4.13250751E+01
 21
-1.40424988E+02
  0
LINE
  8
0
 62
4
 10
1.08325048E+02
 20
-2.32500154E+01
 11
5.58015817E+01
 21
-2.50841754E+01
  0
LINE
  8
0
 62
4
 10
9.33250751E+01
 20
-1.05250000E+02
 11
1.23325074E+02
 21
-1.05250000E+02
  0
LINE
  8
0
  6
CENTER
 62
6
 10
1.69747431E+02
 20
-1.42250000E+02
 11
1.51400541E+02
 21
-1.42250000E+02
  0
LINE
  8
0
  6
CENTER
 62
6
 10
1.60324953E+02
 20
-1.52467010E+02
 11
1.60324953E+02
 21
-1.31650345E+02
  0
LINE
  8
0
 62
4
 10
5.09761279E+01
 20
-1.19252681E+02
 11
9.33251318E+01
 21
-1.17773821E+02
  0
LINE
  8
0
  6
CENTER
 62
6
 10
1.60324953E+02
 20
-2.93311615E+01
 11
1.60324953E+02
 21
-4.83836975E+01
  0
LINE
  8
0
 62
4
 10
1.23325053E+02
 20
-1.17773814E+02
 11
1.65674056E+02
 21
-1.19252673E+02
  0
ARC
  8
0
 62
4
 10
1.21325074E+02
 20
-6.02500000E+01
 40
2.00000000E+00
 50
0.00000000E+00
 51
8.99999818E+01
  0
ARC
  8
0
 62
4
 10
9.53250751E+01
 20
-1.20250000E+02
 40
2.00000000E+00
 50
1.79999964E+02
 51
2.70000001E+02
  0
ARC
  8
0
 62
4
 10
5.13250751E+01
 20
-1.29246597E+02
 40
1.00000000E+01
 50
9.19999707E+01
 51
1.80000073E+02
  0
ARC
  8
0
 62
4
 10
5.63250751E+01
 20
-1.40424988E+02
 40
1.50000000E+01
 50
1.80000036E+02
 51
2.68000029E+02
  0
ARC
  8
0
 62
4
 10
1.65325075E+02
 20
-1.29246597E+02
 40
1.00000000E+01
 50
3.59999926E+02
 51
8.79999936E+01
  0
ARC
  8
0
 62
4
 10
1.60325075E+02
 20
-1.40424988E+02
 40
1.50000000E+01
 50
2.72000007E+02
 51
3.59999975E+02
  0
ARC
  8
0
 62
4
 10
5.13250751E+01
 20
-5.12534027E+01
 40
1.00000000E+01
 50
1.79999909E+02
 51
2.68000012E+02
  0
ARC
  8
0
 62
4
 10
1.65325075E+02
 20
-5.12534027E+01
 40
1.00000000E+01
 50
2.72000062E+02
 51
7.38952452E-05
  0
ARC
  8
0
 62
4
 10
1.21325074E+02
 20
-1.20250000E+02
 40
2.00000000E+00
 50
2.70000018E+02
 51
0.00000000E+00
  0
ARC
  8
0
 62
4
 10
9.53250751E+01
 20
-6.02500000E+01
 40
2.00000000E+00
 50
8.99999818E+01
 51
1.79999964E+02
  0
ARC
  8
0
 62
4
 10
5.63250751E+01
 20
-4.00750122E+01
 40
1.50000000E+01
 50
9.19999707E+01
 51
1.79999964E+02
  0
ARC
  8
0
 62
4
 10
1.60325075E+02
 20
-4.00750122E+01
 40
1.50000000E+01
 50
2.52397811E-05
 51
8.79999936E+01
  0
CIRCLE
  8
0
 62
4
 10
5.63250751E+01
 20
-1.42250000E+02
 40
5.75000000E+00
  0
CIRCLE
  8
0
 62
4
 10
1.60324953E+02
 20
-1.42250000E+02
 40
5.75000000E+00
  0
CIRCLE
  8
0
 62
4
 10
1.60324953E+02
 20
-3.82500000E+01
 40
5.75000000E+00
  0
CIRCLE
  8
0
 62
4
 10
5.63250751E+01
 20
-3.82500000E+01
 40
5.75000000E+00
  0
LINE
  8
0
  6
CENTER
 62
6
 10
-1.09676608E+02
 20
8.97500000E+01
 11
-3.49105377E+01
 21
8.97500000E+01
  0
LINE
  8
0
 62
4
 10
-4.96749268E+01
 20
1.02750000E+02
 11
-4.96749268E+01
 21
7.67500000E+01
  0
LINE
  8
0
 62
4
 10
-5.21749268E+01
 20
1.05750000E+02
 11
-7.79917908E+01
 21
1.05750000E+02
  0
LINE
  8
0
  6
CENTER
 62
6
 10
-6.96749268E+01
 20
1.09750000E+02
 11
-6.96749268E+01
 21
6.97500000E+01
  0
LINE
  8
0
 62
4
 10
-1.01674927E+02
 20
2.27500000E+01
 11
-1.01674927E+02
 21
1.56750031E+02
  0
LINE
  8
0
  6
CENTER
 62
6
 10
-7.19086914E+01
 20
1.41750092E+02
 11
-1.04655609E+02
 21
1.41750092E+02
  0
LINE
  8
0
  6
CENTER
 62
6
 10
-7.19086914E+01
 20
3.77499695E+01
 11
-1.06657745E+02
 21
3.77499695E+01
  0
LINE
  8
0
 62
4
 10
-5.16749708E+01
 20
1.05249994E+02
 11
-5.21749607E+01
 21
1.05749983E+02
  0
LINE
  8
0
 62
4
 10
-5.16749268E+01
 20
1.05250000E+02
 11
-5.16749268E+01
 21
1.04750000E+02
  0
LINE
  8
0
 62
4
 10
-5.16749907E+01
 20
7.42500625E+01
 11
-5.21749806E+01
 21
7.37500729E+01
  0
LINE
  8
0
 62
4
 10
-5.16749268E+01
 20
7.47500000E+01
 11
-5.16749268E+01
 21
7.42500000E+01
  0
LINE
  8
0
 62
4
 10
-5.21749268E+01
 20
7.37500000E+01
 11
-7.79915466E+01
 21
7.37500000E+01
  0
LINE
  8
0
 62
4
 10
-5.16749268E+01
 20
7.47500000E+01
 11
-7.46749268E+01
 21
7.47500000E+01
  0
LINE
  8
0
 62
4
 10
-8.06749268E+01
 20
1.54750031E+02
 11
-8.06749268E+01
 21
2.47500000E+01
  0
LINE
  8
0
 62
4
 10
-8.26749268E+01
 20
1.56750031E+02
 11
-1.01674927E+02
 21
1.56750031E+02
  0
LINE
  8
0
 62
4
 10
-5.16749268E+01
 20
1.04750000E+02
 11
-7.46751709E+01
 21
1.04750000E+02
  0
LINE
  8
0
 62
4
 10
-8.26749268E+01
 20
2.27500000E+01
 11
-1.01674927E+02
 21
2.27500000E+01
  0
ARC
  8
0
 62
4
 10
-8.26749268E+01
 20
2.47500000E+01
 40
2.00000000E+00
 50
2.70000018E+02
 51
3.59999982E+02
  0
ARC
  8
0
 62
4
 10
-5.16751709E+01
 20
1.02750000E+02
 40
2.00000000E+00
 50
3.59999982E+02
 51
8.99999274E+01
  0
ARC
  8
0
 62
4
 10
-8.26751709E+01
 20
1.54750031E+02
 40
2.00000000E+00
 50
3.59999982E+02
 51
8.99999274E+01
  0
ARC
  8
0
 62
4
 10
-5.16749268E+01
 20
7.67500000E+01
 40
2.00000000E+00
 50
2.70000018E+02
 51
3.59999982E+02
  0
ARC
  8
0
 62
4
 10
-7.46751709E+01
 20
1.10750031E+02
 40
6.00000000E+00
 50
1.80000036E+02
 51
2.70000018E+02
  0
ARC
  8
0
 62
4
 10
-7.46749268E+01
 20
6.87500000E+01
 40
6.00000000E+00
 50
8.99999274E+01
 51
1.79999909E+02
  0
TEXT
  8
0
 62
7
 10
-2.68025489E+02
 20
1.57100000E+02
 40
6.30000019E+00
  1
MODEL:DDA125-8
 41
1.00000015E+00
  7
MONOTXT
  0
LINE
  8
0
 62
7
 10
-2.81674927E+02
 20
-1.95250000E+02
 11
2.81674927E+02
 21
-1.95250000E+02
  0
LINE
  8
0
 62
7
 10
-2.81674927E+02
 20
1.95250000E+02
 11
-2.81674927E+02
 21
-1.95250000E+02
  0
LINE
  8
0
 62
7
 10
-2.81674927E+02
 20
1.95250000E+02
 11
2.81674927E+02
 21
1.95250000E+02
  0
LINE
  8
0
 62
7
 10
2.81674927E+02
 20
1.95250000E+02
 11
2.81674927E+02
 21
-1.95250000E+02
  0
LINE
  8
0
 62
7
 10
-1.61674927E+02
 20
1.95250000E+02
 11
-1.61674927E+02
 21
1.75250000E+02
  0
LINE
  8
0
 62
7
 10
-2.81674927E+02
 20
1.75250000E+02
 11
-1.61674927E+02
 21
1.75250000E+02
  0
TEXT
  8
0
 62
7
 10
-2.74325217E+02
 20
1.82100000E+02
 40
6.30000019E+00
  1
NEW DYNA CYLINDER
 41
1.07594953E+00
  7
MONOTXT
  0
LINE
  8
0
 62
7
 10
1.61675049E+02
 20
1.95250000E+02
 11
1.61675049E+02
 21
1.75250000E+02
  0
LINE
  8
0
 62
7
 10
1.61675049E+02
 20
1.75250000E+02
 11
2.81674927E+02
 21
1.75250000E+02
  0
TEXT
  8
0
 62
7
 10
1.97374763E+02
 20
1.82100000E+02
 40
6.30000019E+00
  1
Ver. 1.0
 41
1.08108124E+00
  7
MONOTXT
  0
TEXT
  8
0
 62
7
 10
1.69460362E+02
 20
-1.89750000E+02
 40
9.00000000E+00
  1
KOGANEI CORP.
 41
1.04838710E+00
  7
MONOTXT
  0
LINE
  8
0
 62
7
 10
1.61675049E+02
 20
-1.75250000E+02
 11
2.81674927E+02
 21
-1.75250000E+02
  0
LINE
  8
0
 62
7
 10
1.61675049E+02
 20
-1.75250000E+02
 11
1.61675049E+02
 21
-1.95250000E+02
  0
ENDSEC
  0
EOF
