  0
SECTION
  2
HEADER
  9
$ACADVER
  1
AC1003
  9
$EXTMIN
 10
-5.73038544E+03
 20
-5.79445928E+03
  9
$EXTMAX
 10
5.62734756E+03
 20
1.03179061E+03
  9
$LIMMIN
 10
-5.73038644E+03
 20
-5.79446028E+03
  9
$LIMMAX
 10
5.62734856E+03
 20
1.03179161E+03
  9
$SNAPUNIT
 10
1
 20
1
  9
$SNAPBASE
 10
0
 20
0
  9
$GRIDMODE
 70
0
  9
$GRIDUNIT
 10
0
 20
0
  9
$LTSCALE
 40
1.89295550E+02
  9
$TEXTSIZE
 40
3.2
  9
$DIMTAD
 70
0
  9
$LUNITS
 70
2
  9
$LUPREC
 70
4
  9
$FILLETRAD
 40
0
  9
$AUNITS
 70
0
  9
$AUPREC
 70
0
  0
ENDSEC
  0
SECTION
  2
TABLES
  0
TABLE
  2
LTYPE
 70
2
  0
LTYPE
  2
CONTINUOUS
 70
64
  3
Solid-Line
 72
65
 73
0
 40
0
  0
LTYPE
  2
DASHED
 70
64
  3
DASHED
 72
65
 73
2
 40
.75
 49
.5
 49
-.25
  0
LTYPE
  2
HIDDEN
 70
64
  3
HIDDEN
 72
65
 73
2
 40
.375
 49
.25
 49
-.125
  0
LTYPE
  2
CENTER
 70
64
  3
CENTER
 72
65
 73
4
 40
2
 49
1.25
 49
-.25
 49
.25
 49
-.25
  0
LTYPE
  2
PHANTOM
 70
64
  3
PHANTOM
 72
65
 73
6
 40
2.5
 49
1.25
 49
-.25
 49
.25
 49
-.25
 49
.25
 49
-.25
  0
ENDTAB
  0
TABLE
  2
LAYER
 70
1
  0
LAYER
  2
1
 70
0
 62
7
  6
CONTINUOUS
 0
ENDTAB
  0
TABLE
  2
STYLE
 70
2
  0
STYLE
  2
MONOTXT
 70
0
 40
0
 41
1
 50
0
 71
0
 42
.2
  3
monotxt
  0
STYLE
  2
BIGFONT
 70
0
 40
0
 41
1
 50
0
 71
0
 42
.2
  3
txt
  4
bigfont
  0
ENDTAB
  0
ENDSEC
  0
SECTION
  2
ENTITIES
  0
LINE
  8
0
  6
PHANTOM
 10
-2.95000000E+01
 20
1.56497872E+01
 11
-2.95000000E+01
 21
1.91251967E+02
  0
ARC
  8
0
 62
7
 10
-1.24999969E+02
 20
1.66138855E+02
 40
1.00000000E+00
 50
9.10001673E+01
 51
1.79999964E+02
  0
ARC
  8
0
 62
7
 10
-1.27499969E+02
 20
1.29250000E+02
 40
5.00000000E-01
 50
8.99999818E+01
 51
1.79999964E+02
  0
ARC
  8
0
 62
7
 10
-1.41500000E+02
 20
1.27267090E+02
 40
5.00000000E-01
 50
9.20007356E+01
 51
1.79999964E+02
  0
ARC
  8
0
 62
7
 10
6.20000305E+01
 20
1.66138824E+02
 40
1.00000000E+00
 50
3.59999945E+02
 51
8.89997350E+01
  0
ARC
  8
0
 62
7
 10
-1.46000000E+02
 20
1.26250000E+02
 40
1.00000000E+00
 50
8.99999274E+01
 51
1.79999964E+02
  0
ARC
  8
0
 62
7
 10
-1.46000000E+02
 20
7.32500000E+01
 40
1.00000000E+00
 50
1.79999977E+02
 51
2.70000028E+02
  0
ARC
  8
0
 62
7
 10
6.20000305E+01
 20
3.33611603E+01
 40
1.00000000E+00
 50
2.71000211E+02
 51
0.00000000E+00
  0
ARC
  8
0
 62
7
 10
-1.24999969E+02
 20
3.33611450E+01
 40
1.00000000E+00
 50
1.79999977E+02
 51
2.68999761E+02
  0
ARC
  8
0
 62
7
 10
-1.41500000E+02
 20
7.22329102E+01
 40
5.00000000E-01
 50
1.79999977E+02
 51
2.67999192E+02
  0
ARC
  8
0
 62
7
 10
-1.27499969E+02
 20
7.02500000E+01
 40
5.00000000E-01
 50
1.79999977E+02
 51
2.69999974E+02
  0
ARC
  8
0
 62
7
 10
6.45000305E+01
 20
7.02500000E+01
 40
5.00000000E-01
 50
2.70000018E+02
 51
0.00000000E+00
  0
ARC
  8
0
 62
7
 10
6.45000305E+01
 20
1.29250000E+02
 40
5.00000000E-01
 50
0.00000000E+00
 51
8.99999818E+01
  0
ARC
  8
0
 62
7
 10
-1.66999969E+02
 20
9.97500000E+01
 40
1.75000000E+01
 50
3.36104472E+02
 51
2.38955278E+01
  0
LINE
  8
0
 62
7
 10
-1.64999969E+02
 20
8.73325043E+01
 11
-1.60999969E+02
 21
8.73325043E+01
  0
LINE
  8
0
 62
7
 10
-1.64999969E+02
 20
1.12167496E+02
 11
-1.60999969E+02
 21
1.12167496E+02
  0
LINE
  8
0
 62
2
 10
-1.59511149E+02
 20
9.47720940E+01
 11
-1.50999992E+02
 21
1.06838753E+02
  0
LINE
  8
0
 62
2
 10
-1.59511130E+02
 20
1.04727915E+02
 11
-1.50999983E+02
 21
9.26612718E+01
  0
LINE
  8
0
 62
7
 10
-1.60999916E+02
 20
1.03476460E+02
 11
-1.56999921E+02
 21
1.06838685E+02
  0
LINE
  8
0
 62
7
 10
-1.60999949E+02
 20
9.60235327E+01
 11
-1.56999954E+02
 21
9.26613082E+01
  0
LINE
  8
0
 62
7
 10
-1.60999970E+02
 20
8.33217643E+01
 11
-1.56999961E+02
 21
8.22499654E+01
  0
LINE
  8
0
 62
7
 10
-1.60999965E+02
 20
1.16178223E+02
 11
-1.56999956E+02
 21
1.17250022E+02
  0
LINE
  8
0
 62
7
 10
-1.64999969E+02
 20
8.62500000E+01
 11
-1.64999969E+02
 21
1.13250000E+02
  0
LINE
  8
0
 62
2
 10
-2.14582458E+02
 20
8.73325043E+01
 11
-1.97999969E+02
 21
8.73325043E+01
  0
LINE
  8
0
 62
7
 10
-2.13499969E+02
 20
8.62500000E+01
 11
-1.97999969E+02
 21
8.62500000E+01
  0
LINE
  8
0
 62
7
 10
-2.15000122E+02
 20
8.77499852E+01
 11
-2.13500109E+02
 21
8.62499728E+01
  0
LINE
  8
0
 62
7
 10
-2.13499969E+02
 20
8.62500000E+01
 11
-2.13499969E+02
 21
1.13250000E+02
  0
LINE
  8
0
 62
7
 10
-2.15000003E+02
 20
1.11750000E+02
 11
-2.13500002E+02
 21
1.13250001E+02
  0
LINE
  8
0
 62
2
 10
-2.14582458E+02
 20
1.12167496E+02
 11
-1.97999969E+02
 21
1.12167496E+02
  0
LINE
  8
0
 62
7
 10
-2.13499969E+02
 20
1.13250000E+02
 11
-1.97999969E+02
 21
1.13250000E+02
  0
LINE
  8
0
 62
7
 10
-2.14999969E+02
 20
8.77499084E+01
 11
-2.14999969E+02
 21
1.11750000E+02
  0
LINE
  8
0
 62
7
 10
-1.56999969E+02
 20
1.06838730E+02
 11
-1.56999969E+02
 21
1.17250031E+02
  0
LINE
  8
0
 62
7
 10
-1.56999969E+02
 20
9.26612701E+01
 11
-1.56999969E+02
 21
8.22499695E+01
  0
LINE
  8
0
  6
CENTER
 62
2
 10
-1.05999969E+02
 20
1.55050018E+02
 11
-1.05999969E+02
 21
1.72039276E+02
  0
LINE
  8
0
 62
7
 10
6.45000305E+01
 20
1.29750000E+02
 11
6.30000305E+01
 21
1.29750000E+02
  0
LINE
  8
0
 62
7
 10
6.20174840E+01
 20
1.67138654E+02
 11
2.70000835E+01
 21
1.67749885E+02
  0
LINE
  8
0
 62
7
 10
5.90000610E+01
 20
1.67191437E+02
 11
5.90000610E+01
 21
1.67749969E+02
  0
LINE
  8
0
 62
7
 10
5.90000610E+01
 20
1.67750000E+02
 11
2.70000305E+01
 21
1.67750000E+02
  0
LINE
  8
0
 62
7
 10
-1.46000000E+02
 20
1.27250000E+02
 11
-1.42000000E+02
 21
1.27250000E+02
  0
LINE
  8
0
 62
7
 10
-1.56999969E+02
 20
1.17250031E+02
 11
-1.47000000E+02
 21
1.17250031E+02
  0
LINE
  8
0
 62
7
 10
-9.00000000E+01
 20
1.66250000E+02
 11
-1.49999390E+01
 21
1.66250000E+02
  0
LINE
  8
0
 62
7
 10
2.70000610E+01
 20
1.57250031E+02
 11
1.50000610E+01
 21
1.57250031E+02
  0
LINE
  8
0
 62
7
 10
2.70000610E+01
 20
1.46250031E+02
 11
6.10353527E-05
 21
1.46250031E+02
  0
LINE
  8
0
  6
CENTER
 62
2
 10
6.57791901E+01
 20
1.51750031E+02
 11
-1.29643005E+02
 21
1.51750031E+02
  0
LINE
  8
0
 62
7
 10
-1.25017427E+02
 20
1.67138682E+02
 11
-8.99999643E+01
 21
1.67749914E+02
  0
LINE
  8
0
 62
7
 10
-1.22000000E+02
 20
1.67191437E+02
 11
-1.22000000E+02
 21
1.67749969E+02
  0
LINE
  8
0
 62
7
 10
-1.22000000E+02
 20
1.67750000E+02
 11
-8.99999695E+01
 21
1.67750000E+02
  0
LINE
  8
0
 62
7
 10
-1.41517462E+02
 20
1.27766888E+02
 11
-1.28000005E+02
 21
1.28238928E+02
  0
LINE
  8
0
 62
7
 10
-1.27499969E+02
 20
1.29750000E+02
 11
-1.25999969E+02
 21
1.29750000E+02
  0
LINE
  8
0
  6
CENTER
 62
2
 10
4.29999695E+01
 20
1.55050018E+02
 11
4.29999695E+01
 21
1.72039276E+02
  0
LINE
  8
0
 62
7
 10
-1.42000000E+02
 20
1.27250000E+02
 11
-1.42000000E+02
 21
7.22500000E+01
  0
LINE
  8
0
 62
7
 10
-1.27499969E+02
 20
6.97500000E+01
 11
-1.25999969E+02
 21
6.97500000E+01
  0
LINE
  8
0
 62
7
 10
-1.41517437E+02
 20
7.17331254E+01
 11
-1.27999980E+02
 21
7.12610854E+01
  0
LINE
  8
0
 62
7
 10
-1.46000000E+02
 20
7.22500000E+01
 11
-1.42000000E+02
 21
7.22500000E+01
  0
LINE
  8
0
 62
7
 10
-1.47000000E+02
 20
1.26250000E+02
 11
-1.47000000E+02
 21
7.32500000E+01
  0
LINE
  8
0
 62
7
 10
-1.27999969E+02
 20
7.02500000E+01
 11
-1.27999969E+02
 21
1.29250000E+02
  0
LINE
  8
0
 62
7
 10
6.50000305E+01
 20
7.02500000E+01
 11
6.50000305E+01
 21
1.29250000E+02
  0
LINE
  8
0
 62
7
 10
6.45000305E+01
 20
6.97500000E+01
 11
6.30000305E+01
 21
6.97500000E+01
  0
LINE
  8
0
 62
7
 10
6.20174819E+01
 20
3.23613479E+01
 11
2.70000948E+01
 21
3.17501172E+01
  0
LINE
  8
0
 62
7
 10
5.90000610E+01
 20
3.23085785E+01
 11
5.90000610E+01
 21
3.17500153E+01
  0
LINE
  8
0
 62
7
 10
5.90000610E+01
 20
3.17500000E+01
 11
2.70000305E+01
 21
3.17500000E+01
  0
LINE
  8
0
 62
7
 10
2.70000610E+01
 20
1.67750000E+02
 11
2.70000610E+01
 21
3.17500763E+01
  0
LINE
  8
0
 62
7
 10
6.30000305E+01
 20
1.66138824E+02
 11
6.30000305E+01
 21
3.33611603E+01
  0
LINE
  8
0
 62
7
 10
-1.56999969E+02
 20
9.26612701E+01
 11
-1.50999969E+02
 21
9.26612701E+01
  0
LINE
  8
0
 62
7
 10
-1.56999969E+02
 20
1.06838730E+02
 11
-1.50999969E+02
 21
1.06838730E+02
  0
LINE
  8
0
 62
7
 10
-1.50999969E+02
 20
9.26612701E+01
 11
-1.50999969E+02
 21
1.06838730E+02
  0
LINE
  8
0
 62
7
 10
-1.56999969E+02
 20
8.22499695E+01
 11
-1.47000000E+02
 21
8.22499695E+01
  0
LINE
  8
0
 62
7
 10
-1.60999969E+02
 20
9.97500000E+01
 11
-1.60999969E+02
 21
8.33217621E+01
  0
LINE
  8
0
 62
7
 10
-1.60999969E+02
 20
9.97500000E+01
 11
-1.60999969E+02
 21
1.16178223E+02
  0
LINE
  8
0
  6
CENTER
 62
2
 10
-2.27944885E+02
 20
9.97500000E+01
 11
6.99261932E+01
 21
9.97500000E+01
  0
LINE
  8
0
 62
7
 10
-9.00000000E+01
 20
3.32500000E+01
 11
2.70000610E+01
 21
3.32500000E+01
  0
LINE
  8
0
 62
7
 10
2.70000610E+01
 20
4.22499847E+01
 11
-9.00000000E+01
 21
4.22499847E+01
  0
LINE
  8
0
 62
7
 10
2.70000610E+01
 20
5.32499695E+01
 11
-9.00000000E+01
 21
5.32499695E+01
  0
LINE
  8
0
  6
CENTER
 62
2
 10
6.57791901E+01
 20
4.77499847E+01
 11
-1.29643005E+02
 21
4.77499847E+01
  0
LINE
  8
0
 62
7
 10
-1.25017442E+02
 20
3.23613343E+01
 11
-8.99999715E+01
 21
3.17501021E+01
  0
LINE
  8
0
 62
7
 10
-1.22000000E+02
 20
3.23085785E+01
 11
-1.22000000E+02
 21
3.17500153E+01
  0
LINE
  8
0
 62
7
 10
-1.22000000E+02
 20
3.17500000E+01
 11
-8.99999695E+01
 21
3.17500000E+01
  0
LINE
  8
0
 62
7
 10
-9.00000000E+01
 20
1.67750000E+02
 11
-9.00000000E+01
 21
3.17500763E+01
  0
LINE
  8
0
 62
7
 10
-1.25999969E+02
 20
1.66138855E+02
 11
-1.25999969E+02
 21
3.33611450E+01
  0
LINE
  8
0
 62
7
 10
-1.81999969E+02
 20
1.13250000E+02
 11
-1.64999969E+02
 21
1.13250000E+02
  0
LINE
  8
0
 62
2
 10
-1.81999969E+02
 20
1.12167496E+02
 11
-1.64999969E+02
 21
1.12167496E+02
  0
LINE
  8
0
 62
2
 10
-1.81999969E+02
 20
8.73325043E+01
 11
-1.64999969E+02
 21
8.73325043E+01
  0
LINE
  8
0
 62
7
 10
-1.81999969E+02
 20
8.62500000E+01
 11
-1.64999969E+02
 21
8.62500000E+01
  0
ARC
  8
0
 62
4
 10
-1.91200931E+02
 20
8.41700723E+01
 40
9.20096171E+00
 50
3.25615752E+02
 51
3.43842481E+01
  0
ARC
  8
0
 62
4
 10
-2.16392274E+02
 20
9.97585296E+01
 40
3.43923047E+01
 50
3.42412046E+02
 51
1.75879538E+01
  0
ARC
  8
0
 62
4
 10
-1.91200931E+02
 20
1.15346987E+02
 40
9.20096185E+00
 50
3.25615753E+02
 51
3.43842475E+01
  0
ARC
  8
0
 62
4
 10
-1.88799008E+02
 20
8.41700723E+01
 40
9.20096157E+00
 50
1.45615751E+02
 51
2.14384248E+02
  0
ARC
  8
0
 62
4
 10
-1.63607666E+02
 20
9.97585296E+01
 40
3.43923038E+01
 50
1.62412046E+02
 51
1.97587955E+02
  0
ARC
  8
0
 62
4
 10
-1.88799008E+02
 20
1.15346987E+02
 40
9.20096165E+00
 50
1.45615752E+02
 51
2.14384248E+02
  0
LINE
  8
0
 62
4
 10
-1.97999969E+02
 20
8.17585295E+01
 11
-1.96392274E+02
 21
7.89739199E+01
  0
LINE
  8
0
 62
4
 10
-1.81999970E+02
 20
8.17585295E+01
 11
-1.83607665E+02
 21
7.89739199E+01
  0
LINE
  8
0
 62
4
 10
-1.81999970E+02
 20
1.17758530E+02
 11
-1.83607665E+02
 21
1.20543139E+02
  0
LINE
  8
0
 62
4
 10
-1.97999969E+02
 20
1.17758530E+02
 11
-1.96392274E+02
 21
1.20543139E+02
  0
LINE
  8
0
 62
4
 10
-1.96392274E+02
 20
8.93662247E+01
 11
-1.83607665E+02
 21
8.93662247E+01
  0
LINE
  8
0
 62
4
 10
-1.96392274E+02
 20
1.10150834E+02
 11
-1.83607665E+02
 21
1.10150834E+02
  0
LINE
  8
0
 62
4
 10
-1.96392274E+02
 20
7.89739199E+01
 11
-1.83607665E+02
 21
7.89739199E+01
  0
LINE
  8
0
 62
4
 10
-1.96392274E+02
 20
1.20543139E+02
 11
-1.83607665E+02
 21
1.20543139E+02
  0
LINE
  8
0
 62
4
 10
-1.81999969E+02
 20
8.17585296E+01
 11
-1.81999969E+02
 21
1.17758530E+02
  0
LINE
  8
0
 62
4
 10
-1.97999969E+02
 20
8.17585297E+01
 11
-1.97999969E+02
 21
1.17758529E+02
  0
ARC
  8
0
 62
4
 10
-2.31726049E+03
 20
-2.38133433E+03
 40
3.41312495E+03
 50
4.83671016E+01
 51
4.84464605E+01
  0
ARC
  8
0
 62
4
 10
2.21424537E+03
 20
-2.38131731E+03
 40
3.41310218E+03
 50
1.31553539E+02
 51
1.31632899E+02
  0
POLYLINE
  8
0
 62
4
 66
1
  0
VERTEX
  8
0
 62
4
 10
-5.49116003E+01
 20
1.68207909E+02
  0
VERTEX
  8
0
 62
4
 10
-5.47483227E+01
 20
1.67943324E+02
  0
VERTEX
  8
0
 62
4
 10
-5.45590326E+01
 20
1.67692746E+02
  0
VERTEX
  8
0
 62
4
 10
-5.43452457E+01
 20
1.67458181E+02
  0
VERTEX
  8
0
 62
4
 10
-5.41086740E+01
 20
1.67241508E+02
  0
VERTEX
  8
0
 62
4
 10
-5.38512120E+01
 20
1.67044461E+02
  0
VERTEX
  8
0
 62
4
 10
-5.35749216E+01
 20
1.66868620E+02
  0
VERTEX
  8
0
 62
4
 10
-5.32820151E+01
 20
1.66715392E+02
  0
VERTEX
  8
0
 62
4
 10
-5.29748382E+01
 20
1.66586004E+02
  0
VERTEX
  8
0
 62
4
 10
-5.26558508E+01
 20
1.66481492E+02
  0
VERTEX
  8
0
 62
4
 10
-5.23276074E+01
 20
1.66402693E+02
  0
VERTEX
  8
0
 62
4
 10
-5.19927365E+01
 20
1.66350238E+02
  0
VERTEX
  8
0
 62
4
 10
-5.16539197E+01
 20
1.66324548E+02
  0
VERTEX
  8
0
 62
4
 10
-5.13138703E+01
 20
1.66325828E+02
  0
VERTEX
  8
0
 62
4
 10
-5.09753115E+01
 20
1.66354067E+02
  0
VERTEX
  8
0
 62
4
 10
-5.06409544E+01
 20
1.66409040E+02
  0
VERTEX
  8
0
 62
4
 10
-5.03134765E+01
 20
1.66490306E+02
  0
VERTEX
  8
0
 62
4
 10
-4.99955003E+01
 20
1.66597215E+02
  0
VERTEX
  8
0
 62
4
 10
-4.96895722E+01
 20
1.66728911E+02
  0
VERTEX
  8
0
 62
4
 10
-4.93981419E+01
 20
1.66884338E+02
  0
VERTEX
  8
0
 62
4
 10
-4.91235434E+01
 20
1.67062252E+02
  0
VERTEX
  8
0
 62
4
 10
-4.88679756E+01
 20
1.67261229E+02
  0
VERTEX
  8
0
 62
4
 10
-4.86334850E+01
 20
1.67479675E+02
  0
VERTEX
  8
0
 62
4
 10
-4.84219495E+01
 20
1.67715840E+02
  0
VERTEX
  8
0
 62
4
 10
-4.82350631E+01
 20
1.67967834E+02
  0
VERTEX
  8
0
 62
4
 10
-4.80743223E+01
 20
1.68233639E+02
  0
VERTEX
  8
0
 62
4
 10
-4.79410144E+01
 20
1.68511125E+02
  0
VERTEX
  8
0
 62
4
 10
-4.78362069E+01
 20
1.68798072E+02
  0
VERTEX
  8
0
 62
4
 10
-4.77607390E+01
 20
1.69092180E+02
  0
VERTEX
  8
0
 62
4
 10
-4.77152152E+01
 20
1.69391095E+02
  0
VERTEX
  8
0
 62
4
 10
-4.77000000E+01
 20
1.69692423E+02
  0
SEQEND
  8
0
  0
POLYLINE
  8
0
 62
4
 66
1
  0
VERTEX
  8
0
 62
4
 10
-5.53000000E+01
 20
1.69692423E+02
  0
VERTEX
  8
0
 62
4
 10
-5.52969626E+01
 20
1.69557683E+02
  0
VERTEX
  8
0
 62
4
 10
-5.52878554E+01
 20
1.69423158E+02
  0
VERTEX
  8
0
 62
4
 10
-5.52726928E+01
 20
1.69289063E+02
  0
VERTEX
  8
0
 62
4
 10
-5.52514991E+01
 20
1.69155613E+02
  0
SEQEND
  8
0
  0
LINE
  8
0
 62
4
 10
-5.53000000E+01
 20
1.69692423E+02
 11
-5.53000000E+01
 21
1.70154172E+02
  0
POLYLINE
  8
0
 62
4
 66
1
  0
VERTEX
  8
0
 62
4
 10
-5.41323496E+01
 20
1.72585089E+02
  0
VERTEX
  8
0
 62
4
 10
-5.43630538E+01
 20
1.72370443E+02
  0
VERTEX
  8
0
 62
4
 10
-5.45715946E+01
 20
1.72138641E+02
  0
VERTEX
  8
0
 62
4
 10
-5.47563577E+01
 20
1.71891476E+02
  0
VERTEX
  8
0
 62
4
 10
-5.49159127E+01
 20
1.71630863E+02
  0
VERTEX
  8
0
 62
4
 10
-5.50490245E+01
 20
1.71358818E+02
  0
VERTEX
  8
0
 62
4
 10
-5.51546627E+01
 20
1.71077448E+02
  0
VERTEX
  8
0
 62
4
 10
-5.52320095E+01
 20
1.70788931E+02
  0
VERTEX
  8
0
 62
4
 10
-5.52804661E+01
 20
1.70495499E+02
  0
VERTEX
  8
0
 62
4
 10
-5.52996575E+01
 20
1.70199426E+02
  0
VERTEX
  8
0
 62
4
 10
-5.52894350E+01
 20
1.69903002E+02
  0
VERTEX
  8
0
 62
4
 10
-5.52498779E+01
 20
1.69608523E+02
  0
VERTEX
  8
0
 62
4
 10
-5.51812923E+01
 20
1.69318267E+02
  0
VERTEX
  8
0
 62
4
 10
-5.50842091E+01
 20
1.69034483E+02
  0
VERTEX
  8
0
 62
4
 10
-5.49593800E+01
 20
1.68759366E+02
  0
VERTEX
  8
0
 62
4
 10
-5.48077711E+01
 20
1.68495047E+02
  0
VERTEX
  8
0
 62
4
 10
-5.46305563E+01
 20
1.68243571E+02
  0
VERTEX
  8
0
 62
4
 10
-5.44291072E+01
 20
1.68006885E+02
  0
VERTEX
  8
0
 62
4
 10
-5.42049834E+01
 20
1.67786823E+02
  0
VERTEX
  8
0
 62
4
 10
-5.39599198E+01
 20
1.67585086E+02
  0
VERTEX
  8
0
 62
4
 10
-5.36958136E+01
 20
1.67403237E+02
  0
VERTEX
  8
0
 62
4
 10
-5.34147091E+01
 20
1.67242683E+02
  0
VERTEX
  8
0
 62
4
 10
-5.31187826E+01
 20
1.67104668E+02
  0
VERTEX
  8
0
 62
4
 10
-5.28103248E+01
 20
1.66990259E+02
  0
VERTEX
  8
0
 62
4
 10
-5.24917235E+01
 20
1.66900343E+02
  0
VERTEX
  8
0
 62
4
 10
-5.21654451E+01
 20
1.66835615E+02
  0
VERTEX
  8
0
 62
4
 10
-5.18340154E+01
 20
1.66796577E+02
  0
VERTEX
  8
0
 62
4
 10
-5.15000000E+01
 20
1.66783531E+02
  0
VERTEX
  8
0
 62
4
 10
-5.11659846E+01
 20
1.66796577E+02
  0
VERTEX
  8
0
 62
4
 10
-5.08345549E+01
 20
1.66835615E+02
  0
VERTEX
  8
0
 62
4
 10
-5.05082765E+01
 20
1.66900343E+02
  0
VERTEX
  8
0
 62
4
 10
-5.01896752E+01
 20
1.66990259E+02
  0
VERTEX
  8
0
 62
4
 10
-4.98812174E+01
 20
1.67104668E+02
  0
VERTEX
  8
0
 62
4
 10
-4.95852909E+01
 20
1.67242683E+02
  0
VERTEX
  8
0
 62
4
 10
-4.93041864E+01
 20
1.67403237E+02
  0
VERTEX
  8
0
 62
4
 10
-4.90400802E+01
 20
1.67585086E+02
  0
VERTEX
  8
0
 62
4
 10
-4.87950166E+01
 20
1.67786823E+02
  0
VERTEX
  8
0
 62
4
 10
-4.85708928E+01
 20
1.68006885E+02
  0
VERTEX
  8
0
 62
4
 10
-4.83694437E+01
 20
1.68243571E+02
  0
VERTEX
  8
0
 62
4
 10
-4.81922289E+01
 20
1.68495047E+02
  0
VERTEX
  8
0
 62
4
 10
-4.80406200E+01
 20
1.68759366E+02
  0
VERTEX
  8
0
 62
4
 10
-4.79157909E+01
 20
1.69034483E+02
  0
VERTEX
  8
0
 62
4
 10
-4.78187077E+01
 20
1.69318267E+02
  0
VERTEX
  8
0
 62
4
 10
-4.77501221E+01
 20
1.69608523E+02
  0
VERTEX
  8
0
 62
4
 10
-4.77105650E+01
 20
1.69903002E+02
  0
VERTEX
  8
0
 62
4
 10
-4.77003425E+01
 20
1.70199426E+02
  0
VERTEX
  8
0
 62
4
 10
-4.77195339E+01
 20
1.70495499E+02
  0
VERTEX
  8
0
 62
4
 10
-4.77679905E+01
 20
1.70788931E+02
  0
VERTEX
  8
0
 62
4
 10
-4.78453373E+01
 20
1.71077448E+02
  0
VERTEX
  8
0
 62
4
 10
-4.79509755E+01
 20
1.71358818E+02
  0
VERTEX
  8
0
 62
4
 10
-4.80840873E+01
 20
1.71630863E+02
  0
VERTEX
  8
0
 62
4
 10
-4.82436423E+01
 20
1.71891476E+02
  0
VERTEX
  8
0
 62
4
 10
-4.84284054E+01
 20
1.72138641E+02
  0
VERTEX
  8
0
 62
4
 10
-4.86369462E+01
 20
1.72370443E+02
  0
VERTEX
  8
0
 62
4
 10
-4.88676504E+01
 20
1.72585089E+02
  0
SEQEND
  8
0
  0
LINE
  8
0
 62
4
 10
-4.77000000E+01
 20
1.69692423E+02
 11
-4.77000000E+01
 21
1.70154172E+02
  0
LINE
  8
0
 62
4
 10
-4.81000000E+01
 20
1.70154172E+02
 11
-4.81000000E+01
 21
1.70676318E+02
  0
POLYLINE
  8
0
 62
4
 66
1
  0
VERTEX
  8
0
 62
4
 10
-5.49000000E+01
 20
1.70676318E+02
  0
VERTEX
  8
0
 62
4
 10
-5.48870620E+01
 20
1.70413471E+02
  0
VERTEX
  8
0
 62
4
 10
-5.48483464E+01
 20
1.70152623E+02
  0
VERTEX
  8
0
 62
4
 10
-5.47841478E+01
 20
1.69895762E+02
  0
VERTEX
  8
0
 62
4
 10
-5.46949549E+01
 20
1.69644841E+02
  0
VERTEX
  8
0
 62
4
 10
-5.45814465E+01
 20
1.69401770E+02
  0
VERTEX
  8
0
 62
4
 10
-5.44444864E+01
 20
1.69168400E+02
  0
VERTEX
  8
0
 62
4
 10
-5.42851170E+01
 20
1.68946505E+02
  0
VERTEX
  8
0
 62
4
 10
-5.41045511E+01
 20
1.68737775E+02
  0
VERTEX
  8
0
 62
4
 10
-5.39041631E+01
 20
1.68543799E+02
  0
VERTEX
  8
0
 62
4
 10
-5.36854779E+01
 20
1.68366053E+02
  0
VERTEX
  8
0
 62
4
 10
-5.34501599E+01
 20
1.68205889E+02
  0
VERTEX
  8
0
 62
4
 10
-5.32000000E+01
 20
1.68064527E+02
  0
VERTEX
  8
0
 62
4
 10
-5.29369021E+01
 20
1.67943042E+02
  0
VERTEX
  8
0
 62
4
 10
-5.26628685E+01
 20
1.67842358E+02
  0
VERTEX
  8
0
 62
4
 10
-5.23799848E+01
 20
1.67763243E+02
  0
VERTEX
  8
0
 62
4
 10
-5.20904038E+01
 20
1.67706299E+02
  0
VERTEX
  8
0
 62
4
 10
-5.17963295E+01
 20
1.67671957E+02
  0
VERTEX
  8
0
 62
4
 10
-5.15000000E+01
 20
1.67660481E+02
  0
VERTEX
  8
0
 62
4
 10
-5.12036705E+01
 20
1.67671957E+02
  0
VERTEX
  8
0
 62
4
 10
-5.09095962E+01
 20
1.67706299E+02
  0
VERTEX
  8
0
 62
4
 10
-5.06200152E+01
 20
1.67763243E+02
  0
VERTEX
  8
0
 62
4
 10
-5.03371315E+01
 20
1.67842358E+02
  0
VERTEX
  8
0
 62
4
 10
-5.00630979E+01
 20
1.67943042E+02
  0
VERTEX
  8
0
 62
4
 10
-4.98000000E+01
 20
1.68064527E+02
  0
VERTEX
  8
0
 62
4
 10
-4.95498401E+01
 20
1.68205889E+02
  0
VERTEX
  8
0
 62
4
 10
-4.93145221E+01
 20
1.68366053E+02
  0
VERTEX
  8
0
 62
4
 10
-4.90958369E+01
 20
1.68543799E+02
  0
VERTEX
  8
0
 62
4
 10
-4.88954489E+01
 20
1.68737775E+02
  0
VERTEX
  8
0
 62
4
 10
-4.87148830E+01
 20
1.68946505E+02
  0
VERTEX
  8
0
 62
4
 10
-4.85555136E+01
 20
1.69168400E+02
  0
VERTEX
  8
0
 62
4
 10
-4.84185535E+01
 20
1.69401770E+02
  0
VERTEX
  8
0
 62
4
 10
-4.83050451E+01
 20
1.69644841E+02
  0
VERTEX
  8
0
 62
4
 10
-4.82158522E+01
 20
1.69895762E+02
  0
VERTEX
  8
0
 62
4
 10
-4.81516536E+01
 20
1.70152623E+02
  0
VERTEX
  8
0
 62
4
 10
-4.81129380E+01
 20
1.70413470E+02
  0
VERTEX
  8
0
 62
4
 10
-4.81000000E+01
 20
1.70676318E+02
  0
VERTEX
  8
0
 62
4
 10
-4.81129380E+01
 20
1.70939165E+02
  0
VERTEX
  8
0
 62
4
 10
-4.81516536E+01
 20
1.71200013E+02
  0
VERTEX
  8
0
 62
4
 10
-4.82158522E+01
 20
1.71456874E+02
  0
VERTEX
  8
0
 62
4
 10
-4.83050451E+01
 20
1.71707795E+02
  0
VERTEX
  8
0
 62
4
 10
-4.84185535E+01
 20
1.71950866E+02
  0
VERTEX
  8
0
 62
4
 10
-4.85555136E+01
 20
1.72184236E+02
  0
VERTEX
  8
0
 62
4
 10
-4.87148830E+01
 20
1.72406131E+02
  0
VERTEX
  8
0
 62
4
 10
-4.88954489E+01
 20
1.72614861E+02
  0
VERTEX
  8
0
 62
4
 10
-4.90958369E+01
 20
1.72808837E+02
  0
VERTEX
  8
0
 62
4
 10
-4.93145221E+01
 20
1.72986583E+02
  0
VERTEX
  8
0
 62
4
 10
-4.95498401E+01
 20
1.73146747E+02
  0
VERTEX
  8
0
 62
4
 10
-4.98000000E+01
 20
1.73288109E+02
  0
VERTEX
  8
0
 62
4
 10
-5.00630979E+01
 20
1.73409594E+02
  0
VERTEX
  8
0
 62
4
 10
-5.03371315E+01
 20
1.73510278E+02
  0
VERTEX
  8
0
 62
4
 10
-5.06200152E+01
 20
1.73589393E+02
  0
VERTEX
  8
0
 62
4
 10
-5.09095962E+01
 20
1.73646337E+02
  0
VERTEX
  8
0
 62
4
 10
-5.12036705E+01
 20
1.73680679E+02
  0
VERTEX
  8
0
 62
4
 10
-5.15000000E+01
 20
1.73692155E+02
  0
VERTEX
  8
0
 62
4
 10
-5.17963295E+01
 20
1.73680679E+02
  0
VERTEX
  8
0
 62
4
 10
-5.20904038E+01
 20
1.73646337E+02
  0
VERTEX
  8
0
 62
4
 10
-5.23799848E+01
 20
1.73589393E+02
  0
VERTEX
  8
0
 62
4
 10
-5.26628685E+01
 20
1.73510278E+02
  0
VERTEX
  8
0
 62
4
 10
-5.29369021E+01
 20
1.73409594E+02
  0
VERTEX
  8
0
 62
4
 10
-5.32000000E+01
 20
1.73288109E+02
  0
VERTEX
  8
0
 62
4
 10
-5.34501599E+01
 20
1.73146747E+02
  0
VERTEX
  8
0
 62
4
 10
-5.36854779E+01
 20
1.72986583E+02
  0
VERTEX
  8
0
 62
4
 10
-5.39041631E+01
 20
1.72808837E+02
  0
VERTEX
  8
0
 62
4
 10
-5.41045511E+01
 20
1.72614861E+02
  0
VERTEX
  8
0
 62
4
 10
-5.42851170E+01
 20
1.72406131E+02
  0
VERTEX
  8
0
 62
4
 10
-5.44444864E+01
 20
1.72184236E+02
  0
VERTEX
  8
0
 62
4
 10
-5.45814465E+01
 20
1.71950866E+02
  0
VERTEX
  8
0
 62
4
 10
-5.46949549E+01
 20
1.71707795E+02
  0
VERTEX
  8
0
 62
4
 10
-5.47841478E+01
 20
1.71456874E+02
  0
VERTEX
  8
0
 62
4
 10
-5.48483464E+01
 20
1.71200013E+02
  0
VERTEX
  8
0
 62
4
 10
-5.48870620E+01
 20
1.70939166E+02
  0
VERTEX
  8
0
 62
4
 10
-5.49000000E+01
 20
1.70676318E+02
  0
SEQEND
  8
0
  0
POLYLINE
  8
0
 62
4
 66
1
  0
VERTEX
  8
0
 62
4
 10
-5.49000000E+01
 20
1.70154172E+02
  0
VERTEX
  8
0
 62
4
 10
-5.48863126E+01
 20
1.69883834E+02
  0
VERTEX
  8
0
 62
4
 10
-5.48453606E+01
 20
1.69615674E+02
  0
VERTEX
  8
0
 62
4
 10
-5.47774737E+01
 20
1.69351848E+02
  0
VERTEX
  8
0
 62
4
 10
-5.46831986E+01
 20
1.69094483E+02
  0
VERTEX
  8
0
 62
4
 10
-5.45632942E+01
 20
1.68845649E+02
  0
VERTEX
  8
0
 62
4
 10
-5.44187259E+01
 20
1.68607351E+02
  0
VERTEX
  8
0
 62
4
 10
-5.42506578E+01
 20
1.68381508E+02
  0
VERTEX
  8
0
 62
4
 10
-5.40604430E+01
 20
1.68169936E+02
  0
VERTEX
  8
0
 62
4
 10
-5.38496130E+01
 20
1.67974341E+02
  0
VERTEX
  8
0
 62
4
 10
-5.36198653E+01
 20
1.67796296E+02
  0
VERTEX
  8
0
 62
4
 10
-5.33730498E+01
 20
1.67637235E+02
  0
VERTEX
  8
0
 62
4
 10
-5.31111535E+01
 20
1.67498440E+02
  0
VERTEX
  8
0
 62
4
 10
-5.28362851E+01
 20
1.67381026E+02
  0
VERTEX
  8
0
 62
4
 10
-5.25506578E+01
 20
1.67285941E+02
  0
VERTEX
  8
0
 62
4
 10
-5.22565712E+01
 20
1.67213948E+02
  0
VERTEX
  8
0
 62
4
 10
-5.19563931E+01
 20
1.67165629E+02
  0
VERTEX
  8
0
 62
4
 10
-5.16525404E+01
 20
1.67141372E+02
  0
VERTEX
  8
0
 62
4
 10
-5.13474596E+01
 20
1.67141372E+02
  0
VERTEX
  8
0
 62
4
 10
-5.10436069E+01
 20
1.67165629E+02
  0
VERTEX
  8
0
 62
4
 10
-5.07434288E+01
 20
1.67213948E+02
  0
VERTEX
  8
0
 62
4
 10
-5.04493422E+01
 20
1.67285941E+02
  0
VERTEX
  8
0
 62
4
 10
-5.01637149E+01
 20
1.67381026E+02
  0
VERTEX
  8
0
 62
4
 10
-4.98888466E+01
 20
1.67498440E+02
  0
VERTEX
  8
0
 62
4
 10
-4.96269503E+01
 20
1.67637235E+02
  0
VERTEX
  8
0
 62
4
 10
-4.93801347E+01
 20
1.67796296E+02
  0
VERTEX
  8
0
 62
4
 10
-4.91503870E+01
 20
1.67974341E+02
  0
VERTEX
  8
0
 62
4
 10
-4.89395570E+01
 20
1.68169936E+02
  0
VERTEX
  8
0
 62
4
 10
-4.87493422E+01
 20
1.68381508E+02
  0
VERTEX
  8
0
 62
4
 10
-4.85812741E+01
 20
1.68607351E+02
  0
VERTEX
  8
0
 62
4
 10
-4.84367058E+01
 20
1.68845649E+02
  0
VERTEX
  8
0
 62
4
 10
-4.83168014E+01
 20
1.69094483E+02
  0
VERTEX
  8
0
 62
4
 10
-4.82225263E+01
 20
1.69351848E+02
  0
VERTEX
  8
0
 62
4
 10
-4.81546394E+01
 20
1.69615674E+02
  0
VERTEX
  8
0
 62
4
 10
-4.81136874E+01
 20
1.69883834E+02
  0
VERTEX
  8
0
 62
4
 10
-4.81000000E+01
 20
1.70154172E+02
  0
SEQEND
  8
0
  0
LINE
  8
0
 62
4
 10
-5.49000000E+01
 20
1.70154172E+02
 11
-5.49000000E+01
 21
1.70676318E+02
  0
ARC
  8
0
 62
4
 10
-9.91629506E+01
 20
1.35611424E+02
 40
5.15424305E+01
 50
3.64722971E+01
 51
4.18474448E+01
  0
ARC
  8
0
 62
4
 10
-1.88371084E+01
 20
1.35611472E+02
 40
5.15423550E+01
 50
1.38152551E+02
 51
1.43527706E+02
  0
LINE
  8
0
 62
4
 10
-5.48500000E+01
 20
1.66763350E+02
 11
-5.48500000E+01
 21
1.67576027E+02
  0
LINE
  8
0
 62
4
 10
-6.31500000E+01
 20
1.66763350E+02
 11
-6.31500000E+01
 21
1.67576027E+02
  0
POLYLINE
  8
0
 62
4
 66
1
  0
VERTEX
  8
0
 62
4
 10
-6.31500000E+01
 20
1.66763350E+02
  0
VERTEX
  8
0
 62
4
 10
-6.31474617E+01
 20
1.66634621E+02
  0
VERTEX
  8
0
 62
4
 10
-6.31398498E+01
 20
1.66506049E+02
  0
VERTEX
  8
0
 62
4
 10
-6.31271736E+01
 20
1.66377792E+02
  0
VERTEX
  8
0
 62
4
 10
-6.31094486E+01
 20
1.66250007E+02
  0
SEQEND
  8
0
  0
POLYLINE
  8
0
 62
4
 66
1
  0
VERTEX
  8
0
 62
4
 10
-6.31500000E+01
 20
1.66587885E+02
  0
VERTEX
  8
0
 62
4
 10
-6.31488204E+01
 20
1.66503293E+02
  0
VERTEX
  8
0
 62
4
 10
-6.31452820E+01
 20
1.66418749E+02
  0
VERTEX
  8
0
 62
4
 10
-6.31393871E+01
 20
1.66334302E+02
  0
VERTEX
  8
0
 62
4
 10
-6.31311388E+01
 20
1.66249998E+02
  0
SEQEND
  8
0
  0
POLYLINE
  8
0
 62
4
 66
1
  0
VERTEX
  8
0
 62
4
 10
-6.87500000E+01
 20
1.69692423E+02
  0
VERTEX
  8
0
 62
4
 10
-6.87414381E+01
 20
1.69518480E+02
  0
VERTEX
  8
0
 62
4
 10
-6.87158174E+01
 20
1.69345860E+02
  0
VERTEX
  8
0
 62
4
 10
-6.86733331E+01
 20
1.69175879E+02
  0
VERTEX
  8
0
 62
4
 10
-6.86143084E+01
 20
1.69009828E+02
  0
VERTEX
  8
0
 62
4
 10
-6.85391925E+01
 20
1.68848972E+02
  0
VERTEX
  8
0
 62
4
 10
-6.84485572E+01
 20
1.68694536E+02
  0
VERTEX
  8
0
 62
4
 10
-6.83430921E+01
 20
1.68547694E+02
  0
VERTEX
  8
0
 62
4
 10
-6.82236000E+01
 20
1.68409564E+02
  0
VERTEX
  8
0
 62
4
 10
-6.80909903E+01
 20
1.68281197E+02
  0
VERTEX
  8
0
 62
4
 10
-6.79462721E+01
 20
1.68163571E+02
  0
VERTEX
  8
0
 62
4
 10
-6.77905470E+01
 20
1.68057580E+02
  0
VERTEX
  8
0
 62
4
 10
-6.76250000E+01
 20
1.67964032E+02
  0
VERTEX
  8
0
 62
4
 10
-6.74508911E+01
 20
1.67883637E+02
  0
VERTEX
  8
0
 62
4
 10
-6.72695453E+01
 20
1.67817009E+02
  0
VERTEX
  8
0
 62
4
 10
-6.70823429E+01
 20
1.67764653E+02
  0
VERTEX
  8
0
 62
4
 10
-6.68907084E+01
 20
1.67726969E+02
  0
VERTEX
  8
0
 62
4
 10
-6.66961004E+01
 20
1.67704243E+02
  0
VERTEX
  8
0
 62
4
 10
-6.65000000E+01
 20
1.67696649E+02
  0
VERTEX
  8
0
 62
4
 10
-6.63038996E+01
 20
1.67704243E+02
  0
VERTEX
  8
0
 62
4
 10
-6.61092916E+01
 20
1.67726969E+02
  0
VERTEX
  8
0
 62
4
 10
-6.59176572E+01
 20
1.67764653E+02
  0
VERTEX
  8
0
 62
4
 10
-6.57304547E+01
 20
1.67817009E+02
  0
VERTEX
  8
0
 62
4
 10
-6.55491089E+01
 20
1.67883637E+02
  0
VERTEX
  8
0
 62
4
 10
-6.53750000E+01
 20
1.67964032E+02
  0
VERTEX
  8
0
 62
4
 10
-6.52094530E+01
 20
1.68057580E+02
  0
VERTEX
  8
0
 62
4
 10
-6.50537279E+01
 20
1.68163571E+02
  0
VERTEX
  8
0
 62
4
 10
-6.49090097E+01
 20
1.68281197E+02
  0
VERTEX
  8
0
 62
4
 10
-6.47764000E+01
 20
1.68409564E+02
  0
VERTEX
  8
0
 62
4
 10
-6.46569079E+01
 20
1.68547694E+02
  0
VERTEX
  8
0
 62
4
 10
-6.45514428E+01
 20
1.68694536E+02
  0
VERTEX
  8
0
 62
4
 10
-6.44608075E+01
 20
1.68848972E+02
  0
VERTEX
  8
0
 62
4
 10
-6.43856916E+01
 20
1.69009828E+02
  0
VERTEX
  8
0
 62
4
 10
-6.43266669E+01
 20
1.69175879E+02
  0
VERTEX
  8
0
 62
4
 10
-6.42841826E+01
 20
1.69345860E+02
  0
VERTEX
  8
0
 62
4
 10
-6.42585619E+01
 20
1.69518480E+02
  0
VERTEX
  8
0
 62
4
 10
-6.42500000E+01
 20
1.69692423E+02
  0
VERTEX
  8
0
 62
4
 10
-6.42585619E+01
 20
1.69866366E+02
  0
VERTEX
  8
0
 62
4
 10
-6.42841826E+01
 20
1.70038986E+02
  0
VERTEX
  8
0
 62
4
 10
-6.43266669E+01
 20
1.70208967E+02
  0
VERTEX
  8
0
 62
4
 10
-6.43856916E+01
 20
1.70375018E+02
  0
VERTEX
  8
0
 62
4
 10
-6.44608075E+01
 20
1.70535874E+02
  0
VERTEX
  8
0
 62
4
 10
-6.45514428E+01
 20
1.70690310E+02
  0
VERTEX
  8
0
 62
4
 10
-6.46569079E+01
 20
1.70837152E+02
  0
VERTEX
  8
0
 62
4
 10
-6.47764000E+01
 20
1.70975282E+02
  0
VERTEX
  8
0
 62
4
 10
-6.49090097E+01
 20
1.71103649E+02
  0
VERTEX
  8
0
 62
4
 10
-6.50537279E+01
 20
1.71221275E+02
  0
VERTEX
  8
0
 62
4
 10
-6.52094530E+01
 20
1.71327266E+02
  0
VERTEX
  8
0
 62
4
 10
-6.53750000E+01
 20
1.71420814E+02
  0
VERTEX
  8
0
 62
4
 10
-6.55491089E+01
 20
1.71501209E+02
  0
VERTEX
  8
0
 62
4
 10
-6.57304547E+01
 20
1.71567837E+02
  0
VERTEX
  8
0
 62
4
 10
-6.59176571E+01
 20
1.71620193E+02
  0
VERTEX
  8
0
 62
4
 10
-6.61092916E+01
 20
1.71657877E+02
  0
VERTEX
  8
0
 62
4
 10
-6.63038996E+01
 20
1.71680603E+02
  0
VERTEX
  8
0
 62
4
 10
-6.65000000E+01
 20
1.71688197E+02
  0
VERTEX
  8
0
 62
4
 10
-6.66961004E+01
 20
1.71680603E+02
  0
VERTEX
  8
0
 62
4
 10
-6.68907084E+01
 20
1.71657877E+02
  0
VERTEX
  8
0
 62
4
 10
-6.70823428E+01
 20
1.71620193E+02
  0
VERTEX
  8
0
 62
4
 10
-6.72695453E+01
 20
1.71567837E+02
  0
VERTEX
  8
0
 62
4
 10
-6.74508911E+01
 20
1.71501209E+02
  0
VERTEX
  8
0
 62
4
 10
-6.76250000E+01
 20
1.71420814E+02
  0
VERTEX
  8
0
 62
4
 10
-6.77905470E+01
 20
1.71327266E+02
  0
VERTEX
  8
0
 62
4
 10
-6.79462721E+01
 20
1.71221275E+02
  0
VERTEX
  8
0
 62
4
 10
-6.80909903E+01
 20
1.71103649E+02
  0
VERTEX
  8
0
 62
4
 10
-6.82236000E+01
 20
1.70975282E+02
  0
VERTEX
  8
0
 62
4
 10
-6.83430921E+01
 20
1.70837152E+02
  0
VERTEX
  8
0
 62
4
 10
-6.84485572E+01
 20
1.70690310E+02
  0
VERTEX
  8
0
 62
4
 10
-6.85391925E+01
 20
1.70535874E+02
  0
VERTEX
  8
0
 62
4
 10
-6.86143084E+01
 20
1.70375018E+02
  0
VERTEX
  8
0
 62
4
 10
-6.86733331E+01
 20
1.70208967E+02
  0
VERTEX
  8
0
 62
4
 10
-6.87158174E+01
 20
1.70038986E+02
  0
VERTEX
  8
0
 62
4
 10
-6.87414381E+01
 20
1.69866366E+02
  0
VERTEX
  8
0
 62
4
 10
-6.87500000E+01
 20
1.69692423E+02
  0
SEQEND
  8
0
  0
LINE
  8
0
  6
CENTER
 62
6
 10
-5.43500001E+01
 20
1.66587885E+02
 11
-6.36500001E+01
 21
1.66587885E+02
  0
LINE
  8
0
  6
CENTER
 62
6
 10
-5.90000001E+01
 20
1.71237885E+02
 11
-5.90000001E+01
 21
1.61937885E+02
  0
LINE
  8
0
  6
CENTER
 62
6
 10
-6.29254031E+01
 20
1.69692423E+02
 11
-7.00745969E+01
 21
1.69692423E+02
  0
LINE
  8
0
  6
CENTER
 62
6
 10
-6.65000000E+01
 20
1.73267020E+02
 11
-6.65000000E+01
 21
1.66117826E+02
  0
LINE
  8
0
  6
CENTER
 62
6
 10
-4.67000000E+01
 20
1.69692423E+02
 11
-5.63000000E+01
 21
1.69692423E+02
  0
LINE
  8
0
  6
CENTER
 62
6
 10
-5.15000000E+01
 20
1.74492423E+02
 11
-5.15000000E+01
 21
1.64892423E+02
  0
LINE
  8
0
 62
4
 10
-7.40000000E+01
 20
1.73683972E+02
 11
-4.40000000E+01
 21
1.73683972E+02
  0
LINE
  8
0
 62
4
 10
-4.40000000E+01
 20
1.73683972E+02
 11
-4.40000000E+01
 21
1.66250000E+02
  0
LINE
  8
0
 62
4
 10
-7.40000000E+01
 20
1.73683972E+02
 11
-7.40000000E+01
 21
1.66250000E+02
  0
POLYLINE
  8
0
 62
4
 66
1
  0
VERTEX
  8
0
 62
4
 10
5.25006104E+00
 20
1.64936413E+02
  0
VERTEX
  8
0
 62
4
 10
5.25862297E+00
 20
1.64762470E+02
  0
VERTEX
  8
0
 62
4
 10
5.28424359E+00
 20
1.64589850E+02
  0
VERTEX
  8
0
 62
4
 10
5.32672793E+00
 20
1.64419869E+02
  0
VERTEX
  8
0
 62
4
 10
5.38575264E+00
 20
1.64253818E+02
  0
VERTEX
  8
0
 62
4
 10
5.46086852E+00
 20
1.64092962E+02
  0
VERTEX
  8
0
 62
4
 10
5.55150388E+00
 20
1.63938526E+02
  0
VERTEX
  8
0
 62
4
 10
5.65696894E+00
 20
1.63791684E+02
  0
VERTEX
  8
0
 62
4
 10
5.77646104E+00
 20
1.63653554E+02
  0
VERTEX
  8
0
 62
4
 10
5.90907078E+00
 20
1.63525187E+02
  0
VERTEX
  8
0
 62
4
 10
6.05378891E+00
 20
1.63407561E+02
  0
VERTEX
  8
0
 62
4
 10
6.20951405E+00
 20
1.63301570E+02
  0
VERTEX
  8
0
 62
4
 10
6.37506103E+00
 20
1.63208022E+02
  0
VERTEX
  8
0
 62
4
 10
6.54916995E+00
 20
1.63127627E+02
  0
VERTEX
  8
0
 62
4
 10
6.73051571E+00
 20
1.63060999E+02
  0
VERTEX
  8
0
 62
4
 10
6.91771818E+00
 20
1.63008643E+02
  0
VERTEX
  8
0
 62
4
 10
7.10935263E+00
 20
1.62970959E+02
  0
VERTEX
  8
0
 62
4
 10
7.30396061E+00
 20
1.62948233E+02
  0
VERTEX
  8
0
 62
4
 10
7.50006103E+00
 20
1.62940639E+02
  0
VERTEX
  8
0
 62
4
 10
7.69616146E+00
 20
1.62948233E+02
  0
VERTEX
  8
0
 62
4
 10
7.89076943E+00
 20
1.62970959E+02
  0
VERTEX
  8
0
 62
4
 10
8.08240389E+00
 20
1.63008643E+02
  0
VERTEX
  8
0
 62
4
 10
8.26960636E+00
 20
1.63060999E+02
  0
VERTEX
  8
0
 62
4
 10
8.45095212E+00
 20
1.63127627E+02
  0
VERTEX
  8
0
 62
4
 10
8.62506104E+00
 20
1.63208022E+02
  0
VERTEX
  8
0
 62
4
 10
8.79060802E+00
 20
1.63301570E+02
  0
VERTEX
  8
0
 62
4
 10
8.94633316E+00
 20
1.63407561E+02
  0
VERTEX
  8
0
 62
4
 10
9.09105129E+00
 20
1.63525187E+02
  0
VERTEX
  8
0
 62
4
 10
9.22366103E+00
 20
1.63653554E+02
  0
VERTEX
  8
0
 62
4
 10
9.34315314E+00
 20
1.63791684E+02
  0
VERTEX
  8
0
 62
4
 10
9.44861820E+00
 20
1.63938526E+02
  0
VERTEX
  8
0
 62
4
 10
9.53925356E+00
 20
1.64092962E+02
  0
VERTEX
  8
0
 62
4
 10
9.61436944E+00
 20
1.64253818E+02
  0
VERTEX
  8
0
 62
4
 10
9.67339415E+00
 20
1.64419869E+02
  0
VERTEX
  8
0
 62
4
 10
9.71587848E+00
 20
1.64589850E+02
  0
VERTEX
  8
0
 62
4
 10
9.74149911E+00
 20
1.64762470E+02
  0
VERTEX
  8
0
 62
4
 10
9.75006104E+00
 20
1.64936413E+02
  0
VERTEX
  8
0
 62
4
 10
9.74149911E+00
 20
1.65110356E+02
  0
VERTEX
  8
0
 62
4
 10
9.71587848E+00
 20
1.65282976E+02
  0
VERTEX
  8
0
 62
4
 10
9.67339415E+00
 20
1.65452957E+02
  0
VERTEX
  8
0
 62
4
 10
9.61436944E+00
 20
1.65619008E+02
  0
VERTEX
  8
0
 62
4
 10
9.53925356E+00
 20
1.65779864E+02
  0
VERTEX
  8
0
 62
4
 10
9.44861820E+00
 20
1.65934300E+02
  0
VERTEX
  8
0
 62
4
 10
9.34315314E+00
 20
1.66081142E+02
  0
VERTEX
  8
0
 62
4
 10
9.22366104E+00
 20
1.66219272E+02
  0
VERTEX
  8
0
 62
4
 10
9.09105130E+00
 20
1.66347639E+02
  0
VERTEX
  8
0
 62
4
 10
8.94633316E+00
 20
1.66465265E+02
  0
VERTEX
  8
0
 62
4
 10
8.79060802E+00
 20
1.66571256E+02
  0
VERTEX
  8
0
 62
4
 10
8.62506104E+00
 20
1.66664804E+02
  0
VERTEX
  8
0
 62
4
 10
8.45095213E+00
 20
1.66745199E+02
  0
VERTEX
  8
0
 62
4
 10
8.26960637E+00
 20
1.66811827E+02
  0
VERTEX
  8
0
 62
4
 10
8.08240389E+00
 20
1.66864183E+02
  0
VERTEX
  8
0
 62
4
 10
7.89076944E+00
 20
1.66901867E+02
  0
VERTEX
  8
0
 62
4
 10
7.69616146E+00
 20
1.66924593E+02
  0
VERTEX
  8
0
 62
4
 10
7.50006104E+00
 20
1.66932187E+02
  0
VERTEX
  8
0
 62
4
 10
7.30396062E+00
 20
1.66924593E+02
  0
VERTEX
  8
0
 62
4
 10
7.10935264E+00
 20
1.66901867E+02
  0
VERTEX
  8
0
 62
4
 10
6.91771819E+00
 20
1.66864183E+02
  0
VERTEX
  8
0
 62
4
 10
6.73051572E+00
 20
1.66811827E+02
  0
VERTEX
  8
0
 62
4
 10
6.54916995E+00
 20
1.66745199E+02
  0
VERTEX
  8
0
 62
4
 10
6.37506104E+00
 20
1.66664804E+02
  0
VERTEX
  8
0
 62
4
 10
6.20951406E+00
 20
1.66571256E+02
  0
VERTEX
  8
0
 62
4
 10
6.05378892E+00
 20
1.66465265E+02
  0
VERTEX
  8
0
 62
4
 10
5.90907078E+00
 20
1.66347639E+02
  0
VERTEX
  8
0
 62
4
 10
5.77646104E+00
 20
1.66219272E+02
  0
VERTEX
  8
0
 62
4
 10
5.65696894E+00
 20
1.66081142E+02
  0
VERTEX
  8
0
 62
4
 10
5.55150388E+00
 20
1.65934300E+02
  0
VERTEX
  8
0
 62
4
 10
5.46086852E+00
 20
1.65779864E+02
  0
VERTEX
  8
0
 62
4
 10
5.38575264E+00
 20
1.65619008E+02
  0
VERTEX
  8
0
 62
4
 10
5.32672793E+00
 20
1.65452957E+02
  0
VERTEX
  8
0
 62
4
 10
5.28424360E+00
 20
1.65282976E+02
  0
VERTEX
  8
0
 62
4
 10
5.25862297E+00
 20
1.65110356E+02
  0
VERTEX
  8
0
 62
4
 10
5.25006104E+00
 20
1.64936413E+02
  0
SEQEND
  8
0
  0
LINE
  8
0
  6
CENTER
 62
6
 10
7.50006104E+00
 20
1.68511010E+02
 11
7.50006104E+00
 21
1.61361816E+02
  0
LINE
  8
0
  6
CENTER
 62
6
 10
1.10746579E+01
 20
1.64936413E+02
 11
3.92546415E+00
 21
1.64936413E+02
  0
POLYLINE
  8
0
 62
4
 66
1
  0
VERTEX
  8
0
 62
4
 10
-1.49993896E+00
 20
1.48284679E+02
  0
VERTEX
  8
0
 62
4
 10
-1.50799037E+00
 20
1.48459708E+02
  0
VERTEX
  8
0
 62
4
 10
-1.53207978E+00
 20
1.48633328E+02
  0
VERTEX
  8
0
 62
4
 10
-1.57201324E+00
 20
1.48804140E+02
  0
VERTEX
  8
0
 62
4
 10
-1.62746922E+00
 20
1.48970771E+02
  0
VERTEX
  8
0
 62
4
 10
-1.69800122E+00
 20
1.49131877E+02
  0
VERTEX
  8
0
 62
4
 10
-1.78304137E+00
 20
1.49286162E+02
  0
VERTEX
  8
0
 62
4
 10
-1.88190497E+00
 20
1.49432384E+02
  0
VERTEX
  8
0
 62
4
 10
-1.99379603E+00
 20
1.49569365E+02
  0
VERTEX
  8
0
 62
4
 10
-2.11781366E+00
 20
1.49696002E+02
  0
VERTEX
  8
0
 62
4
 10
-2.25295935E+00
 20
1.49811277E+02
  0
VERTEX
  8
0
 62
4
 10
-2.39814500E+00
 20
1.49914260E+02
  0
VERTEX
  8
0
 62
4
 10
-2.55220163E+00
 20
1.50004123E+02
  0
VERTEX
  8
0
 62
4
 10
-2.71388889E+00
 20
1.50080142E+02
  0
VERTEX
  8
0
 62
4
 10
-2.88190497E+00
 20
1.50141704E+02
  0
VERTEX
  8
0
 62
4
 10
-3.05489709E+00
 20
1.50188315E+02
  0
VERTEX
  8
0
 62
4
 10
-3.23147243E+00
 20
1.50219600E+02
  0
VERTEX
  8
0
 62
4
 10
-3.41020930E+00
 20
1.50235305E+02
  0
VERTEX
  8
0
 62
4
 10
-3.58966862E+00
 20
1.50235305E+02
  0
VERTEX
  8
0
 62
4
 10
-3.76840549E+00
 20
1.50219600E+02
  0
VERTEX
  8
0
 62
4
 10
-3.94498082E+00
 20
1.50188315E+02
  0
VERTEX
  8
0
 62
4
 10
-4.11797294E+00
 20
1.50141704E+02
  0
VERTEX
  8
0
 62
4
 10
-4.28598902E+00
 20
1.50080142E+02
  0
VERTEX
  8
0
 62
4
 10
-4.44767628E+00
 20
1.50004123E+02
  0
VERTEX
  8
0
 62
4
 10
-4.60173292E+00
 20
1.49914260E+02
  0
VERTEX
  8
0
 62
4
 10
-4.74691856E+00
 20
1.49811277E+02
  0
VERTEX
  8
0
 62
4
 10
-4.88206425E+00
 20
1.49696002E+02
  0
VERTEX
  8
0
 62
4
 10
-5.00608189E+00
 20
1.49569365E+02
  0
VERTEX
  8
0
 62
4
 10
-5.11797295E+00
 20
1.49432384E+02
  0
VERTEX
  8
0
 62
4
 10
-5.21683654E+00
 20
1.49286162E+02
  0
VERTEX
  8
0
 62
4
 10
-5.30187669E+00
 20
1.49131877E+02
  0
VERTEX
  8
0
 62
4
 10
-5.37240870E+00
 20
1.48970771E+02
  0
VERTEX
  8
0
 62
4
 10
-5.42786468E+00
 20
1.48804140E+02
  0
VERTEX
  8
0
 62
4
 10
-5.46779814E+00
 20
1.48633328E+02
  0
VERTEX
  8
0
 62
4
 10
-5.49188755E+00
 20
1.48459708E+02
  0
VERTEX
  8
0
 62
4
 10
-5.49993896E+00
 20
1.48284679E+02
  0
SEQEND
  8
0
  0
LINE
  8
0
 62
4
 10
-1.49993896E+00
 20
1.47424088E+02
 11
-1.49993896E+00
 21
1.48284679E+02
  0
LINE
  8
0
 62
4
 10
-5.49993896E+00
 20
1.47424088E+02
 11
-5.49993896E+00
 21
1.48284679E+02
  0
POLYLINE
  8
0
 62
6
 66
1
  0
VERTEX
  8
0
 62
6
 10
-1.89993896E+00
 20
1.47424088E+02
  0
VERTEX
  8
0
 62
6
 10
-1.90602744E+00
 20
1.47526196E+02
  0
VERTEX
  8
0
 62
6
 10
-1.92424656E+00
 20
1.47627526E+02
  0
VERTEX
  8
0
 62
6
 10
-1.95445764E+00
 20
1.47727309E+02
  0
VERTEX
  8
0
 62
6
 10
-1.99643077E+00
 20
1.47824783E+02
  0
VERTEX
  8
0
 62
6
 10
-2.04984650E+00
 20
1.47919209E+02
  0
VERTEX
  8
0
 62
6
 10
-2.11429831E+00
 20
1.48009866E+02
  0
VERTEX
  8
0
 62
6
 10
-2.18929569E+00
 20
1.48096064E+02
  0
VERTEX
  8
0
 62
6
 10
-2.27426785E+00
 20
1.48177149E+02
  0
VERTEX
  8
0
 62
6
 10
-2.36856811E+00
 20
1.48252503E+02
  0
VERTEX
  8
0
 62
6
 10
-2.47147878E+00
 20
1.48321551E+02
  0
VERTEX
  8
0
 62
6
 10
-2.58221666E+00
 20
1.48383770E+02
  0
VERTEX
  8
0
 62
6
 10
-2.69993896E+00
 20
1.48438685E+02
  0
VERTEX
  8
0
 62
6
 10
-2.82374974E+00
 20
1.48485878E+02
  0
VERTEX
  8
0
 62
6
 10
-2.95270673E+00
 20
1.48524990E+02
  0
VERTEX
  8
0
 62
6
 10
-3.08582849E+00
 20
1.48555723E+02
  0
VERTEX
  8
0
 62
6
 10
-3.22210188E+00
 20
1.48577845E+02
  0
VERTEX
  8
0
 62
6
 10
-3.36048977E+00
 20
1.48591185E+02
  0
VERTEX
  8
0
 62
6
 10
-3.49993896E+00
 20
1.48595643E+02
  0
VERTEX
  8
0
 62
6
 10
-3.63938815E+00
 20
1.48591185E+02
  0
VERTEX
  8
0
 62
6
 10
-3.77777605E+00
 20
1.48577845E+02
  0
VERTEX
  8
0
 62
6
 10
-3.91404943E+00
 20
1.48555723E+02
  0
VERTEX
  8
0
 62
6
 10
-4.04717119E+00
 20
1.48524990E+02
  0
VERTEX
  8
0
 62
6
 10
-4.17612818E+00
 20
1.48485878E+02
  0
VERTEX
  8
0
 62
6
 10
-4.29993896E+00
 20
1.48438685E+02
  0
VERTEX
  8
0
 62
6
 10
-4.41766126E+00
 20
1.48383770E+02
  0
VERTEX
  8
0
 62
6
 10
-4.52839914E+00
 20
1.48321551E+02
  0
VERTEX
  8
0
 62
6
 10
-4.63130981E+00
 20
1.48252503E+02
  0
VERTEX
  8
0
 62
6
 10
-4.72561007E+00
 20
1.48177149E+02
  0
VERTEX
  8
0
 62
6
 10
-4.81058223E+00
 20
1.48096064E+02
  0
VERTEX
  8
0
 62
6
 10
-4.88557961E+00
 20
1.48009866E+02
  0
VERTEX
  8
0
 62
6
 10
-4.95003142E+00
 20
1.47919209E+02
  0
VERTEX
  8
0
 62
6
 10
-5.00344715E+00
 20
1.47824783E+02
  0
VERTEX
  8
0
 62
6
 10
-5.04542028E+00
 20
1.47727309E+02
  0
VERTEX
  8
0
 62
6
 10
-5.07563137E+00
 20
1.47627526E+02
  0
VERTEX
  8
0
 62
6
 10
-5.09385048E+00
 20
1.47526196E+02
  0
VERTEX
  8
0
 62
6
 10
-5.09993896E+00
 20
1.47424088E+02
  0
VERTEX
  8
0
 62
6
 10
-5.09385048E+00
 20
1.47321980E+02
  0
VERTEX
  8
0
 62
6
 10
-5.07563136E+00
 20
1.47220650E+02
  0
VERTEX
  8
0
 62
6
 10
-5.04542028E+00
 20
1.47120867E+02
  0
VERTEX
  8
0
 62
6
 10
-5.00344715E+00
 20
1.47023393E+02
  0
VERTEX
  8
0
 62
6
 10
-4.95003142E+00
 20
1.46928967E+02
  0
VERTEX
  8
0
 62
6
 10
-4.88557960E+00
 20
1.46838310E+02
  0
VERTEX
  8
0
 62
6
 10
-4.81058223E+00
 20
1.46752112E+02
  0
VERTEX
  8
0
 62
6
 10
-4.72561007E+00
 20
1.46671027E+02
  0
VERTEX
  8
0
 62
6
 10
-4.63130981E+00
 20
1.46595673E+02
  0
VERTEX
  8
0
 62
6
 10
-4.52839913E+00
 20
1.46526625E+02
  0
VERTEX
  8
0
 62
6
 10
-4.41766126E+00
 20
1.46464406E+02
  0
VERTEX
  8
0
 62
6
 10
-4.29993896E+00
 20
1.46409491E+02
  0
VERTEX
  8
0
 62
6
 10
-4.17612818E+00
 20
1.46362298E+02
  0
VERTEX
  8
0
 62
6
 10
-4.04717119E+00
 20
1.46323186E+02
  0
VERTEX
  8
0
 62
6
 10
-3.91404943E+00
 20
1.46292453E+02
  0
VERTEX
  8
0
 62
6
 10
-3.77777604E+00
 20
1.46270331E+02
  0
VERTEX
  8
0
 62
6
 10
-3.63938815E+00
 20
1.46256991E+02
  0
VERTEX
  8
0
 62
6
 10
-3.49993896E+00
 20
1.46252533E+02
  0
VERTEX
  8
0
 62
6
 10
-3.36048977E+00
 20
1.46256991E+02
  0
VERTEX
  8
0
 62
6
 10
-3.22210187E+00
 20
1.46270331E+02
  0
VERTEX
  8
0
 62
6
 10
-3.08582848E+00
 20
1.46292453E+02
  0
VERTEX
  8
0
 62
6
 10
-2.95270673E+00
 20
1.46323186E+02
  0
VERTEX
  8
0
 62
6
 10
-2.82374974E+00
 20
1.46362298E+02
  0
VERTEX
  8
0
 62
6
 10
-2.69993896E+00
 20
1.46409491E+02
  0
VERTEX
  8
0
 62
6
 10
-2.58221666E+00
 20
1.46464406E+02
  0
VERTEX
  8
0
 62
6
 10
-2.47147878E+00
 20
1.46526625E+02
  0
VERTEX
  8
0
 62
6
 10
-2.36856811E+00
 20
1.46595673E+02
  0
VERTEX
  8
0
 62
6
 10
-2.27426785E+00
 20
1.46671027E+02
  0
VERTEX
  8
0
 62
6
 10
-2.18929569E+00
 20
1.46752112E+02
  0
VERTEX
  8
0
 62
6
 10
-2.11429831E+00
 20
1.46838310E+02
  0
VERTEX
  8
0
 62
6
 10
-2.04984650E+00
 20
1.46928967E+02
  0
VERTEX
  8
0
 62
6
 10
-1.99643077E+00
 20
1.47023393E+02
  0
VERTEX
  8
0
 62
6
 10
-1.95445764E+00
 20
1.47120867E+02
  0
VERTEX
  8
0
 62
6
 10
-1.92424655E+00
 20
1.47220650E+02
  0
VERTEX
  8
0
 62
6
 10
-1.90602744E+00
 20
1.47321980E+02
  0
VERTEX
  8
0
 62
6
 10
-1.89993896E+00
 20
1.47424088E+02
  0
SEQEND
  8
0
  0
LINE
  8
0
  6
CENTER
 62
6
 10
-3.49993896E+00
 20
1.44784679E+02
 11
-3.49993896E+00
 21
1.51784679E+02
  0
LINE
  8
0
  6
CENTER
 62
6
 10
6.10353527E-05
 20
1.48284679E+02
 11
-6.99993896E+00
 21
1.48284679E+02
  0
POLYLINE
  8
0
 62
4
 66
1
  0
VERTEX
  8
0
 62
4
 10
-1.49993896E+00
 20
1.47424088E+02
  0
VERTEX
  8
0
 62
4
 10
-1.50754956E+00
 20
1.47594268E+02
  0
VERTEX
  8
0
 62
4
 10
-1.53032345E+00
 20
1.47763152E+02
  0
VERTEX
  8
0
 62
4
 10
-1.56808731E+00
 20
1.47929456E+02
  0
VERTEX
  8
0
 62
4
 10
-1.62055372E+00
 20
1.48091914E+02
  0
VERTEX
  8
0
 62
4
 10
-1.68732339E+00
 20
1.48249289E+02
  0
VERTEX
  8
0
 62
4
 10
-1.76788815E+00
 20
1.48400384E+02
  0
VERTEX
  8
0
 62
4
 10
-1.86163487E+00
 20
1.48544049E+02
  0
VERTEX
  8
0
 62
4
 10
-1.96785007E+00
 20
1.48679190E+02
  0
VERTEX
  8
0
 62
4
 10
-2.08572540E+00
 20
1.48804779E+02
  0
VERTEX
  8
0
 62
4
 10
-2.21436374E+00
 20
1.48919860E+02
  0
VERTEX
  8
0
 62
4
 10
-2.35278609E+00
 20
1.49023558E+02
  0
VERTEX
  8
0
 62
4
 10
-2.49993896E+00
 20
1.49115082E+02
  0
VERTEX
  8
0
 62
4
 10
-2.65470244E+00
 20
1.49193737E+02
  0
VERTEX
  8
0
 62
4
 10
-2.81589867E+00
 20
1.49258924E+02
  0
VERTEX
  8
0
 62
4
 10
-2.98230087E+00
 20
1.49310147E+02
  0
VERTEX
  8
0
 62
4
 10
-3.15264261E+00
 20
1.49347016E+02
  0
VERTEX
  8
0
 62
4
 10
-3.32562748E+00
 20
1.49369250E+02
  0
VERTEX
  8
0
 62
4
 10
-3.49993896E+00
 20
1.49376680E+02
  0
VERTEX
  8
0
 62
4
 10
-3.67425045E+00
 20
1.49369250E+02
  0
VERTEX
  8
0
 62
4
 10
-3.84723532E+00
 20
1.49347016E+02
  0
VERTEX
  8
0
 62
4
 10
-4.01757705E+00
 20
1.49310147E+02
  0
VERTEX
  8
0
 62
4
 10
-4.18397925E+00
 20
1.49258924E+02
  0
VERTEX
  8
0
 62
4
 10
-4.34517549E+00
 20
1.49193737E+02
  0
VERTEX
  8
0
 62
4
 10
-4.49993896E+00
 20
1.49115082E+02
  0
VERTEX
  8
0
 62
4
 10
-4.64709183E+00
 20
1.49023558E+02
  0
VERTEX
  8
0
 62
4
 10
-4.78551418E+00
 20
1.48919860E+02
  0
VERTEX
  8
0
 62
4
 10
-4.91415252E+00
 20
1.48804779E+02
  0
VERTEX
  8
0
 62
4
 10
-5.03202785E+00
 20
1.48679190E+02
  0
VERTEX
  8
0
 62
4
 10
-5.13824305E+00
 20
1.48544049E+02
  0
VERTEX
  8
0
 62
4
 10
-5.23198977E+00
 20
1.48400384E+02
  0
VERTEX
  8
0
 62
4
 10
-5.31255454E+00
 20
1.48249289E+02
  0
VERTEX
  8
0
 62
4
 10
-5.37932420E+00
 20
1.48091914E+02
  0
VERTEX
  8
0
 62
4
 10
-5.43179061E+00
 20
1.47929456E+02
  0
VERTEX
  8
0
 62
4
 10
-5.46955447E+00
 20
1.47763152E+02
  0
VERTEX
  8
0
 62
4
 10
-5.49232836E+00
 20
1.47594268E+02
  0
VERTEX
  8
0
 62
4
 10
-5.49993896E+00
 20
1.47424088E+02
  0
VERTEX
  8
0
 62
4
 10
-5.49232836E+00
 20
1.47253908E+02
  0
VERTEX
  8
0
 62
4
 10
-5.46955447E+00
 20
1.47085024E+02
  0
VERTEX
  8
0
 62
4
 10
-5.43179061E+00
 20
1.46918720E+02
  0
VERTEX
  8
0
 62
4
 10
-5.37932420E+00
 20
1.46756262E+02
  0
VERTEX
  8
0
 62
4
 10
-5.31255453E+00
 20
1.46598887E+02
  0
VERTEX
  8
0
 62
4
 10
-5.23198977E+00
 20
1.46447792E+02
  0
VERTEX
  8
0
 62
4
 10
-5.13824305E+00
 20
1.46304127E+02
  0
VERTEX
  8
0
 62
4
 10
-5.03202784E+00
 20
1.46168986E+02
  0
VERTEX
  8
0
 62
4
 10
-4.91415252E+00
 20
1.46043397E+02
  0
VERTEX
  8
0
 62
4
 10
-4.78551418E+00
 20
1.45928316E+02
  0
VERTEX
  8
0
 62
4
 10
-4.64709183E+00
 20
1.45824618E+02
  0
VERTEX
  8
0
 62
4
 10
-4.49993896E+00
 20
1.45733094E+02
  0
VERTEX
  8
0
 62
4
 10
-4.34517548E+00
 20
1.45654439E+02
  0
VERTEX
  8
0
 62
4
 10
-4.18397924E+00
 20
1.45589252E+02
  0
VERTEX
  8
0
 62
4
 10
-4.01757705E+00
 20
1.45538029E+02
  0
VERTEX
  8
0
 62
4
 10
-3.84723531E+00
 20
1.45501160E+02
  0
VERTEX
  8
0
 62
4
 10
-3.67425044E+00
 20
1.45478926E+02
  0
VERTEX
  8
0
 62
4
 10
-3.49993896E+00
 20
1.45471496E+02
  0
VERTEX
  8
0
 62
4
 10
-3.32562747E+00
 20
1.45478926E+02
  0
VERTEX
  8
0
 62
4
 10
-3.15264260E+00
 20
1.45501160E+02
  0
VERTEX
  8
0
 62
4
 10
-2.98230087E+00
 20
1.45538029E+02
  0
VERTEX
  8
0
 62
4
 10
-2.81589867E+00
 20
1.45589252E+02
  0
VERTEX
  8
0
 62
4
 10
-2.65470243E+00
 20
1.45654439E+02
  0
VERTEX
  8
0
 62
4
 10
-2.49993896E+00
 20
1.45733094E+02
  0
VERTEX
  8
0
 62
4
 10
-2.35278608E+00
 20
1.45824618E+02
  0
VERTEX
  8
0
 62
4
 10
-2.21436374E+00
 20
1.45928316E+02
  0
VERTEX
  8
0
 62
4
 10
-2.08572539E+00
 20
1.46043397E+02
  0
VERTEX
  8
0
 62
4
 10
-1.96785007E+00
 20
1.46168986E+02
  0
VERTEX
  8
0
 62
4
 10
-1.86163487E+00
 20
1.46304127E+02
  0
VERTEX
  8
0
 62
4
 10
-1.76788815E+00
 20
1.46447792E+02
  0
VERTEX
  8
0
 62
4
 10
-1.68732338E+00
 20
1.46598887E+02
  0
VERTEX
  8
0
 62
4
 10
-1.62055372E+00
 20
1.46756262E+02
  0
VERTEX
  8
0
 62
4
 10
-1.56808731E+00
 20
1.46918720E+02
  0
VERTEX
  8
0
 62
4
 10
-1.53032345E+00
 20
1.47085024E+02
  0
VERTEX
  8
0
 62
4
 10
-1.50754956E+00
 20
1.47253908E+02
  0
VERTEX
  8
0
 62
4
 10
-1.49993896E+00
 20
1.47424088E+02
  0
SEQEND
  8
0
  0
LINE
  8
0
  6
CENTER
 62
6
 10
-1.14999390E+01
 20
1.44784679E+02
 11
-1.14999390E+01
 21
1.51784679E+02
  0
LINE
  8
0
  6
CENTER
 62
6
 10
-1.49999390E+01
 20
1.48284679E+02
 11
-7.99993896E+00
 21
1.48284679E+02
  0
LINE
  8
0
 62
4
 10
-1.39999390E+01
 20
1.59125433E+02
 11
-9.99938965E-01
 21
1.59125433E+02
  0
POLYLINE
  8
0
 62
6
 66
1
  0
VERTEX
  8
0
 62
6
 10
-1.30999390E+01
 20
1.47424088E+02
  0
VERTEX
  8
0
 62
6
 10
-1.30938505E+01
 20
1.47321980E+02
  0
VERTEX
  8
0
 62
6
 10
-1.30756314E+01
 20
1.47220650E+02
  0
VERTEX
  8
0
 62
6
 10
-1.30454203E+01
 20
1.47120867E+02
  0
VERTEX
  8
0
 62
6
 10
-1.30034472E+01
 20
1.47023393E+02
  0
VERTEX
  8
0
 62
6
 10
-1.29500315E+01
 20
1.46928967E+02
  0
VERTEX
  8
0
 62
6
 10
-1.28855796E+01
 20
1.46838310E+02
  0
VERTEX
  8
0
 62
6
 10
-1.28105823E+01
 20
1.46752112E+02
  0
VERTEX
  8
0
 62
6
 10
-1.27256101E+01
 20
1.46671027E+02
  0
VERTEX
  8
0
 62
6
 10
-1.26313099E+01
 20
1.46595673E+02
  0
VERTEX
  8
0
 62
6
 10
-1.25283992E+01
 20
1.46526625E+02
  0
VERTEX
  8
0
 62
6
 10
-1.24176613E+01
 20
1.46464406E+02
  0
VERTEX
  8
0
 62
6
 10
-1.22999390E+01
 20
1.46409491E+02
  0
VERTEX
  8
0
 62
6
 10
-1.21761282E+01
 20
1.46362298E+02
  0
VERTEX
  8
0
 62
6
 10
-1.20471712E+01
 20
1.46323186E+02
  0
VERTEX
  8
0
 62
6
 10
-1.19140495E+01
 20
1.46292453E+02
  0
VERTEX
  8
0
 62
6
 10
-1.17777761E+01
 20
1.46270331E+02
  0
VERTEX
  8
0
 62
6
 10
-1.16393882E+01
 20
1.46256991E+02
  0
VERTEX
  8
0
 62
6
 10
-1.14999390E+01
 20
1.46252533E+02
  0
VERTEX
  8
0
 62
6
 10
-1.13604898E+01
 20
1.46256991E+02
  0
VERTEX
  8
0
 62
6
 10
-1.12221019E+01
 20
1.46270331E+02
  0
VERTEX
  8
0
 62
6
 10
-1.10858285E+01
 20
1.46292453E+02
  0
VERTEX
  8
0
 62
6
 10
-1.09527068E+01
 20
1.46323186E+02
  0
VERTEX
  8
0
 62
6
 10
-1.08237498E+01
 20
1.46362298E+02
  0
VERTEX
  8
0
 62
6
 10
-1.06999390E+01
 20
1.46409491E+02
  0
VERTEX
  8
0
 62
6
 10
-1.05822167E+01
 20
1.46464406E+02
  0
VERTEX
  8
0
 62
6
 10
-1.04714788E+01
 20
1.46526625E+02
  0
VERTEX
  8
0
 62
6
 10
-1.03685682E+01
 20
1.46595673E+02
  0
VERTEX
  8
0
 62
6
 10
-1.02742679E+01
 20
1.46671027E+02
  0
VERTEX
  8
0
 62
6
 10
-1.01892957E+01
 20
1.46752112E+02
  0
VERTEX
  8
0
 62
6
 10
-1.01142984E+01
 20
1.46838310E+02
  0
VERTEX
  8
0
 62
6
 10
-1.00498465E+01
 20
1.46928967E+02
  0
VERTEX
  8
0
 62
6
 10
-9.99643081E+00
 20
1.47023393E+02
  0
VERTEX
  8
0
 62
6
 10
-9.95445768E+00
 20
1.47120867E+02
  0
VERTEX
  8
0
 62
6
 10
-9.92424660E+00
 20
1.47220650E+02
  0
VERTEX
  8
0
 62
6
 10
-9.90602748E+00
 20
1.47321980E+02
  0
VERTEX
  8
0
 62
6
 10
-9.89993900E+00
 20
1.47424088E+02
  0
VERTEX
  8
0
 62
6
 10
-9.90602748E+00
 20
1.47526196E+02
  0
VERTEX
  8
0
 62
6
 10
-9.92424659E+00
 20
1.47627526E+02
  0
VERTEX
  8
0
 62
6
 10
-9.95445768E+00
 20
1.47727309E+02
  0
VERTEX
  8
0
 62
6
 10
-9.99643081E+00
 20
1.47824783E+02
  0
VERTEX
  8
0
 62
6
 10
-1.00498465E+01
 20
1.47919209E+02
  0
VERTEX
  8
0
 62
6
 10
-1.01142984E+01
 20
1.48009866E+02
  0
VERTEX
  8
0
 62
6
 10
-1.01892957E+01
 20
1.48096064E+02
  0
VERTEX
  8
0
 62
6
 10
-1.02742679E+01
 20
1.48177149E+02
  0
VERTEX
  8
0
 62
6
 10
-1.03685681E+01
 20
1.48252503E+02
  0
VERTEX
  8
0
 62
6
 10
-1.04714788E+01
 20
1.48321551E+02
  0
VERTEX
  8
0
 62
6
 10
-1.05822167E+01
 20
1.48383770E+02
  0
VERTEX
  8
0
 62
6
 10
-1.06999390E+01
 20
1.48438685E+02
  0
VERTEX
  8
0
 62
6
 10
-1.08237498E+01
 20
1.48485878E+02
  0
VERTEX
  8
0
 62
6
 10
-1.09527068E+01
 20
1.48524990E+02
  0
VERTEX
  8
0
 62
6
 10
-1.10858285E+01
 20
1.48555723E+02
  0
VERTEX
  8
0
 62
6
 10
-1.12221019E+01
 20
1.48577845E+02
  0
VERTEX
  8
0
 62
6
 10
-1.13604898E+01
 20
1.48591185E+02
  0
VERTEX
  8
0
 62
6
 10
-1.14999390E+01
 20
1.48595643E+02
  0
VERTEX
  8
0
 62
6
 10
-1.16393882E+01
 20
1.48591185E+02
  0
VERTEX
  8
0
 62
6
 10
-1.17777761E+01
 20
1.48577845E+02
  0
VERTEX
  8
0
 62
6
 10
-1.19140495E+01
 20
1.48555723E+02
  0
VERTEX
  8
0
 62
6
 10
-1.20471712E+01
 20
1.48524990E+02
  0
VERTEX
  8
0
 62
6
 10
-1.21761282E+01
 20
1.48485878E+02
  0
VERTEX
  8
0
 62
6
 10
-1.22999390E+01
 20
1.48438685E+02
  0
VERTEX
  8
0
 62
6
 10
-1.24176613E+01
 20
1.48383770E+02
  0
VERTEX
  8
0
 62
6
 10
-1.25283992E+01
 20
1.48321551E+02
  0
VERTEX
  8
0
 62
6
 10
-1.26313098E+01
 20
1.48252503E+02
  0
VERTEX
  8
0
 62
6
 10
-1.27256101E+01
 20
1.48177149E+02
  0
VERTEX
  8
0
 62
6
 10
-1.28105823E+01
 20
1.48096064E+02
  0
VERTEX
  8
0
 62
6
 10
-1.28855796E+01
 20
1.48009866E+02
  0
VERTEX
  8
0
 62
6
 10
-1.29500315E+01
 20
1.47919209E+02
  0
VERTEX
  8
0
 62
6
 10
-1.30034472E+01
 20
1.47824783E+02
  0
VERTEX
  8
0
 62
6
 10
-1.30454203E+01
 20
1.47727309E+02
  0
VERTEX
  8
0
 62
6
 10
-1.30756314E+01
 20
1.47627526E+02
  0
VERTEX
  8
0
 62
6
 10
-1.30938505E+01
 20
1.47526196E+02
  0
VERTEX
  8
0
 62
6
 10
-1.30999390E+01
 20
1.47424088E+02
  0
SEQEND
  8
0
  0
POLYLINE
  8
0
 62
4
 66
1
  0
VERTEX
  8
0
 62
4
 10
-1.34999390E+01
 20
1.47424088E+02
  0
VERTEX
  8
0
 62
4
 10
-1.34923284E+01
 20
1.47253908E+02
  0
VERTEX
  8
0
 62
4
 10
-1.34695545E+01
 20
1.47085024E+02
  0
VERTEX
  8
0
 62
4
 10
-1.34317907E+01
 20
1.46918720E+02
  0
VERTEX
  8
0
 62
4
 10
-1.33793242E+01
 20
1.46756262E+02
  0
VERTEX
  8
0
 62
4
 10
-1.33125546E+01
 20
1.46598887E+02
  0
VERTEX
  8
0
 62
4
 10
-1.32319898E+01
 20
1.46447792E+02
  0
VERTEX
  8
0
 62
4
 10
-1.31382431E+01
 20
1.46304127E+02
  0
VERTEX
  8
0
 62
4
 10
-1.30320279E+01
 20
1.46168986E+02
  0
VERTEX
  8
0
 62
4
 10
-1.29141526E+01
 20
1.46043397E+02
  0
VERTEX
  8
0
 62
4
 10
-1.27855142E+01
 20
1.45928316E+02
  0
VERTEX
  8
0
 62
4
 10
-1.26470919E+01
 20
1.45824618E+02
  0
VERTEX
  8
0
 62
4
 10
-1.24999390E+01
 20
1.45733094E+02
  0
VERTEX
  8
0
 62
4
 10
-1.23451755E+01
 20
1.45654439E+02
  0
VERTEX
  8
0
 62
4
 10
-1.21839793E+01
 20
1.45589252E+02
  0
VERTEX
  8
0
 62
4
 10
-1.20175771E+01
 20
1.45538029E+02
  0
VERTEX
  8
0
 62
4
 10
-1.18472354E+01
 20
1.45501160E+02
  0
VERTEX
  8
0
 62
4
 10
-1.16742505E+01
 20
1.45478926E+02
  0
VERTEX
  8
0
 62
4
 10
-1.14999390E+01
 20
1.45471496E+02
  0
VERTEX
  8
0
 62
4
 10
-1.13256275E+01
 20
1.45478926E+02
  0
VERTEX
  8
0
 62
4
 10
-1.11526427E+01
 20
1.45501160E+02
  0
VERTEX
  8
0
 62
4
 10
-1.09823009E+01
 20
1.45538029E+02
  0
VERTEX
  8
0
 62
4
 10
-1.08158987E+01
 20
1.45589252E+02
  0
VERTEX
  8
0
 62
4
 10
-1.06547025E+01
 20
1.45654439E+02
  0
VERTEX
  8
0
 62
4
 10
-1.04999390E+01
 20
1.45733094E+02
  0
VERTEX
  8
0
 62
4
 10
-1.03527861E+01
 20
1.45824618E+02
  0
VERTEX
  8
0
 62
4
 10
-1.02143638E+01
 20
1.45928316E+02
  0
VERTEX
  8
0
 62
4
 10
-1.00857254E+01
 20
1.46043397E+02
  0
VERTEX
  8
0
 62
4
 10
-9.96785012E+00
 20
1.46168986E+02
  0
VERTEX
  8
0
 62
4
 10
-9.86163491E+00
 20
1.46304127E+02
  0
VERTEX
  8
0
 62
4
 10
-9.76788819E+00
 20
1.46447792E+02
  0
VERTEX
  8
0
 62
4
 10
-9.68732343E+00
 20
1.46598887E+02
  0
VERTEX
  8
0
 62
4
 10
-9.62055376E+00
 20
1.46756262E+02
  0
VERTEX
  8
0
 62
4
 10
-9.56808735E+00
 20
1.46918720E+02
  0
VERTEX
  8
0
 62
4
 10
-9.53032349E+00
 20
1.47085024E+02
  0
VERTEX
  8
0
 62
4
 10
-9.50754960E+00
 20
1.47253908E+02
  0
VERTEX
  8
0
 62
4
 10
-9.49993900E+00
 20
1.47424088E+02
  0
VERTEX
  8
0
 62
4
 10
-9.50754960E+00
 20
1.47594268E+02
  0
VERTEX
  8
0
 62
4
 10
-9.53032349E+00
 20
1.47763152E+02
  0
VERTEX
  8
0
 62
4
 10
-9.56808735E+00
 20
1.47929456E+02
  0
VERTEX
  8
0
 62
4
 10
-9.62055376E+00
 20
1.48091914E+02
  0
VERTEX
  8
0
 62
4
 10
-9.68732342E+00
 20
1.48249289E+02
  0
VERTEX
  8
0
 62
4
 10
-9.76788819E+00
 20
1.48400384E+02
  0
VERTEX
  8
0
 62
4
 10
-9.86163491E+00
 20
1.48544049E+02
  0
VERTEX
  8
0
 62
4
 10
-9.96785011E+00
 20
1.48679190E+02
  0
VERTEX
  8
0
 62
4
 10
-1.00857254E+01
 20
1.48804779E+02
  0
VERTEX
  8
0
 62
4
 10
-1.02143638E+01
 20
1.48919860E+02
  0
VERTEX
  8
0
 62
4
 10
-1.03527861E+01
 20
1.49023558E+02
  0
VERTEX
  8
0
 62
4
 10
-1.04999390E+01
 20
1.49115082E+02
  0
VERTEX
  8
0
 62
4
 10
-1.06547025E+01
 20
1.49193737E+02
  0
VERTEX
  8
0
 62
4
 10
-1.08158987E+01
 20
1.49258924E+02
  0
VERTEX
  8
0
 62
4
 10
-1.09823009E+01
 20
1.49310147E+02
  0
VERTEX
  8
0
 62
4
 10
-1.11526426E+01
 20
1.49347016E+02
  0
VERTEX
  8
0
 62
4
 10
-1.13256275E+01
 20
1.49369250E+02
  0
VERTEX
  8
0
 62
4
 10
-1.14999390E+01
 20
1.49376680E+02
  0
VERTEX
  8
0
 62
4
 10
-1.16742505E+01
 20
1.49369250E+02
  0
VERTEX
  8
0
 62
4
 10
-1.18472354E+01
 20
1.49347016E+02
  0
VERTEX
  8
0
 62
4
 10
-1.20175771E+01
 20
1.49310147E+02
  0
VERTEX
  8
0
 62
4
 10
-1.21839793E+01
 20
1.49258924E+02
  0
VERTEX
  8
0
 62
4
 10
-1.23451755E+01
 20
1.49193737E+02
  0
VERTEX
  8
0
 62
4
 10
-1.24999390E+01
 20
1.49115082E+02
  0
VERTEX
  8
0
 62
4
 10
-1.26470919E+01
 20
1.49023558E+02
  0
VERTEX
  8
0
 62
4
 10
-1.27855142E+01
 20
1.48919860E+02
  0
VERTEX
  8
0
 62
4
 10
-1.29141526E+01
 20
1.48804779E+02
  0
VERTEX
  8
0
 62
4
 10
-1.30320279E+01
 20
1.48679190E+02
  0
VERTEX
  8
0
 62
4
 10
-1.31382431E+01
 20
1.48544049E+02
  0
VERTEX
  8
0
 62
4
 10
-1.32319898E+01
 20
1.48400384E+02
  0
VERTEX
  8
0
 62
4
 10
-1.33125546E+01
 20
1.48249289E+02
  0
VERTEX
  8
0
 62
4
 10
-1.33793242E+01
 20
1.48091914E+02
  0
VERTEX
  8
0
 62
4
 10
-1.34317907E+01
 20
1.47929456E+02
  0
VERTEX
  8
0
 62
4
 10
-1.34695545E+01
 20
1.47763152E+02
  0
VERTEX
  8
0
 62
4
 10
-1.34923284E+01
 20
1.47594268E+02
  0
VERTEX
  8
0
 62
4
 10
-1.34999390E+01
 20
1.47424088E+02
  0
SEQEND
  8
0
  0
LINE
  8
0
 62
4
 10
-9.49993896E+00
 20
1.47424088E+02
 11
-9.49993896E+00
 21
1.48284679E+02
  0
LINE
  8
0
 62
4
 10
-1.34999390E+01
 20
1.47424088E+02
 11
-1.34999390E+01
 21
1.48284679E+02
  0
POLYLINE
  8
0
 62
4
 66
1
  0
VERTEX
  8
0
 62
4
 10
-9.49993900E+00
 20
1.48284679E+02
  0
VERTEX
  8
0
 62
4
 10
-9.50799041E+00
 20
1.48459708E+02
  0
VERTEX
  8
0
 62
4
 10
-9.53207982E+00
 20
1.48633328E+02
  0
VERTEX
  8
0
 62
4
 10
-9.57201327E+00
 20
1.48804140E+02
  0
VERTEX
  8
0
 62
4
 10
-9.62746925E+00
 20
1.48970771E+02
  0
VERTEX
  8
0
 62
4
 10
-9.69800126E+00
 20
1.49131877E+02
  0
VERTEX
  8
0
 62
4
 10
-9.78304140E+00
 20
1.49286162E+02
  0
VERTEX
  8
0
 62
4
 10
-9.88190500E+00
 20
1.49432384E+02
  0
VERTEX
  8
0
 62
4
 10
-9.99379606E+00
 20
1.49569365E+02
  0
VERTEX
  8
0
 62
4
 10
-1.01178137E+01
 20
1.49696002E+02
  0
VERTEX
  8
0
 62
4
 10
-1.02529594E+01
 20
1.49811277E+02
  0
VERTEX
  8
0
 62
4
 10
-1.03981450E+01
 20
1.49914260E+02
  0
VERTEX
  8
0
 62
4
 10
-1.05522017E+01
 20
1.50004123E+02
  0
VERTEX
  8
0
 62
4
 10
-1.07138889E+01
 20
1.50080142E+02
  0
VERTEX
  8
0
 62
4
 10
-1.08819050E+01
 20
1.50141704E+02
  0
VERTEX
  8
0
 62
4
 10
-1.10548971E+01
 20
1.50188315E+02
  0
VERTEX
  8
0
 62
4
 10
-1.12314725E+01
 20
1.50219600E+02
  0
VERTEX
  8
0
 62
4
 10
-1.14102093E+01
 20
1.50235305E+02
  0
VERTEX
  8
0
 62
4
 10
-1.15896686E+01
 20
1.50235305E+02
  0
VERTEX
  8
0
 62
4
 10
-1.17684055E+01
 20
1.50219600E+02
  0
VERTEX
  8
0
 62
4
 10
-1.19449809E+01
 20
1.50188315E+02
  0
VERTEX
  8
0
 62
4
 10
-1.21179730E+01
 20
1.50141704E+02
  0
VERTEX
  8
0
 62
4
 10
-1.22859890E+01
 20
1.50080142E+02
  0
VERTEX
  8
0
 62
4
 10
-1.24476763E+01
 20
1.50004123E+02
  0
VERTEX
  8
0
 62
4
 10
-1.26017329E+01
 20
1.49914260E+02
  0
VERTEX
  8
0
 62
4
 10
-1.27469186E+01
 20
1.49811277E+02
  0
VERTEX
  8
0
 62
4
 10
-1.28820643E+01
 20
1.49696002E+02
  0
VERTEX
  8
0
 62
4
 10
-1.30060819E+01
 20
1.49569365E+02
  0
VERTEX
  8
0
 62
4
 10
-1.31179730E+01
 20
1.49432384E+02
  0
VERTEX
  8
0
 62
4
 10
-1.32168366E+01
 20
1.49286162E+02
  0
VERTEX
  8
0
 62
4
 10
-1.33018767E+01
 20
1.49131877E+02
  0
VERTEX
  8
0
 62
4
 10
-1.33724087E+01
 20
1.48970771E+02
  0
VERTEX
  8
0
 62
4
 10
-1.34278647E+01
 20
1.48804140E+02
  0
VERTEX
  8
0
 62
4
 10
-1.34677982E+01
 20
1.48633328E+02
  0
VERTEX
  8
0
 62
4
 10
-1.34918876E+01
 20
1.48459708E+02
  0
VERTEX
  8
0
 62
4
 10
-1.34999390E+01
 20
1.48284679E+02
  0
SEQEND
  8
0
  0
LINE
  8
0
 62
4
 10
6.10312383E-05
 20
1.61601000E+02
 11
1.50000610E+01
 21
1.61601000E+02
  0
LINE
  8
0
 62
4
 10
6.10312383E-05
 20
1.61831875E+02
 11
1.50000610E+01
 21
1.61831875E+02
  0
LINE
  8
0
 62
4
 10
6.10312383E-05
 20
1.54551089E+02
 11
1.50000610E+01
 21
1.54551089E+02
  0
LINE
  8
0
 62
4
 10
-1.49999390E+01
 20
1.45060379E+02
 11
6.10312383E-05
 21
1.45060379E+02
  0
LINE
  8
0
 62
4
 10
1.50000610E+01
 20
1.60559860E+02
 11
1.65000610E+01
 21
1.60925403E+02
  0
LINE
  8
0
 62
4
 10
1.50000610E+01
 20
1.58712866E+02
 11
1.65000610E+01
 21
1.59879543E+02
  0
LINE
  8
0
 62
4
 10
1.50000610E+01
 20
1.64107904E+02
 11
1.65000610E+01
 21
1.62934483E+02
  0
LINE
  8
0
 62
4
 10
-1.49999390E+01
 20
1.68927961E+02
 11
1.50000610E+01
 21
1.68927961E+02
  0
LINE
  8
0
 62
4
 10
-1.49999390E+01
 20
1.73683972E+02
 11
1.50000610E+01
 21
1.73683972E+02
  0
LINE
  8
0
 62
4
 10
1.65000610E+01
 20
1.62934483E+02
 11
1.65000610E+01
 21
1.59879543E+02
  0
LINE
  8
0
 62
4
 10
1.50000610E+01
 20
1.54551089E+02
 11
1.50000610E+01
 21
1.73683972E+02
  0
LINE
  8
0
 62
4
 10
-1.49999390E+01
 20
1.45060379E+02
 11
-1.49999390E+01
 21
1.73683972E+02
  0
LINE
  8
0
 62
4
 10
6.10353527E-05
 20
1.45060379E+02
 11
6.10353527E-05
 21
1.68927961E+02
  0
LINE
  8
0
 62
7
 10
1.50000610E+01
 20
1.66250000E+02
 11
2.70000610E+01
 21
1.66250000E+02
  0
LINE
  8
0
 62
7
 10
-1.49999390E+01
 20
1.57250031E+02
 11
-9.00000000E+01
 21
1.57250031E+02
  0
LINE
  8
0
 62
7
 10
-1.49999390E+01
 20
1.46250031E+02
 11
-9.00000000E+01
 21
1.46250031E+02
  0
POLYLINE
  8
0
 62
4
 66
1
  0
VERTEX
  8
0
 62
4
 10
-5.51286061E+01
 20
1.66250010E+02
  0
VERTEX
  8
0
 62
4
 10
-5.50120300E+01
 20
1.66557472E+02
  0
VERTEX
  8
0
 62
4
 10
-5.49264222E+01
 20
1.66872843E+02
  0
VERTEX
  8
0
 62
4
 10
-5.48724476E+01
 20
1.67193675E+02
  0
VERTEX
  8
0
 62
4
 10
-5.48505252E+01
 20
1.67517476E+02
  0
VERTEX
  8
0
 62
4
 10
-5.48608252E+01
 20
1.67841732E+02
  0
VERTEX
  8
0
 62
4
 10
-5.49032678E+01
 20
1.68163924E+02
  0
VERTEX
  8
0
 62
4
 10
-5.49775232E+01
 20
1.68481551E+02
  0
VERTEX
  8
0
 62
4
 10
-5.50830150E+01
 20
1.68792147E+02
  0
VERTEX
  8
0
 62
4
 10
-5.52189238E+01
 20
1.69093298E+02
  0
VERTEX
  8
0
 62
4
 10
-5.53841943E+01
 20
1.69382668E+02
  0
VERTEX
  8
0
 62
4
 10
-5.55775432E+01
 20
1.69658008E+02
  0
VERTEX
  8
0
 62
4
 10
-5.57974689E+01
 20
1.69917180E+02
  0
VERTEX
  8
0
 62
4
 10
-5.60422636E+01
 20
1.70158172E+02
  0
VERTEX
  8
0
 62
4
 10
-5.63100265E+01
 20
1.70379113E+02
  0
VERTEX
  8
0
 62
4
 10
-5.65986782E+01
 20
1.70578287E+02
  0
VERTEX
  8
0
 62
4
 10
-5.69059771E+01
 20
1.70754147E+02
  0
VERTEX
  8
0
 62
4
 10
-5.72295371E+01
 20
1.70905327E+02
  0
VERTEX
  8
0
 62
4
 10
-5.75668455E+01
 20
1.71030654E+02
  0
VERTEX
  8
0
 62
4
 10
-5.79152830E+01
 20
1.71129155E+02
  0
VERTEX
  8
0
 62
4
 10
-5.82721437E+01
 20
1.71200063E+02
  0
VERTEX
  8
0
 62
4
 10
-5.86346566E+01
 20
1.71242830E+02
  0
VERTEX
  8
0
 62
4
 10
-5.90000066E+01
 20
1.71257122E+02
  0
VERTEX
  8
0
 62
4
 10
-5.93653564E+01
 20
1.71242829E+02
  0
VERTEX
  8
0
 62
4
 10
-5.97278692E+01
 20
1.71200061E+02
  0
VERTEX
  8
0
 62
4
 10
-6.00847297E+01
 20
1.71129152E+02
  0
VERTEX
  8
0
 62
4
 10
-6.04331668E+01
 20
1.71030650E+02
  0
VERTEX
  8
0
 62
4
 10
-6.07704748E+01
 20
1.70905323E+02
  0
VERTEX
  8
0
 62
4
 10
-6.10940342E+01
 20
1.70754141E+02
  0
VERTEX
  8
0
 62
4
 10
-6.14013326E+01
 20
1.70578281E+02
  0
VERTEX
  8
0
 62
4
 10
-6.16899836E+01
 20
1.70379106E+02
  0
VERTEX
  8
0
 62
4
 10
-6.19577456E+01
 20
1.70158164E+02
  0
VERTEX
  8
0
 62
4
 10
-6.22025395E+01
 20
1.69917171E+02
  0
VERTEX
  8
0
 62
4
 10
-6.24224643E+01
 20
1.69657998E+02
  0
VERTEX
  8
0
 62
4
 10
-6.26158122E+01
 20
1.69382658E+02
  0
VERTEX
  8
0
 62
4
 10
-6.27810817E+01
 20
1.69093288E+02
  0
VERTEX
  8
0
 62
4
 10
-6.29169895E+01
 20
1.68792136E+02
  0
VERTEX
  8
0
 62
4
 10
-6.30224802E+01
 20
1.68481540E+02
  0
VERTEX
  8
0
 62
4
 10
-6.30967345E+01
 20
1.68163913E+02
  0
VERTEX
  8
0
 62
4
 10
-6.31391759E+01
 20
1.67841721E+02
  0
VERTEX
  8
0
 62
4
 10
-6.31494748E+01
 20
1.67517465E+02
  0
VERTEX
  8
0
 62
4
 10
-6.31275513E+01
 20
1.67193664E+02
  0
VERTEX
  8
0
 62
4
 10
-6.30735755E+01
 20
1.66872832E+02
  0
VERTEX
  8
0
 62
4
 10
-6.29879666E+01
 20
1.66557461E+02
  0
VERTEX
  8
0
 62
4
 10
-6.28713895E+01
 20
1.66250000E+02
  0
SEQEND
  8
0
  0
POLYLINE
  8
0
 62
4
 66
1
  0
VERTEX
  8
0
 62
4
 10
-5.48688614E+01
 20
1.66249998E+02
  0
VERTEX
  8
0
 62
4
 10
-5.48606132E+01
 20
1.66334302E+02
  0
VERTEX
  8
0
 62
4
 10
-5.48547182E+01
 20
1.66418749E+02
  0
VERTEX
  8
0
 62
4
 10
-5.48511798E+01
 20
1.66503293E+02
  0
VERTEX
  8
0
 62
4
 10
-5.48500002E+01
 20
1.66587885E+02
  0
SEQEND
  8
0
  0
POLYLINE
  8
0
 62
4
 66
1
  0
VERTEX
  8
0
 62
4
 10
-5.48905516E+01
 20
1.66250007E+02
  0
VERTEX
  8
0
 62
4
 10
-5.48728266E+01
 20
1.66377792E+02
  0
VERTEX
  8
0
 62
4
 10
-5.48601504E+01
 20
1.66506049E+02
  0
VERTEX
  8
0
 62
4
 10
-5.48525385E+01
 20
1.66634621E+02
  0
VERTEX
  8
0
 62
4
 10
-5.48500002E+01
 20
1.66763350E+02
  0
SEQEND
  8
0
  0
LINE
  8
0
 62
4
 10
-1.49999390E+01
 20
1.59910385E+02
 11
-2.58659644E+01
 21
1.59910385E+02
  0
LINE
  8
0
  6
CENTER
 62
6
 10
2.00000610E+01
 20
1.61410385E+02
 11
-2.69999390E+01
 21
1.61410385E+02
  0
LINE
  8
0
 62
4
 10
-1.49999390E+01
 20
1.62910385E+02
 11
-2.41339136E+01
 21
1.62910385E+02
  0
LINE
  8
0
 62
6
 10
-2.32678881E+01
 20
1.64410385E+02
 11
-2.67319897E+01
 21
1.58410385E+02
  0
CIRCLE
  8
0
 62
7
 10
-3.66000031E+02
 20
9.97500000E+01
 40
1.35000000E+01
  0
CIRCLE
  8
0
 62
7
 10
-4.17999908E+02
 20
4.77500000E+01
 40
1.05500011E+01
  0
CIRCLE
  8
0
 62
7
 10
-4.17999908E+02
 20
1.51750000E+02
 40
1.05500011E+01
  0
CIRCLE
  8
0
 62
7
 10
-3.14000031E+02
 20
1.51750000E+02
 40
1.05500011E+01
  0
CIRCLE
  8
0
 62
7
 10
-3.14000031E+02
 20
4.77500000E+01
 40
1.05500011E+01
  0
ARC
  8
0
 62
7
 10
-3.04099945E+02
 20
1.31250885E+02
 40
2.00000000E+00
 50
0.00000000E+00
 51
8.91198986E+01
  0
ARC
  8
0
 62
7
 10
-3.09991364E+02
 20
1.35229340E+02
 40
2.00000000E+00
 50
2.28188629E+01
 51
1.03638709E+02
  0
ARC
  8
0
 62
7
 10
-3.04000092E+02
 20
1.37750122E+02
 40
4.50000048E+00
 50
2.02818455E+02
 51
2.69119750E+02
  0
ARC
  8
0
 62
7
 10
-3.30520599E+02
 20
1.55758575E+02
 40
2.00000000E+00
 50
3.46361266E+02
 51
6.71837895E+01
  0
ARC
  8
0
 62
7
 10
-3.34499298E+02
 20
1.61650024E+02
 40
2.00000000E+00
 50
8.81319802E-01
 51
8.99999681E+01
  0
ARC
  8
0
 62
7
 10
-3.28000092E+02
 20
1.61749969E+02
 40
4.50000048E+00
 50
1.80880775E+02
 51
2.47183429E+02
  0
ARC
  8
0
 62
7
 10
-4.22008575E+02
 20
1.35229370E+02
 40
2.00000000E+00
 50
7.63612624E+01
 51
1.57183786E+02
  0
ARC
  8
0
 62
7
 10
-4.27899994E+02
 20
1.31250702E+02
 40
2.00000000E+00
 50
9.08813153E+01
 51
1.79999964E+02
  0
ARC
  8
0
 62
7
 10
-4.27999908E+02
 20
1.37749939E+02
 40
4.50000048E+00
 50
2.70880778E+02
 51
3.37183422E+02
  0
ARC
  8
0
 62
7
 10
-3.97500885E+02
 20
1.61650024E+02
 40
2.00000000E+00
 50
8.99999818E+01
 51
1.79119894E+02
  0
ARC
  8
0
 62
7
 10
-4.01479340E+02
 20
1.55758575E+02
 40
2.00000000E+00
 50
1.12818859E+02
 51
1.93638704E+02
  0
ARC
  8
0
 62
7
 10
-4.04000092E+02
 20
1.61749878E+02
 40
4.50000048E+00
 50
2.92818450E+02
 51
3.59119744E+02
  0
ARC
  8
0
 62
7
 10
-3.97500885E+02
 20
3.78499756E+01
 40
2.00000000E+00
 50
1.80880106E+02
 51
2.70000018E+02
  0
ARC
  8
0
 62
7
 10
-4.01479340E+02
 20
4.37414246E+01
 40
2.00000000E+00
 50
1.66361279E+02
 51
2.47181131E+02
  0
ARC
  8
0
 62
7
 10
-4.04000092E+02
 20
3.77501221E+01
 40
4.50000048E+00
 50
8.80256369E-01
 51
6.71815492E+01
  0
ARC
  8
0
 62
7
 10
-4.22008575E+02
 20
6.42706299E+01
 40
2.00000000E+00
 50
2.02816215E+02
 51
2.83638738E+02
  0
ARC
  8
0
 62
7
 10
-4.27899994E+02
 20
6.82492981E+01
 40
2.00000000E+00
 50
1.79999977E+02
 51
2.69118688E+02
  0
ARC
  8
0
 62
7
 10
-4.27999908E+02
 20
6.17500610E+01
 40
4.50000048E+00
 50
2.28165782E+01
 51
8.91192157E+01
  0
ARC
  8
0
 62
7
 10
-3.34499115E+02
 20
3.78499756E+01
 40
2.00000000E+00
 50
2.70000018E+02
 51
3.59119903E+02
  0
ARC
  8
0
 62
7
 10
-3.30520660E+02
 20
4.37414246E+01
 40
2.00000000E+00
 50
2.92818867E+02
 51
1.36387130E+01
  0
ARC
  8
0
 62
7
 10
-3.09991364E+02
 20
6.42706299E+01
 40
2.00000000E+00
 50
2.56361271E+02
 51
3.37183794E+02
  0
ARC
  8
0
 62
7
 10
-3.04099945E+02
 20
6.82492981E+01
 40
2.00000000E+00
 50
2.70881324E+02
 51
3.59999973E+02
  0
ARC
  8
0
 62
7
 10
-3.04000031E+02
 20
6.17500916E+01
 40
4.50000048E+00
 50
9.08807486E+01
 51
1.57183417E+02
  0
ARC
  8
0
 62
7
 10
-3.27999847E+02
 20
3.77501221E+01
 40
4.50000048E+00
 50
1.12818442E+02
 51
1.79119744E+02
  0
CIRCLE
  8
0
 62
7
 10
-3.66000031E+02
 20
9.97500000E+01
 40
2.75000000E+01
  0
CIRCLE
  8
0
 62
7
 10
-3.66000031E+02
 20
9.97500000E+01
 40
3.00000000E+01
  0
ARC
  8
0
 62
7
 10
-3.04099945E+02
 20
1.03250000E+02
 40
2.00000000E+00
 50
2.70000018E+02
 51
0.00000000E+00
  0
ARC
  8
0
 62
7
 10
-3.33682220E+02
 20
1.03250000E+02
 40
2.00000000E+00
 50
1.86180811E+02
 51
2.70000018E+02
  0
ARC
  8
0
 62
7
 10
-3.28238190E+02
 20
1.42461639E+02
 40
2.00000000E+00
 50
3.15000412E+02
 51
3.31186208E+01
  0
ARC
  8
0
 62
7
 10
-3.23288483E+02
 20
1.37511871E+02
 40
2.00000000E+00
 50
5.68805723E+01
 51
1.35000438E+02
  0
ARC
  8
0
 62
7
 10
-3.40673004E+02
 20
1.20127289E+02
 40
2.00000000E+00
 50
1.35000014E+02
 51
2.18819248E+02
  0
ARC
  8
0
 62
7
 10
-3.45622833E+02
 20
1.25077057E+02
 40
2.00000000E+00
 50
2.31181239E+02
 51
3.14999999E+02
  0
CIRCLE
  8
0
 62
7
 10
-3.66000031E+02
 20
9.97500000E+01
 40
2.80000000E+01
  0
ARC
  8
0
 62
7
 10
-3.04000031E+02
 20
1.61750000E+02
 40
6.00000000E+00
 50
0.00000000E+00
 51
8.99999818E+01
  0
ARC
  8
0
 62
7
 10
-3.14000031E+02
 20
1.51750000E+02
 40
1.50000000E+01
 50
1.66361279E+02
 51
2.83638878E+02
  0
ARC
  8
0
 62
7
 10
-3.04000031E+02
 20
1.61750031E+02
 40
5.40000057E+00
 50
0.00000000E+00
 51
8.99999818E+01
  0
ARC
  8
0
 62
7
 10
-3.62500031E+02
 20
1.32067780E+02
 40
2.00000000E+00
 50
1.79999977E+02
 51
2.63819144E+02
  0
ARC
  8
0
 62
7
 10
-3.62500031E+02
 20
1.61650024E+02
 40
2.00000000E+00
 50
8.99999818E+01
 51
1.79999964E+02
  0
ARC
  8
0
 62
7
 10
-3.04099945E+02
 20
9.62500000E+01
 40
2.00000000E+00
 50
0.00000000E+00
 51
8.99999818E+01
  0
ARC
  8
0
 62
7
 10
-3.33682220E+02
 20
9.62500000E+01
 40
2.00000000E+00
 50
8.99999818E+01
 51
1.73819190E+02
  0
ARC
  8
0
 62
7
 10
-4.08711761E+02
 20
6.19883118E+01
 40
2.00000000E+00
 50
2.36881851E+02
 51
3.14999999E+02
  0
ARC
  8
0
 62
7
 10
-4.03761871E+02
 20
5.70386047E+01
 40
2.00000000E+00
 50
1.35000014E+02
 51
2.13119715E+02
  0
ARC
  8
0
 62
7
 10
-3.69500031E+02
 20
3.78499756E+01
 40
2.00000000E+00
 50
2.70000018E+02
 51
0.00000000E+00
  0
ARC
  8
0
 62
7
 10
-3.62500031E+02
 20
3.78499756E+01
 40
2.00000000E+00
 50
1.79999977E+02
 51
2.70000028E+02
  0
ARC
  8
0
 62
7
 10
-3.28238190E+02
 20
5.70383911E+01
 40
2.00000000E+00
 50
3.26881379E+02
 51
4.50000012E+01
  0
ARC
  8
0
 62
7
 10
-3.23288422E+02
 20
6.19881592E+01
 40
2.00000000E+00
 50
2.24999986E+02
 51
3.03118454E+02
  0
ARC
  8
0
 62
7
 10
-3.91327179E+02
 20
7.93729553E+01
 40
2.00000000E+00
 50
3.15000412E+02
 51
3.88183727E+01
  0
ARC
  8
0
 62
7
 10
-3.86377472E+02
 20
7.44231262E+01
 40
2.00000000E+00
 50
5.11803526E+01
 51
1.34999604E+02
  0
ARC
  8
0
 62
7
 10
-3.69500031E+02
 20
6.74322205E+01
 40
2.00000000E+00
 50
0.00000000E+00
 51
8.38191733E+01
  0
ARC
  8
0
 62
7
 10
-3.62500031E+02
 20
6.74322205E+01
 40
2.00000000E+00
 50
9.61808454E+01
 51
1.79999964E+02
  0
ARC
  8
0
 62
7
 10
-3.45622833E+02
 20
7.44229431E+01
 40
2.00000000E+00
 50
4.50000012E+01
 51
1.28818392E+02
  0
ARC
  8
0
 62
7
 10
-3.40673004E+02
 20
7.93727112E+01
 40
2.00000000E+00
 50
1.41181185E+02
 51
2.24999969E+02
  0
ARC
  8
0
 62
7
 10
-4.27899994E+02
 20
9.62500000E+01
 40
2.00000000E+00
 50
8.99999818E+01
 51
1.79999964E+02
  0
ARC
  8
0
 62
7
 10
-4.27899994E+02
 20
1.03250000E+02
 40
2.00000000E+00
 50
1.79999977E+02
 51
2.70000028E+02
  0
ARC
  8
0
 62
7
 10
-3.98317780E+02
 20
9.62500000E+01
 40
2.00000000E+00
 50
6.18082473E+00
 51
8.99999818E+01
  0
ARC
  8
0
 62
7
 10
-3.98317780E+02
 20
1.03250000E+02
 40
2.00000000E+00
 50
2.70000018E+02
 51
3.53819176E+02
  0
ARC
  8
0
 62
7
 10
-3.69500031E+02
 20
1.32067780E+02
 40
2.00000000E+00
 50
2.76180827E+02
 51
0.00000000E+00
  0
ARC
  8
0
 62
7
 10
-3.86377106E+02
 20
1.25077087E+02
 40
2.00000000E+00
 50
2.24999986E+02
 51
3.08818374E+02
  0
ARC
  8
0
 62
7
 10
-3.91327057E+02
 20
1.20127167E+02
 40
2.00000000E+00
 50
3.21181173E+02
 51
4.50000012E+01
  0
ARC
  8
0
 62
7
 10
-4.08711700E+02
 20
1.37511749E+02
 40
2.00000000E+00
 50
4.49995880E+01
 51
1.23118148E+02
  0
ARC
  8
0
 62
7
 10
-4.03761749E+02
 20
1.42461670E+02
 40
2.00000000E+00
 50
1.46881880E+02
 51
2.24999545E+02
  0
ARC
  8
0
 62
7
 10
-3.69500031E+02
 20
1.61650024E+02
 40
2.00000000E+00
 50
0.00000000E+00
 51
8.99999818E+01
  0
ARC
  8
0
 62
7
 10
-3.04000031E+02
 20
3.77500000E+01
 40
6.00000000E+00
 50
2.70000018E+02
 51
0.00000000E+00
  0
ARC
  8
0
 62
7
 10
-3.14000031E+02
 20
4.77500000E+01
 40
1.50000000E+01
 50
7.63611117E+01
 51
1.93638704E+02
  0
ARC
  8
0
 62
7
 10
-3.04000031E+02
 20
3.77499695E+01
 40
5.40000057E+00
 50
2.70000018E+02
 51
0.00000000E+00
  0
ARC
  8
0
 62
7
 10
-4.17999908E+02
 20
4.77500000E+01
 40
1.50000000E+01
 50
3.46361265E+02
 51
1.03638907E+02
  0
ARC
  8
0
 62
7
 10
-4.27999908E+02
 20
3.77499695E+01
 40
5.40000057E+00
 50
1.80000036E+02
 51
2.70000018E+02
  0
ARC
  8
0
 62
7
 10
-4.27999908E+02
 20
3.77500000E+01
 40
6.00000000E+00
 50
1.80000036E+02
 51
2.70000018E+02
  0
ARC
  8
0
 62
7
 10
-4.17999908E+02
 20
1.51750000E+02
 40
1.50000000E+01
 50
2.56361093E+02
 51
1.36387352E+01
  0
ARC
  8
0
 62
7
 10
-4.27999908E+02
 20
1.61750031E+02
 40
5.40000057E+00
 50
8.99999818E+01
 51
1.79999964E+02
  0
ARC
  8
0
 62
7
 10
-4.27999908E+02
 20
1.61750000E+02
 40
6.00000000E+00
 50
8.99999818E+01
 51
1.79999964E+02
  0
CIRCLE
  8
0
 62
7
 10
-3.14000092E+02
 20
1.51750000E+02
 40
1.00500011E+01
  0
CIRCLE
  8
0
 62
7
 10
-4.17999969E+02
 20
4.77500000E+01
 40
6.09999990E+00
  0
CIRCLE
  8
0
 62
7
 10
-3.14000092E+02
 20
4.77500000E+01
 40
6.09999990E+00
  0
CIRCLE
  8
0
 62
7
 10
-3.14000092E+02
 20
4.77500000E+01
 40
1.00500011E+01
  0
CIRCLE
  8
0
 62
7
 10
-4.17999969E+02
 20
4.77500000E+01
 40
1.00500011E+01
  0
CIRCLE
  8
0
 62
7
 10
-4.17999969E+02
 20
1.51750000E+02
 40
1.00500011E+01
  0
CIRCLE
  8
0
 62
7
 10
-4.17999969E+02
 20
4.77500000E+01
 40
5.05000019E+00
  0
CIRCLE
  8
0
 62
7
 10
-3.14000092E+02
 20
4.77500000E+01
 40
5.05000019E+00
  0
CIRCLE
  8
0
 62
7
 10
-3.14000092E+02
 20
1.51750000E+02
 40
5.05000019E+00
  0
CIRCLE
  8
0
 62
7
 10
-4.17999969E+02
 20
1.51750000E+02
 40
5.05000019E+00
  0
CIRCLE
  8
0
 62
2
 10
-4.17999969E+02
 20
4.77500000E+01
 40
6.00000000E+00
  0
CIRCLE
  8
0
 62
2
 10
-3.14000092E+02
 20
4.77500000E+01
 40
6.00000000E+00
  0
CIRCLE
  8
0
 62
2
 10
-3.14000092E+02
 20
1.51750000E+02
 40
6.00000000E+00
  0
CIRCLE
  8
0
 62
2
 10
-4.17999969E+02
 20
1.51750000E+02
 40
6.00000000E+00
  0
LINE
  8
0
  6
CENTER
 62
2
 10
-3.79999908E+02
 20
1.55050018E+02
 11
-3.79999908E+02
 21
1.72039276E+02
  0
LINE
  8
0
  6
CENTER
 62
2
 10
-2.91596161E+02
 20
9.97500000E+01
 11
-4.41513763E+02
 21
9.97500000E+01
  0
LINE
  8
0
  6
CENTER
 62
2
 10
-3.14000031E+02
 20
2.74026489E+01
 11
-3.14000031E+02
 21
6.72460632E+01
  0
LINE
  8
0
  6
CENTER
 62
2
 10
-3.32754913E+02
 20
1.51750000E+02
 11
-2.93634979E+02
 21
1.51750000E+02
  0
LINE
  8
0
  6
CENTER
 62
2
 10
-3.32199982E+02
 20
4.77500000E+01
 11
-2.93357513E+02
 21
4.77500000E+01
  0
LINE
  8
0
  6
CENTER
 62
2
 10
-3.66000031E+02
 20
1.75368622E+02
 11
-3.66000031E+02
 21
2.41604614E+01
  0
LINE
  8
0
 62
7
 10
-3.02099945E+02
 20
1.31250885E+02
 11
-3.02099945E+02
 21
6.82492981E+01
  0
LINE
  8
0
 62
7
 10
-2.98000031E+02
 20
1.61750031E+02
 11
-2.98000031E+02
 21
3.77500000E+01
  0
LINE
  8
0
 62
7
 10
-2.98599945E+02
 20
1.61750031E+02
 11
-2.98599945E+02
 21
3.77499695E+01
  0
LINE
  8
0
 62
7
 10
-3.33682220E+02
 20
1.01250000E+02
 11
-3.04099945E+02
 21
1.01250000E+02
  0
LINE
  8
0
 62
7
 10
-3.24702932E+02
 20
1.38926301E+02
 11
-3.42087468E+02
 21
1.21541761E+02
  0
LINE
  8
0
 62
7
 10
-3.26824252E+02
 20
1.41047708E+02
 11
-3.44208853E+02
 21
1.23663103E+02
  0
LINE
  8
0
  6
CENTER
 62
2
 10
-3.14000031E+02
 20
1.71361633E+02
 11
-3.14000031E+02
 21
1.32930115E+02
  0
LINE
  8
0
 62
7
 10
-3.21000031E+02
 20
1.67750031E+02
 11
-3.21000031E+02
 21
1.67150055E+02
  0
LINE
  8
0
  6
CENTER
 62
2
 10
-4.38115631E+02
 20
1.51750000E+02
 11
-3.99896881E+02
 21
1.51750000E+02
  0
LINE
  8
0
 62
7
 10
-4.27999969E+02
 20
1.67750000E+02
 11
-3.04000031E+02
 21
1.67750000E+02
  0
LINE
  8
0
 62
7
 10
-3.97500946E+02
 20
1.63650024E+02
 11
-3.34499298E+02
 21
1.63650024E+02
  0
LINE
  8
0
 62
7
 10
-4.27999969E+02
 20
1.67150024E+02
 11
-3.04000031E+02
 21
1.67150024E+02
  0
LINE
  8
0
 62
7
 10
-3.64500031E+02
 20
1.61650055E+02
 11
-3.64500031E+02
 21
1.32067780E+02
  0
LINE
  8
0
 62
7
 10
-3.33682220E+02
 20
9.82500000E+01
 11
-3.04099945E+02
 21
9.82500000E+01
  0
LINE
  8
0
 62
7
 10
-4.05176173E+02
 20
1.41047551E+02
 11
-3.87791594E+02
 21
1.23662967E+02
  0
LINE
  8
0
 62
7
 10
-3.24702777E+02
 20
6.05737890E+01
 11
-3.42087400E+02
 21
7.79584158E+01
  0
LINE
  8
0
 62
7
 10
-3.26824098E+02
 20
5.84525552E+01
 11
-3.44208720E+02
 21
7.58371820E+01
  0
LINE
  8
0
 62
7
 10
-3.21000031E+02
 20
3.17500000E+01
 11
-3.21000031E+02
 21
3.23499756E+01
  0
LINE
  8
0
 62
7
 10
-4.11000031E+02
 20
3.17500000E+01
 11
-4.11000031E+02
 21
3.23499756E+01
  0
LINE
  8
0
 62
7
 10
-3.64500031E+02
 20
3.78499756E+01
 11
-3.64500031E+02
 21
6.74322205E+01
  0
LINE
  8
0
 62
7
 10
-3.67500031E+02
 20
3.78499756E+01
 11
-3.67500031E+02
 21
6.74322205E+01
  0
LINE
  8
0
 62
7
 10
-4.07297907E+02
 20
6.05743779E+01
 11
-3.89913242E+02
 21
7.79590479E+01
  0
LINE
  8
0
 62
7
 10
-4.05176328E+02
 20
5.84530578E+01
 11
-3.87791791E+02
 21
7.58375982E+01
  0
LINE
  8
0
  6
CENTER
 62
2
 10
-4.17999908E+02
 20
2.77672424E+01
 11
-4.17999908E+02
 21
6.58954163E+01
  0
LINE
  8
0
  6
CENTER
 62
2
 10
-4.38327484E+02
 20
4.77500000E+01
 11
-4.00451752E+02
 21
4.77500000E+01
  0
LINE
  8
0
 62
7
 10
-4.27999969E+02
 20
3.17500000E+01
 11
-3.04000031E+02
 21
3.17500000E+01
  0
LINE
  8
0
 62
7
 10
-3.98013458E+02
 20
3.58499756E+01
 11
-3.34499115E+02
 21
3.58499756E+01
  0
LINE
  8
0
 62
7
 10
-4.27999969E+02
 20
3.23499756E+01
 11
-3.04000031E+02
 21
3.23499756E+01
  0
LINE
  8
0
 62
7
 10
-4.11000031E+02
 20
1.67750031E+02
 11
-4.11000031E+02
 21
1.67150055E+02
  0
LINE
  8
0
 62
7
 10
-3.98317841E+02
 20
9.82500000E+01
 11
-4.27899994E+02
 21
9.82500000E+01
  0
LINE
  8
0
 62
7
 10
-3.98317841E+02
 20
1.01250000E+02
 11
-4.27899994E+02
 21
1.01250000E+02
  0
LINE
  8
0
 62
7
 10
-3.67500031E+02
 20
1.61650055E+02
 11
-3.67500031E+02
 21
1.32067780E+02
  0
LINE
  8
0
 62
7
 10
-4.07297559E+02
 20
1.38925907E+02
 11
-3.89912979E+02
 21
1.21541323E+02
  0
LINE
  8
0
  6
CENTER
 62
2
 10
-4.17999908E+02
 20
1.71614075E+02
 11
-4.17999908E+02
 21
1.33604584E+02
  0
LINE
  8
0
 62
7
 10
-4.33999908E+02
 20
1.61750031E+02
 11
-4.33999908E+02
 21
3.77500000E+01
  0
LINE
  8
0
 62
7
 10
-4.29899994E+02
 20
1.31250702E+02
 11
-4.29899994E+02
 21
6.82492981E+01
  0
LINE
  8
0
 62
7
 10
-4.33399933E+02
 20
1.61750031E+02
 11
-4.33399933E+02
 21
3.77499695E+01
  0
CIRCLE
  8
0
 62
7
 10
-3.66000031E+02
 20
9.97500000E+01
 40
1.35000000E+01
  0
LINE
  8
0
 62
4
 10
-3.48000031E+02
 20
1.10142305E+02
 11
-3.66000031E+02
 21
1.20534610E+02
  0
LINE
  8
0
 62
4
 10
-3.48000031E+02
 20
8.93576952E+01
 11
-3.48000031E+02
 21
1.10142305E+02
  0
LINE
  8
0
 62
4
 10
-3.66000031E+02
 20
7.89653903E+01
 11
-3.48000031E+02
 21
8.93576952E+01
  0
LINE
  8
0
 62
4
 10
-3.84000031E+02
 20
8.93576952E+01
 11
-3.66000031E+02
 21
7.89653903E+01
  0
LINE
  8
0
 62
4
 10
-3.84000031E+02
 20
1.10142305E+02
 11
-3.84000031E+02
 21
8.93576952E+01
  0
LINE
  8
0
 62
4
 10
-3.66000031E+02
 20
1.20534610E+02
 11
-3.84000031E+02
 21
1.10142305E+02
  0
CIRCLE
  8
0
 62
4
 10
-3.66000031E+02
 20
9.97500000E+01
 40
1.80000000E+01
  0
CIRCLE
  8
0
 62
2
 10
-3.66000031E+02
 20
9.97500000E+01
 40
1.24174957E+01
  0
CIRCLE
  8
0
 62
7
 10
-3.66000031E+02
 20
9.97500000E+01
 40
1.19999999E+01
  0
ARC
  8
0
 62
4
 10
-3.33628533E+02
 20
1.68547462E+02
 40
1.00000000E+00
 50
1.65327510E+02
 51
2.32888382E+02
  0
LINE
  8
0
  6
CENTER
 62
6
 10
-3.11791524E+02
 20
1.59885551E+02
 11
-3.31682795E+02
 21
1.70240291E+02
  0
LINE
  8
0
 62
4
 10
-3.19416211E+02
 20
1.68927931E+02
 11
-3.17153427E+02
 21
1.67750000E+02
  0
LINE
  8
0
 62
4
 10
-3.28552423E+02
 20
1.73683942E+02
 11
-3.31641437E+02
 21
1.67750000E+02
  0
LINE
  8
0
 62
4
 10
-3.20029403E+02
 20
1.67750000E+02
 11
-3.19416211E+02
 21
1.68927931E+02
  0
LINE
  8
0
 62
4
 10
-3.32768819E+02
 20
1.67750000E+02
 11
-3.29762658E+02
 21
1.73524783E+02
  0
LINE
  8
0
 62
4
 10
-3.28552423E+02
 20
1.73683942E+02
 11
-3.19416211E+02
 21
1.68927931E+02
  0
ARC
  8
0
 62
4
 10
-3.23171053E+02
 20
1.65809359E+02
 40
1.18100000E+01
 50
1.39672490E+02
 51
1.65327510E+02
  0
LINE
  8
0
 62
4
 10
-3.29947357E+02
 20
1.73169978E+02
 11
-3.30949679E+02
 21
1.73691754E+02
  0
ARC
  8
0
 62
4
 10
-3.31412140E+02
 20
1.72805114E+02
 40
1.00000000E+00
 50
6.24999999E+01
 51
1.39672490E+02
  0
LINE
  8
0
 62
4
 10
-3.28875647E+02
 20
1.73063034E+02
 11
-3.29762658E+02
 21
1.73524783E+02
  0
LINE
  8
0
 62
4
 10
-4.12583728E+02
 20
1.68927931E+02
 11
-4.14846512E+02
 21
1.67750000E+02
  0
LINE
  8
0
  6
CENTER
 62
6
 10
-4.20208415E+02
 20
1.59885551E+02
 11
-4.00317144E+02
 21
1.70240291E+02
  0
ARC
  8
0
 62
4
 10
-4.07669003E+02
 20
1.62476043E+02
 40
1.18100000E+01
 50
2.75000000E+01
 51
4.80326990E+01
  0
LINE
  8
0
 62
4
 10
-4.11970536E+02
 20
1.67750000E+02
 11
-4.12583728E+02
 21
1.68927931E+02
  0
LINE
  8
0
 62
4
 10
-4.00358502E+02
 20
1.67750000E+02
 11
-4.03447516E+02
 21
1.73683942E+02
  0
LINE
  8
0
 62
4
 10
-3.99930096E+02
 20
1.67750000E+02
 11
-4.01332720E+02
 21
1.70444414E+02
  0
LINE
  8
0
 62
4
 10
-4.03124292E+02
 20
1.73063034E+02
 11
-4.02237281E+02
 21
1.73524783E+02
  0
ARC
  8
0
 62
4
 10
-3.98371406E+02
 20
1.68547462E+02
 40
1.00000000E+00
 50
3.46223662E+02
 51
1.46724899E+01
  0
ARC
  8
0
 62
4
 10
-4.00587799E+02
 20
1.72805114E+02
 40
1.00000000E+00
 50
4.03275100E+01
 51
1.17500000E+02
  0
ARC
  8
0
 62
4
 10
-4.08828886E+02
 20
1.65809359E+02
 40
1.18100000E+01
 50
1.46724899E+01
 51
4.03275100E+01
  0
LINE
  8
0
 62
4
 10
-4.02052582E+02
 20
1.73169978E+02
 11
-4.01050260E+02
 21
1.73691754E+02
  0
LINE
  8
0
 62
4
 10
-4.00782773E+02
 20
1.70730698E+02
 11
-4.02237281E+02
 21
1.73524783E+02
  0
LINE
  8
0
 62
4
 10
-4.01600522E+02
 20
1.70135898E+02
 11
-4.01263458E+02
 21
1.70311363E+02
  0
LINE
  8
0
 62
4
 10
-4.01332720E+02
 20
1.70444414E+02
 11
-3.99771581E+02
 21
1.71257092E+02
  0
LINE
  8
0
 62
4
 10
-4.03447516E+02
 20
1.73683942E+02
 11
-4.12583728E+02
 21
1.68927931E+02
  0
ARC
  8
0
 62
4
 10
-4.07661857E+02
 20
1.62462315E+02
 40
1.18100000E+01
 50
2.65981016E+01
 51
2.75000000E+01
  0
ARC
  8
0
 62
4
 10
-3.24338082E+02
 20
1.62462315E+02
 40
1.18100000E+01
 50
1.52500000E+02
 51
1.53401899E+02
  0
ARC
  8
0
 62
4
 10
-3.24330936E+02
 20
1.62476043E+02
 40
1.18100000E+01
 50
1.50400933E+02
 51
1.52500000E+02
  0
ARC
  8
0
 62
7
 10
2.05146759E+02
 20
6.82491150E+01
 40
2.00000000E+00
 50
1.79999995E+02
 51
2.69119900E+02
  0
ARC
  8
0
 62
7
 10
2.11038177E+02
 20
6.42706604E+01
 40
2.00000000E+00
 50
2.02818864E+02
 51
2.83638710E+02
  0
ARC
  8
0
 62
7
 10
2.05046906E+02
 20
6.17498779E+01
 40
4.50000048E+00
 50
2.28184548E+01
 51
8.91197479E+01
  0
ARC
  8
0
 62
7
 10
2.31567413E+02
 20
4.37414246E+01
 40
2.00000000E+00
 50
1.66361265E+02
 51
2.47183781E+02
  0
ARC
  8
0
 62
7
 10
2.35546112E+02
 20
3.78499756E+01
 40
2.00000000E+00
 50
1.80881322E+02
 51
2.69999970E+02
  0
ARC
  8
0
 62
7
 10
2.29046906E+02
 20
3.77500305E+01
 40
4.50000048E+00
 50
8.80775199E-01
 51
6.71834279E+01
  0
ARC
  8
0
 62
7
 10
3.23055389E+02
 20
6.42706299E+01
 40
2.00000000E+00
 50
2.56361264E+02
 51
3.37183785E+02
  0
ARC
  8
0
 62
7
 10
3.28946808E+02
 20
6.82492981E+01
 40
2.00000000E+00
 50
2.70881317E+02
 51
3.59999964E+02
  0
ARC
  8
0
 62
7
 10
3.29046722E+02
 20
6.17500610E+01
 40
4.50000048E+00
 50
9.08807761E+01
 51
1.57183417E+02
  0
ARC
  8
0
 62
7
 10
2.98547699E+02
 20
3.78499756E+01
 40
2.00000000E+00
 50
2.69999984E+02
 51
3.59119894E+02
  0
ARC
  8
0
 62
7
 10
3.02526154E+02
 20
4.37414246E+01
 40
2.00000000E+00
 50
2.92818861E+02
 51
1.36387044E+01
  0
ARC
  8
0
 62
7
 10
3.05046906E+02
 20
3.77501221E+01
 40
4.50000048E+00
 50
1.12818449E+02
 51
1.79119744E+02
  0
ARC
  8
0
 62
7
 10
2.98547699E+02
 20
1.61650024E+02
 40
2.00000000E+00
 50
8.80105841E-01
 51
9.00000162E+01
  0
ARC
  8
0
 62
7
 10
3.02526154E+02
 20
1.55758575E+02
 40
2.00000000E+00
 50
3.46361278E+02
 51
6.71811327E+01
  0
ARC
  8
0
 62
7
 10
3.05046906E+02
 20
1.61749878E+02
 40
4.50000048E+00
 50
1.80880256E+02
 51
2.47181551E+02
  0
ARC
  8
0
 62
7
 10
3.23055389E+02
 20
1.35229370E+02
 40
2.00000000E+00
 50
2.28162145E+01
 51
1.03638736E+02
  0
ARC
  8
0
 62
7
 10
3.28946808E+02
 20
1.31250702E+02
 40
2.00000000E+00
 50
3.59999981E+02
 51
8.91186828E+01
  0
ARC
  8
0
 62
7
 10
3.29046722E+02
 20
1.37749939E+02
 40
4.50000048E+00
 50
2.02816584E+02
 51
2.69119217E+02
  0
ARC
  8
0
 62
7
 10
2.35545929E+02
 20
1.61650024E+02
 40
2.00000000E+00
 50
9.00000162E+01
 51
1.79119908E+02
  0
ARC
  8
0
 62
7
 10
2.31567474E+02
 20
1.55758575E+02
 40
2.00000000E+00
 50
1.12818865E+02
 51
1.93638718E+02
  0
ARC
  8
0
 62
7
 10
2.11038177E+02
 20
1.35229370E+02
 40
2.00000000E+00
 50
7.63612693E+01
 51
1.57183799E+02
  0
ARC
  8
0
 62
7
 10
2.05146759E+02
 20
1.31250702E+02
 40
2.00000000E+00
 50
9.08813221E+01
 51
1.79999977E+02
  0
ARC
  8
0
 62
7
 10
2.05046844E+02
 20
1.37749908E+02
 40
4.50000048E+00
 50
2.70880750E+02
 51
3.37183416E+02
  0
ARC
  8
0
 62
7
 10
2.29046661E+02
 20
1.61749878E+02
 40
4.50000048E+00
 50
2.92818444E+02
 51
3.59119744E+02
  0
CIRCLE
  8
0
 62
7
 10
2.67046844E+02
 20
9.97500000E+01
 40
3.00000000E+01
  0
ARC
  8
0
 62
7
 10
2.05146759E+02
 20
9.62500000E+01
 40
2.00000000E+00
 50
9.00000162E+01
 51
1.80000005E+02
  0
ARC
  8
0
 62
7
 10
2.34729034E+02
 20
9.62500000E+01
 40
2.00000000E+00
 50
6.18081063E+00
 51
9.00000162E+01
  0
ARC
  8
0
 62
7
 10
2.29285004E+02
 20
5.70383606E+01
 40
2.00000000E+00
 50
1.35000410E+02
 51
2.13118623E+02
  0
ARC
  8
0
 62
7
 10
2.24335297E+02
 20
6.19881287E+01
 40
2.00000000E+00
 50
2.36880567E+02
 51
3.15000436E+02
  0
ARC
  8
0
 62
7
 10
2.41719818E+02
 20
7.93727112E+01
 40
2.00000000E+00
 50
3.15000012E+02
 51
3.88192470E+01
  0
ARC
  8
0
 62
7
 10
2.46669647E+02
 20
7.44229431E+01
 40
2.00000000E+00
 50
5.11812405E+01
 51
1.35000001E+02
  0
ARC
  8
0
 62
7
 10
2.05046844E+02
 20
3.77500000E+01
 40
6.00000000E+00
 50
1.79999995E+02
 51
2.69999984E+02
  0
ARC
  8
0
 62
7
 10
2.15046844E+02
 20
4.77500000E+01
 40
1.50000000E+01
 50
3.46361278E+02
 51
1.03638879E+02
  0
ARC
  8
0
 62
7
 10
2.05046844E+02
 20
3.77499695E+01
 40
5.40000057E+00
 50
1.79999995E+02
 51
2.69999984E+02
  0
ARC
  8
0
 62
7
 10
2.63546844E+02
 20
6.74322205E+01
 40
2.00000000E+00
 50
3.59999981E+02
 51
8.38191527E+01
  0
ARC
  8
0
 62
7
 10
2.63546844E+02
 20
3.78499756E+01
 40
2.00000000E+00
 50
2.69999984E+02
 51
3.59999964E+02
  0
ARC
  8
0
 62
7
 10
2.05146759E+02
 20
1.03250000E+02
 40
2.00000000E+00
 50
1.79999995E+02
 51
2.69999984E+02
  0
ARC
  8
0
 62
7
 10
2.34729034E+02
 20
1.03250000E+02
 40
2.00000000E+00
 50
2.69999984E+02
 51
3.53819189E+02
  0
ARC
  8
0
 62
7
 10
3.09758575E+02
 20
1.37511688E+02
 40
2.00000000E+00
 50
5.68818530E+01
 51
1.35000001E+02
  0
ARC
  8
0
 62
7
 10
3.04808685E+02
 20
1.42461395E+02
 40
2.00000000E+00
 50
3.15000012E+02
 51
3.31197136E+01
  0
ARC
  8
0
 62
7
 10
2.70546844E+02
 20
1.61650024E+02
 40
2.00000000E+00
 50
9.00000162E+01
 51
1.80000005E+02
  0
ARC
  8
0
 62
7
 10
2.63546844E+02
 20
1.61650024E+02
 40
2.00000000E+00
 50
3.59999981E+02
 51
9.00000162E+01
  0
ARC
  8
0
 62
7
 10
2.29285004E+02
 20
1.42461609E+02
 40
2.00000000E+00
 50
1.46881374E+02
 51
2.24999996E+02
  0
ARC
  8
0
 62
7
 10
2.24335236E+02
 20
1.37511841E+02
 40
2.00000000E+00
 50
4.49999876E+01
 51
1.23118449E+02
  0
ARC
  8
0
 62
7
 10
2.92373993E+02
 20
1.20127045E+02
 40
2.00000000E+00
 50
1.35000410E+02
 51
2.18818375E+02
  0
ARC
  8
0
 62
7
 10
2.87424286E+02
 20
1.25076874E+02
 40
2.00000000E+00
 50
2.31180351E+02
 51
3.14999603E+02
  0
ARC
  8
0
 62
7
 10
2.70546844E+02
 20
1.32067780E+02
 40
2.00000000E+00
 50
1.79999995E+02
 51
2.63819175E+02
  0
ARC
  8
0
 62
7
 10
2.63546844E+02
 20
1.32067780E+02
 40
2.00000000E+00
 50
2.76180848E+02
 51
3.59999964E+02
  0
ARC
  8
0
 62
7
 10
2.46669647E+02
 20
1.25077057E+02
 40
2.00000000E+00
 50
2.25000000E+02
 51
3.08818391E+02
  0
ARC
  8
0
 62
7
 10
2.41719818E+02
 20
1.20127289E+02
 40
2.00000000E+00
 50
3.21181183E+02
 51
4.49999671E+01
  0
ARC
  8
0
 62
7
 10
3.28946808E+02
 20
1.03250000E+02
 40
2.00000000E+00
 50
2.69999984E+02
 51
3.59999964E+02
  0
ARC
  8
0
 62
7
 10
3.28946808E+02
 20
9.62500000E+01
 40
2.00000000E+00
 50
3.59999981E+02
 51
9.00000162E+01
  0
ARC
  8
0
 62
7
 10
2.99364594E+02
 20
1.03250000E+02
 40
2.00000000E+00
 50
1.86180824E+02
 51
2.69999984E+02
  0
ARC
  8
0
 62
7
 10
2.99364594E+02
 20
9.62500000E+01
 40
2.00000000E+00
 50
9.00000162E+01
 51
1.73819176E+02
  0
ARC
  8
0
 62
7
 10
2.70546844E+02
 20
6.74322205E+01
 40
2.00000000E+00
 50
9.61808254E+01
 51
1.80000005E+02
  0
ARC
  8
0
 62
7
 10
2.87423920E+02
 20
7.44229126E+01
 40
2.00000000E+00
 50
4.49999876E+01
 51
1.28818378E+02
  0
ARC
  8
0
 62
7
 10
2.92373871E+02
 20
7.93728333E+01
 40
2.00000000E+00
 50
1.41181171E+02
 51
2.24999996E+02
  0
ARC
  8
0
 62
7
 10
3.09758514E+02
 20
6.19882507E+01
 40
2.00000000E+00
 50
2.24999590E+02
 51
3.03118147E+02
  0
ARC
  8
0
 62
7
 10
3.04808563E+02
 20
5.70383301E+01
 40
2.00000000E+00
 50
3.26881878E+02
 51
4.49995436E+01
  0
ARC
  8
0
 62
7
 10
2.70546844E+02
 20
3.78499756E+01
 40
2.00000000E+00
 50
1.79999995E+02
 51
2.69999984E+02
  0
ARC
  8
0
 62
7
 10
2.05046844E+02
 20
1.61750000E+02
 40
6.00000000E+00
 50
9.00000162E+01
 51
1.80000005E+02
  0
ARC
  8
0
 62
7
 10
2.15046844E+02
 20
1.51750000E+02
 40
1.50000000E+01
 50
2.56361114E+02
 51
1.36387044E+01
  0
ARC
  8
0
 62
7
 10
2.05046844E+02
 20
1.61750031E+02
 40
5.40000057E+00
 50
9.00000162E+01
 51
1.80000005E+02
  0
ARC
  8
0
 62
7
 10
3.19046722E+02
 20
1.51750000E+02
 40
1.50000000E+01
 50
1.66361265E+02
 51
2.83638905E+02
  0
ARC
  8
0
 62
7
 10
3.29046722E+02
 20
1.61750031E+02
 40
5.40000057E+00
 50
3.59721781E-05
 51
9.00000162E+01
  0
ARC
  8
0
 62
7
 10
3.29046722E+02
 20
1.61750000E+02
 40
6.00000000E+00
 50
3.59721781E-05
 51
9.00000162E+01
  0
ARC
  8
0
 62
7
 10
3.19046722E+02
 20
4.77500000E+01
 40
1.50000000E+01
 50
7.63610917E+01
 51
1.93638732E+02
  0
ARC
  8
0
 62
7
 10
3.29046722E+02
 20
3.77499695E+01
 40
5.40000057E+00
 50
2.69999984E+02
 51
3.59999964E+02
  0
ARC
  8
0
 62
7
 10
3.29046722E+02
 20
3.77500000E+01
 40
6.00000000E+00
 50
2.69999984E+02
 51
3.59999964E+02
  0
CIRCLE
  8
0
 62
7
 10
2.15046906E+02
 20
4.77500000E+01
 40
5.05000019E+00
  0
CIRCLE
  8
0
 62
7
 10
2.15046906E+02
 20
1.51750000E+02
 40
5.05000019E+00
  0
CIRCLE
  8
0
 62
7
 10
3.19046783E+02
 20
1.51750000E+02
 40
5.05000019E+00
  0
CIRCLE
  8
0
 62
2
 10
3.19046783E+02
 20
4.77500000E+01
 40
6.00000000E+00
  0
CIRCLE
  8
0
 62
7
 10
3.19046783E+02
 20
4.77500000E+01
 40
1.00500011E+01
  0
CIRCLE
  8
0
 62
7
 10
2.15046906E+02
 20
4.77500000E+01
 40
1.00500011E+01
  0
CIRCLE
  8
0
 62
7
 10
2.15046906E+02
 20
1.51750000E+02
 40
1.00500011E+01
  0
CIRCLE
  8
0
 62
7
 10
3.19046783E+02
 20
1.51750000E+02
 40
1.00500011E+01
  0
CIRCLE
  8
0
 62
2
 10
2.15046906E+02
 20
4.77500000E+01
 40
6.00000000E+00
  0
CIRCLE
  8
0
 62
2
 10
3.19046783E+02
 20
1.51750000E+02
 40
6.00000000E+00
  0
CIRCLE
  8
0
 62
2
 10
2.15046906E+02
 20
1.51750000E+02
 40
6.00000000E+00
  0
CIRCLE
  8
0
 62
7
 10
3.19046783E+02
 20
4.77500000E+01
 40
5.05000019E+00
  0
CIRCLE
  8
0
 62
7
 10
3.19046722E+02
 20
4.77500000E+01
 40
1.05500011E+01
  0
CIRCLE
  8
0
 62
7
 10
2.15046844E+02
 20
4.77500000E+01
 40
1.05500011E+01
  0
CIRCLE
  8
0
 62
7
 10
2.15046844E+02
 20
1.51750000E+02
 40
1.05500011E+01
  0
CIRCLE
  8
0
 62
7
 10
3.19046722E+02
 20
1.51750000E+02
 40
1.05500011E+01
  0
LINE
  8
0
 62
7
 10
3.19046782E+02
 20
5.46781978E+01
 11
3.25046785E+02
 21
5.12140941E+01
  0
LINE
  8
0
 62
7
 10
3.25046783E+02
 20
5.12140999E+01
 11
3.25046783E+02
 21
4.42859001E+01
  0
LINE
  8
0
 62
7
 10
3.25046787E+02
 20
4.42859002E+01
 11
3.19046783E+02
 21
4.08217965E+01
  0
LINE
  8
0
 62
7
 10
3.19046785E+02
 20
4.08217894E+01
 11
3.13046782E+02
 21
4.42858931E+01
  0
LINE
  8
0
 62
7
 10
3.13046783E+02
 20
5.12140999E+01
 11
3.13046783E+02
 21
4.42859001E+01
  0
LINE
  8
0
 62
7
 10
3.19046785E+02
 20
5.46782081E+01
 11
3.13046781E+02
 21
5.12141044E+01
  0
LINE
  8
0
 62
7
 10
2.15046902E+02
 20
5.46782003E+01
 11
2.21046902E+02
 21
5.12140986E+01
  0
LINE
  8
0
 62
7
 10
2.21046906E+02
 20
5.12140999E+01
 11
2.21046906E+02
 21
4.42859001E+01
  0
LINE
  8
0
 62
7
 10
2.21046903E+02
 20
4.42858982E+01
 11
2.15046906E+02
 21
4.08217983E+01
  0
LINE
  8
0
 62
7
 10
2.15046902E+02
 20
4.08217939E+01
 11
2.09046902E+02
 21
4.42858957E+01
  0
LINE
  8
0
 62
7
 10
2.09046906E+02
 20
5.12140999E+01
 11
2.09046906E+02
 21
4.42859001E+01
  0
LINE
  8
0
 62
7
 10
2.15046903E+02
 20
5.46782026E+01
 11
2.09046906E+02
 21
5.12141027E+01
  0
LINE
  8
0
 62
7
 10
2.15046908E+02
 20
1.58678205E+02
 11
2.21046908E+02
 21
1.55214104E+02
  0
LINE
  8
0
 62
7
 10
2.21046906E+02
 20
1.55214096E+02
 11
2.21046906E+02
 21
1.48285904E+02
  0
LINE
  8
0
 62
7
 10
2.21046903E+02
 20
1.48285895E+02
 11
2.15046899E+02
 21
1.44821791E+02
  0
LINE
  8
0
 62
7
 10
2.15046908E+02
 20
1.44821799E+02
 11
2.09046908E+02
 21
1.48285901E+02
  0
LINE
  8
0
 62
7
 10
2.09046906E+02
 20
1.55214096E+02
 11
2.09046906E+02
 21
1.48285904E+02
  0
LINE
  8
0
 62
7
 10
2.15046903E+02
 20
1.58678200E+02
 11
2.09046899E+02
 21
1.55214096E+02
  0
LINE
  8
0
 62
7
 10
3.19046787E+02
 20
1.58678204E+02
 11
3.25046783E+02
 21
1.55214104E+02
  0
LINE
  8
0
 62
7
 10
3.25046783E+02
 20
1.55214096E+02
 11
3.25046783E+02
 21
1.48285904E+02
  0
LINE
  8
0
 62
7
 10
3.25046785E+02
 20
1.48285901E+02
 11
3.19046781E+02
 21
1.44821797E+02
  0
LINE
  8
0
 62
7
 10
3.19046783E+02
 20
1.44821799E+02
 11
3.13046787E+02
 21
1.48285899E+02
  0
LINE
  8
0
 62
7
 10
3.13046783E+02
 20
1.55214096E+02
 11
3.13046783E+02
 21
1.48285904E+02
  0
LINE
  8
0
 62
7
 10
3.19046786E+02
 20
1.58678204E+02
 11
3.13046782E+02
 21
1.55214100E+02
  0
LINE
  8
0
  6
CENTER
 62
2
 10
2.81046722E+02
 20
1.55050018E+02
 11
2.81046722E+02
 21
1.72039276E+02
  0
LINE
  8
0
  6
CENTER
 62
2
 10
1.92642975E+02
 20
9.97500000E+01
 11
3.42560577E+02
 21
9.97500000E+01
  0
LINE
  8
0
  6
CENTER
 62
2
 10
2.15046844E+02
 20
1.72097351E+02
 11
2.15046844E+02
 21
1.32253937E+02
  0
LINE
  8
0
  6
CENTER
 62
2
 10
2.33801727E+02
 20
4.77500000E+01
 11
1.94681793E+02
 21
4.77500000E+01
  0
LINE
  8
0
  6
CENTER
 62
2
 10
2.33246796E+02
 20
1.51750000E+02
 11
1.94404327E+02
 21
1.51750000E+02
  0
LINE
  8
0
  6
CENTER
 62
2
 10
2.67046844E+02
 20
1.75368622E+02
 11
2.67046844E+02
 21
2.41604614E+01
  0
LINE
  8
0
 62
7
 10
2.03146759E+02
 20
6.82491150E+01
 11
2.03146759E+02
 21
1.19742336E+02
  0
LINE
  8
0
 62
7
 10
1.99046844E+02
 20
3.77499695E+01
 11
1.99046844E+02
 21
1.61750000E+02
  0
LINE
  8
0
 62
7
 10
1.99646759E+02
 20
3.77499695E+01
 11
1.99646759E+02
 21
1.61750031E+02
  0
LINE
  8
0
 62
7
 10
2.34729034E+02
 20
9.82500000E+01
 11
2.05146759E+02
 21
9.82500000E+01
  0
LINE
  8
0
 62
7
 10
2.25749740E+02
 20
6.05737027E+01
 11
2.43134271E+02
 21
7.79582378E+01
  0
LINE
  8
0
 62
7
 10
2.27871061E+02
 20
5.84522963E+01
 11
2.45255656E+02
 21
7.58368961E+01
  0
LINE
  8
0
  6
CENTER
 62
2
 10
2.15046844E+02
 20
2.81383667E+01
 11
2.15046844E+02
 21
6.65698853E+01
  0
LINE
  8
0
 62
7
 10
2.22046844E+02
 20
3.17499695E+01
 11
2.22046844E+02
 21
3.23499451E+01
  0
LINE
  8
0
  6
CENTER
 62
2
 10
3.39162445E+02
 20
4.77500000E+01
 11
3.00943695E+02
 21
4.77500000E+01
  0
LINE
  8
0
 62
7
 10
3.29046783E+02
 20
3.17500000E+01
 11
2.05046844E+02
 21
3.17500000E+01
  0
LINE
  8
0
 62
7
 10
2.98547760E+02
 20
3.58499756E+01
 11
2.35546112E+02
 21
3.58499756E+01
  0
LINE
  8
0
 62
7
 10
3.29046783E+02
 20
3.23499756E+01
 11
2.05046844E+02
 21
3.23499756E+01
  0
LINE
  8
0
 62
7
 10
2.65546844E+02
 20
3.78499451E+01
 11
2.65546844E+02
 21
6.74322205E+01
  0
LINE
  8
0
 62
7
 10
2.34729034E+02
 20
1.01250000E+02
 11
2.05146759E+02
 21
1.01250000E+02
  0
LINE
  8
0
 62
7
 10
3.06222988E+02
 20
5.84524427E+01
 11
2.88838409E+02
 21
7.58370264E+01
  0
LINE
  8
0
 62
7
 10
2.25749590E+02
 20
1.38926207E+02
 11
2.43134213E+02
 21
1.21541580E+02
  0
LINE
  8
0
 62
7
 10
2.27870910E+02
 20
1.41047441E+02
 11
2.45255533E+02
 21
1.23662813E+02
  0
LINE
  8
0
 62
7
 10
2.22046844E+02
 20
1.67750000E+02
 11
2.22046844E+02
 21
1.67150024E+02
  0
LINE
  8
0
 62
7
 10
3.12046844E+02
 20
1.67750000E+02
 11
3.12046844E+02
 21
1.67150024E+02
  0
LINE
  8
0
 62
7
 10
2.65546844E+02
 20
1.61650024E+02
 11
2.65546844E+02
 21
1.32067780E+02
  0
LINE
  8
0
 62
7
 10
2.68546844E+02
 20
1.61650024E+02
 11
2.68546844E+02
 21
1.32067780E+02
  0
LINE
  8
0
 62
7
 10
3.08344710E+02
 20
1.38925621E+02
 11
2.90960045E+02
 21
1.21540951E+02
  0
LINE
  8
0
 62
7
 10
3.06223131E+02
 20
1.41046941E+02
 11
2.88838595E+02
 21
1.23662401E+02
  0
LINE
  8
0
  6
CENTER
 62
2
 10
3.19046722E+02
 20
1.71732758E+02
 11
3.19046722E+02
 21
1.33604584E+02
  0
LINE
  8
0
  6
CENTER
 62
2
 10
3.39374298E+02
 20
1.51750000E+02
 11
3.01498566E+02
 21
1.51750000E+02
  0
LINE
  8
0
 62
7
 10
3.29046783E+02
 20
1.67750000E+02
 11
2.05046844E+02
 21
1.67750000E+02
  0
LINE
  8
0
 62
7
 10
2.99060272E+02
 20
1.63650024E+02
 11
2.35545929E+02
 21
1.63650024E+02
  0
LINE
  8
0
 62
7
 10
3.29046783E+02
 20
1.67150024E+02
 11
2.05046844E+02
 21
1.67150024E+02
  0
LINE
  8
0
 62
7
 10
3.12046844E+02
 20
3.17499695E+01
 11
3.12046844E+02
 21
3.23499451E+01
  0
LINE
  8
0
 62
7
 10
2.99364655E+02
 20
1.01250000E+02
 11
3.28946808E+02
 21
1.01250000E+02
  0
LINE
  8
0
 62
7
 10
2.99364655E+02
 20
9.82500000E+01
 11
3.28946808E+02
 21
9.82500000E+01
  0
LINE
  8
0
 62
7
 10
2.68546844E+02
 20
3.78499451E+01
 11
2.68546844E+02
 21
6.74322205E+01
  0
LINE
  8
0
 62
7
 10
3.08344374E+02
 20
6.05740866E+01
 11
2.90959795E+02
 21
7.79586702E+01
  0
LINE
  8
0
  6
CENTER
 62
2
 10
3.19046722E+02
 20
2.78859253E+01
 11
3.19046722E+02
 21
6.58954163E+01
  0
LINE
  8
0
 62
7
 10
3.35046722E+02
 20
3.77499695E+01
 11
3.35046722E+02
 21
1.61750000E+02
  0
LINE
  8
0
 62
7
 10
3.30946808E+02
 20
6.82492981E+01
 11
3.30946808E+02
 21
1.31250702E+02
  0
LINE
  8
0
 62
7
 10
3.34446747E+02
 20
3.77499695E+01
 11
3.34446747E+02
 21
1.61750031E+02
  0
LINE
  8
0
 62
7
 10
2.03146759E+02
 20
1.19742336E+02
 11
2.03146759E+02
 21
1.31250702E+02
  0
ARC
  8
0
 62
4
 10
2.99418342E+02
 20
1.68547462E+02
 40
1.00000000E+00
 50
1.65327510E+02
 51
2.32888382E+02
  0
LINE
  8
0
  6
CENTER
 62
6
 10
3.21255351E+02
 20
1.59885551E+02
 11
3.01364080E+02
 21
1.70240291E+02
  0
LINE
  8
0
 62
4
 10
3.13630664E+02
 20
1.68927931E+02
 11
3.15893448E+02
 21
1.67750000E+02
  0
LINE
  8
0
 62
4
 10
3.04494452E+02
 20
1.73683942E+02
 11
3.01405438E+02
 21
1.67750000E+02
  0
LINE
  8
0
 62
4
 10
3.13017472E+02
 20
1.67750000E+02
 11
3.13630664E+02
 21
1.68927931E+02
  0
LINE
  8
0
 62
4
 10
3.00278056E+02
 20
1.67750000E+02
 11
3.03284217E+02
 21
1.73524783E+02
  0
LINE
  8
0
 62
4
 10
3.04494452E+02
 20
1.73683942E+02
 11
3.13630664E+02
 21
1.68927931E+02
  0
ARC
  8
0
 62
4
 10
3.09875822E+02
 20
1.65809359E+02
 40
1.18100000E+01
 50
1.39672490E+02
 51
1.65327510E+02
  0
LINE
  8
0
 62
4
 10
3.03099518E+02
 20
1.73169978E+02
 11
3.02097196E+02
 21
1.73691754E+02
  0
ARC
  8
0
 62
4
 10
3.01634735E+02
 20
1.72805114E+02
 40
1.00000000E+00
 50
6.24999999E+01
 51
1.39672490E+02
  0
LINE
  8
0
 62
4
 10
3.04171228E+02
 20
1.73063034E+02
 11
3.03284217E+02
 21
1.73524783E+02
  0
LINE
  8
0
 62
4
 10
2.20463147E+02
 20
1.68927931E+02
 11
2.18200363E+02
 21
1.67750000E+02
  0
LINE
  8
0
  6
CENTER
 62
6
 10
2.12838460E+02
 20
1.59885551E+02
 11
2.32729731E+02
 21
1.70240291E+02
  0
ARC
  8
0
 62
4
 10
2.25377872E+02
 20
1.62476043E+02
 40
1.18100000E+01
 50
2.75000000E+01
 51
4.80326990E+01
  0
LINE
  8
0
 62
4
 10
2.21076339E+02
 20
1.67750000E+02
 11
2.20463147E+02
 21
1.68927931E+02
  0
LINE
  8
0
 62
4
 10
2.32688373E+02
 20
1.67750000E+02
 11
2.29599359E+02
 21
1.73683942E+02
  0
LINE
  8
0
 62
4
 10
2.33116779E+02
 20
1.67750000E+02
 11
2.31714155E+02
 21
1.70444414E+02
  0
LINE
  8
0
 62
4
 10
2.29922583E+02
 20
1.73063034E+02
 11
2.30809594E+02
 21
1.73524783E+02
  0
ARC
  8
0
 62
4
 10
2.34675469E+02
 20
1.68547462E+02
 40
1.00000000E+00
 50
3.46223662E+02
 51
1.46724899E+01
  0
ARC
  8
0
 62
4
 10
2.32459076E+02
 20
1.72805114E+02
 40
1.00000000E+00
 50
4.03275100E+01
 51
1.17500000E+02
  0
ARC
  8
0
 62
4
 10
2.24217989E+02
 20
1.65809359E+02
 40
1.18100000E+01
 50
1.46724899E+01
 51
4.03275100E+01
  0
LINE
  8
0
 62
4
 10
2.30994293E+02
 20
1.73169978E+02
 11
2.31996615E+02
 21
1.73691754E+02
  0
LINE
  8
0
 62
4
 10
2.32264102E+02
 20
1.70730698E+02
 11
2.30809594E+02
 21
1.73524783E+02
  0
LINE
  8
0
 62
4
 10
2.31446353E+02
 20
1.70135898E+02
 11
2.31783417E+02
 21
1.70311363E+02
  0
LINE
  8
0
 62
4
 10
2.31714155E+02
 20
1.70444414E+02
 11
2.33275294E+02
 21
1.71257092E+02
  0
LINE
  8
0
 62
4
 10
2.29599359E+02
 20
1.73683942E+02
 11
2.20463147E+02
 21
1.68927931E+02
  0
ARC
  8
0
 62
4
 10
2.25385018E+02
 20
1.62462315E+02
 40
1.18100000E+01
 50
2.65981016E+01
 51
2.75000000E+01
  0
ARC
  8
0
 62
4
 10
3.08708793E+02
 20
1.62462315E+02
 40
1.18100000E+01
 50
1.52500000E+02
 51
1.53401899E+02
  0
ARC
  8
0
 62
4
 10
3.08715939E+02
 20
1.62476043E+02
 40
1.18100000E+01
 50
1.50400933E+02
 51
1.52500000E+02
  0
LINE
  8
0
  6
PHANTOM
 10
-2.95000000E+01
 20
1.91251967E+02
 11
-2.95000000E+01
 21
3.61932384E+02
  0
CIRCLE
  8
0
 62
7
 10
3.39999695E+01
 20
2.59749969E+02
 40
2.59999990E+00
  0
CIRCLE
  8
0
 62
7
 10
-9.69999695E+01
 20
2.59749969E+02
 40
2.59999990E+00
  0
ARC
  8
0
 62
7
 10
-1.46000000E+02
 20
2.53250000E+02
 40
1.00000000E+00
 50
1.79999977E+02
 51
2.70000028E+02
  0
ARC
  8
0
 62
7
 10
-1.46000000E+02
 20
3.06250000E+02
 40
1.00000000E+00
 50
8.99999818E+01
 51
1.79999964E+02
  0
ARC
  8
0
 62
7
 10
6.19999695E+01
 20
2.13361298E+02
 40
1.00000000E+00
 50
2.71000211E+02
 51
0.00000000E+00
  0
ARC
  8
0
 62
7
 10
6.19999695E+01
 20
3.46139252E+02
 40
1.00000000E+00
 50
0.00000000E+00
 51
8.89997895E+01
  0
ARC
  8
0
 62
7
 10
-1.24999969E+02
 20
3.46139252E+02
 40
1.00000000E+00
 50
9.10002292E+01
 51
1.79999964E+02
  0
ARC
  8
0
 62
7
 10
-1.24999969E+02
 20
2.13361267E+02
 40
1.00000000E+00
 50
1.79999977E+02
 51
2.68999761E+02
  0
ARC
  8
0
 62
7
 10
-1.27499969E+02
 20
3.09250000E+02
 40
5.00000000E-01
 50
8.99999818E+01
 51
1.79999964E+02
  0
ARC
  8
0
 62
7
 10
-1.41500000E+02
 20
3.07267090E+02
 40
5.00000000E-01
 50
9.20007356E+01
 51
1.79999964E+02
  0
ARC
  8
0
 62
7
 10
-1.27499969E+02
 20
2.50250000E+02
 40
5.00000000E-01
 50
1.79999977E+02
 51
2.69999974E+02
  0
ARC
  8
0
 62
7
 10
-1.41500000E+02
 20
2.52232910E+02
 40
5.00000000E-01
 50
1.79999977E+02
 51
2.67999192E+02
  0
ARC
  8
0
 62
7
 10
3.39999695E+01
 20
2.59749969E+02
 40
5.00000048E+00
 50
1.80000036E+02
 51
5.46415133E-05
  0
ARC
  8
0
 62
7
 10
3.39999695E+01
 20
2.59749969E+02
 40
5.00000048E+00
 50
5.46415133E-05
 51
1.80000019E+02
  0
CIRCLE
  8
0
 62
7
 10
4.29999695E+01
 20
2.93750061E+02
 40
9.25000000E+00
  0
ARC
  8
0
 62
7
 10
6.44999695E+01
 20
3.09250000E+02
 40
5.00000000E-01
 50
5.46415133E-05
 51
9.00000369E+01
  0
ARC
  8
0
 62
7
 10
6.44999695E+01
 20
2.50250000E+02
 40
5.00000000E-01
 50
2.70000073E+02
 51
5.46415133E-05
  0
CIRCLE
  8
0
 62
7
 10
4.29999695E+01
 20
2.93750000E+02
 40
1.10000000E+01
  0
ARC
  8
0
 62
7
 10
5.69999695E+01
 20
3.22750000E+02
 40
2.00000000E+00
 50
5.46415133E-05
 51
9.00000369E+01
  0
ARC
  8
0
 62
7
 10
5.69999695E+01
 20
2.36750000E+02
 40
2.00000000E+00
 50
2.70000018E+02
 51
5.46415133E-05
  0
CIRCLE
  8
0
 62
2
 10
4.29999695E+01
 20
2.93750000E+02
 40
1.04775009E+01
  0
ARC
  8
0
 62
7
 10
-1.19999969E+02
 20
2.36750000E+02
 40
2.00000000E+00
 50
1.79999977E+02
 51
2.70000028E+02
  0
ARC
  8
0
 62
7
 10
-1.19999969E+02
 20
3.22750000E+02
 40
2.00000000E+00
 50
8.99999818E+01
 51
1.79999964E+02
  0
CIRCLE
  8
0
 62
2
 10
-1.05999969E+02
 20
2.93750000E+02
 40
1.04775009E+01
  0
CIRCLE
  8
0
 62
7
 10
-1.05999969E+02
 20
2.93750000E+02
 40
1.10000000E+01
  0
CIRCLE
  8
0
 62
7
 10
-1.05999969E+02
 20
2.93750061E+02
 40
9.25000000E+00
  0
ARC
  8
0
 62
7
 10
-9.69999695E+01
 20
2.59749969E+02
 40
5.00000048E+00
 50
1.79999977E+02
 51
1.00179127E-05
  0
ARC
  8
0
 62
7
 10
-9.69999695E+01
 20
2.59749969E+02
 40
5.00000048E+00
 50
0.00000000E+00
 51
1.79999964E+02
  0
LINE
  8
0
 62
7
 10
-1.64999969E+02
 20
2.67332489E+02
 11
-1.60999969E+02
 21
2.67332489E+02
  0
LINE
  8
0
 62
7
 10
-1.64999969E+02
 20
2.92167511E+02
 11
-1.60999969E+02
 21
2.92167511E+02
  0
LINE
  8
0
 62
2
 10
-2.14582458E+02
 20
2.67332489E+02
 11
-1.97918554E+02
 21
2.67332489E+02
  0
LINE
  8
0
 62
7
 10
-2.13499969E+02
 20
2.66250000E+02
 11
-1.97999969E+02
 21
2.66250000E+02
  0
LINE
  8
0
 62
7
 10
-2.15000045E+02
 20
2.67749982E+02
 11
-2.13500033E+02
 21
2.66249970E+02
  0
LINE
  8
0
 62
7
 10
-2.13499969E+02
 20
2.66250000E+02
 11
-2.13499969E+02
 21
2.93250000E+02
  0
LINE
  8
0
 62
7
 10
-2.14999960E+02
 20
2.91750006E+02
 11
-2.13499958E+02
 21
2.93250008E+02
  0
LINE
  8
0
 62
2
 10
-2.14582458E+02
 20
2.92167511E+02
 11
-1.97918554E+02
 21
2.92167511E+02
  0
LINE
  8
0
 62
7
 10
-2.13499969E+02
 20
2.93250000E+02
 11
-1.97999969E+02
 21
2.93250000E+02
  0
LINE
  8
0
 62
7
 10
-2.14999969E+02
 20
2.67749908E+02
 11
-2.14999969E+02
 21
2.91750000E+02
  0
LINE
  8
0
 62
7
 10
-1.64999969E+02
 20
2.66250000E+02
 11
-1.64999969E+02
 21
2.93250000E+02
  0
LINE
  8
0
 62
7
 10
-1.27499969E+02
 20
3.09750000E+02
 11
-1.25999969E+02
 21
3.09750000E+02
  0
LINE
  8
0
 62
7
 10
-1.41517426E+02
 20
3.07766867E+02
 11
-1.27999970E+02
 21
3.08238907E+02
  0
LINE
  8
0
 62
7
 10
-1.46000000E+02
 20
3.07250000E+02
 11
-1.42000000E+02
 21
3.07250000E+02
  0
LINE
  8
0
 62
7
 10
-1.27499969E+02
 20
2.49750000E+02
 11
-1.25999969E+02
 21
2.49750000E+02
  0
LINE
  8
0
 62
7
 10
-1.41517407E+02
 20
2.51733194E+02
 11
-1.27999951E+02
 21
2.51261154E+02
  0
LINE
  8
0
 62
7
 10
-1.46000000E+02
 20
2.52250000E+02
 11
-1.42000000E+02
 21
2.52250000E+02
  0
LINE
  8
0
 62
7
 10
6.44999695E+01
 20
3.09750000E+02
 11
6.29999695E+01
 21
3.09750000E+02
  0
LINE
  8
0
 62
7
 10
6.49999695E+01
 20
2.50250000E+02
 11
6.49999695E+01
 21
3.09250000E+02
  0
LINE
  8
0
 62
7
 10
6.44999695E+01
 20
2.49750000E+02
 11
6.29999695E+01
 21
2.49750000E+02
  0
LINE
  8
0
 62
7
 10
5.69999695E+01
 20
3.24750000E+02
 11
2.70000000E+01
 21
3.24750000E+02
  0
LINE
  8
0
 62
7
 10
5.69999695E+01
 20
2.34750000E+02
 11
2.70000000E+01
 21
2.34750000E+02
  0
LINE
  8
0
  6
CENTER
 62
2
 10
4.29999695E+01
 20
2.79644165E+02
 11
4.29999695E+01
 21
3.07573273E+02
  0
LINE
  8
0
 62
7
 10
2.70000000E+01
 20
3.47750336E+02
 11
2.70000000E+01
 21
2.11750214E+02
  0
LINE
  8
0
 62
7
 10
6.20174373E+01
 20
2.12361466E+02
 11
2.69999433E+01
 21
2.11750234E+02
  0
LINE
  8
0
 62
7
 10
6.20174442E+01
 20
3.47139169E+02
 11
2.69999521E+01
 21
3.47750402E+02
  0
LINE
  8
0
 62
7
 10
6.29999695E+01
 20
2.13361298E+02
 11
6.29999695E+01
 21
3.46139252E+02
  0
LINE
  8
0
  6
CENTER
 62
2
 10
2.92976379E+01
 20
2.93749969E+02
 11
5.70949097E+01
 21
2.93749969E+02
  0
LINE
  8
0
 62
7
 10
5.89999695E+01
 20
3.22750000E+02
 11
5.89999695E+01
 21
2.36750000E+02
  0
LINE
  8
0
 62
7
 10
3.22677757E+01
 20
2.59749801E+02
 11
3.31338149E+01
 21
2.58249768E+02
  0
LINE
  8
0
 62
7
 10
3.31339722E+01
 20
2.58249969E+02
 11
3.48660278E+01
 21
2.58249969E+02
  0
LINE
  8
0
 62
7
 10
3.48659091E+01
 20
2.58249946E+02
 11
3.57319788E+01
 21
2.59750031E+02
  0
LINE
  8
0
 62
7
 10
3.57316927E+01
 20
2.59749715E+02
 11
3.48656840E+01
 21
2.61249695E+02
  0
LINE
  8
0
 62
7
 10
3.31339722E+01
 20
2.61249969E+02
 11
3.48660278E+01
 21
2.61249969E+02
  0
LINE
  8
0
 62
7
 10
3.22678249E+01
 20
2.59749871E+02
 11
3.31338488E+01
 21
2.61249877E+02
  0
LINE
  8
0
  6
CENTER
 62
2
 10
4.21945496E+01
 20
2.59749969E+02
 11
2.59255676E+01
 21
2.59749969E+02
  0
LINE
  8
0
  6
CENTER
 62
2
 10
3.39999695E+01
 20
2.67297729E+02
 11
3.39999695E+01
 21
2.52684357E+02
  0
LINE
  8
0
 62
7
 10
2.70000000E+01
 20
3.26250031E+02
 11
-4.40000000E+01
 21
3.26250031E+02
  0
LINE
  8
0
 62
7
 10
2.70000000E+01
 20
3.37250031E+02
 11
-4.40000000E+01
 21
3.37250031E+02
  0
LINE
  8
0
 62
7
 10
2.70000000E+01
 20
2.22249969E+02
 11
2.93439939E-10
 21
2.22249969E+02
  0
LINE
  8
0
 62
7
 10
2.70000000E+01
 20
2.33249969E+02
 11
1.50000000E+01
 21
2.33249969E+02
  0
LINE
  8
0
 62
7
 10
-1.50999973E+02
 20
2.63750004E+02
 11
-1.49499961E+02
 21
2.62249992E+02
  0
LINE
  8
0
 62
7
 10
-1.51000017E+02
 20
2.95750074E+02
 11
-1.49499988E+02
 21
2.97250103E+02
  0
LINE
  8
0
 62
7
 10
-1.60999969E+02
 20
2.63750000E+02
 11
-1.50999969E+02
 21
2.63750000E+02
  0
LINE
  8
0
 62
7
 10
-1.60999969E+02
 20
2.95750000E+02
 11
-1.50999969E+02
 21
2.95750000E+02
  0
LINE
  8
0
 62
7
 10
-1.47000000E+02
 20
3.06250000E+02
 11
-1.47000000E+02
 21
2.53250000E+02
  0
LINE
  8
0
 62
7
 10
-1.27999969E+02
 20
2.50250000E+02
 11
-1.27999969E+02
 21
3.09250000E+02
  0
LINE
  8
0
 62
7
 10
-1.42000000E+02
 20
3.07267090E+02
 11
-1.42000000E+02
 21
2.52250000E+02
  0
LINE
  8
0
 62
7
 10
-1.19999969E+02
 20
3.24750000E+02
 11
-9.00000000E+01
 21
3.24750000E+02
  0
LINE
  8
0
 62
7
 10
-1.19999969E+02
 20
2.34750000E+02
 11
-9.00000000E+01
 21
2.34750000E+02
  0
LINE
  8
0
 62
7
 10
-9.00000000E+01
 20
3.46250000E+02
 11
-5.75000000E+01
 21
3.46250000E+02
  0
LINE
  8
0
 62
7
 10
-9.00000000E+01
 20
2.13250000E+02
 11
-1.35000000E+01
 21
2.13250000E+02
  0
LINE
  8
0
  6
CENTER
 62
2
 10
6.57791901E+01
 20
3.31750031E+02
 11
-1.32941803E+02
 21
3.31750031E+02
  0
LINE
  8
0
 62
7
 10
-1.49499939E+02
 20
2.62249969E+02
 11
-1.47000000E+02
 21
2.62249969E+02
  0
LINE
  8
0
 62
7
 10
-1.49499939E+02
 20
2.97250031E+02
 11
-1.47000000E+02
 21
2.97250031E+02
  0
LINE
  8
0
 62
7
 10
-1.56999969E+02
 20
2.95750000E+02
 11
-1.56999969E+02
 21
2.63750000E+02
  0
LINE
  8
0
  6
CENTER
 62
2
 10
-1.05999969E+02
 20
2.79644165E+02
 11
-1.05999969E+02
 21
3.07573273E+02
  0
LINE
  8
0
 62
7
 10
-9.00000000E+01
 20
3.47750336E+02
 11
-9.00000000E+01
 21
2.11750214E+02
  0
LINE
  8
0
 62
7
 10
-1.25017428E+02
 20
2.12361470E+02
 11
-8.99999341E+01
 21
2.11750238E+02
  0
LINE
  8
0
 62
7
 10
-1.25017417E+02
 20
3.47139150E+02
 11
-8.99998931E+01
 21
3.47750383E+02
  0
LINE
  8
0
 62
7
 10
-1.25999969E+02
 20
2.13361267E+02
 11
-1.25999969E+02
 21
3.46139252E+02
  0
LINE
  8
0
  6
CENTER
 62
2
 10
-9.22976379E+01
 20
2.93749969E+02
 11
-1.20094910E+02
 21
2.93749969E+02
  0
LINE
  8
0
 62
7
 10
-1.21999969E+02
 20
3.22750000E+02
 11
-1.21999969E+02
 21
2.36750000E+02
  0
LINE
  8
0
  6
CENTER
 62
2
 10
6.57791901E+01
 20
2.27749969E+02
 11
-1.32941803E+02
 21
2.27749969E+02
  0
LINE
  8
0
 62
7
 10
-9.52677002E+01
 20
2.59749817E+02
 11
-9.61337470E+01
 21
2.58249771E+02
  0
LINE
  8
0
 62
7
 10
-9.61339722E+01
 20
2.58249969E+02
 11
-9.78660278E+01
 21
2.58249969E+02
  0
LINE
  8
0
 62
7
 10
-9.78658606E+01
 20
2.58249897E+02
 11
-9.87319455E+01
 21
2.59750009E+02
  0
LINE
  8
0
 62
7
 10
-9.87316720E+01
 20
2.59749727E+02
 11
-9.78656634E+01
 21
2.61249707E+02
  0
LINE
  8
0
 62
7
 10
-9.61339722E+01
 20
2.61249969E+02
 11
-9.78660278E+01
 21
2.61249969E+02
  0
LINE
  8
0
 62
7
 10
-9.52677739E+01
 20
2.59749894E+02
 11
-9.61337978E+01
 21
2.61249900E+02
  0
LINE
  8
0
  6
CENTER
 62
2
 10
-1.05194550E+02
 20
2.59749969E+02
 11
-8.89255676E+01
 21
2.59749969E+02
  0
LINE
  8
0
  6
CENTER
 62
2
 10
-9.69999695E+01
 20
2.67297729E+02
 11
-9.69999695E+01
 21
2.52684357E+02
  0
LINE
  8
0
 62
7
 10
-1.60999969E+02
 20
2.79750000E+02
 11
-1.60999969E+02
 21
2.63750000E+02
  0
LINE
  8
0
 62
7
 10
-1.60999969E+02
 20
2.79750000E+02
 11
-1.60999969E+02
 21
2.95750000E+02
  0
LINE
  8
0
  6
CENTER
 62
2
 10
-2.28477448E+02
 20
2.79750000E+02
 11
6.99261932E+01
 21
2.79750000E+02
  0
LINE
  8
0
 62
2
 10
-1.81999969E+02
 20
2.92167511E+02
 11
-1.64999969E+02
 21
2.92167511E+02
  0
LINE
  8
0
 62
7
 10
-1.81999969E+02
 20
2.93250000E+02
 11
-1.64999969E+02
 21
2.93250000E+02
  0
LINE
  8
0
 62
2
 10
-1.81999969E+02
 20
2.67332489E+02
 11
-1.64999969E+02
 21
2.67332489E+02
  0
LINE
  8
0
 62
7
 10
-1.81999969E+02
 20
2.66250000E+02
 11
-1.64999969E+02
 21
2.66250000E+02
  0
ARC
  8
0
 62
4
 10
-2.07995160E+02
 20
2.70750000E+02
 40
2.59951902E+01
 50
3.39743842E+02
 51
2.02561583E+01
  0
ARC
  8
0
 62
4
 10
-2.07995160E+02
 20
2.88750000E+02
 40
2.59951902E+01
 50
3.39743842E+02
 51
2.02561583E+01
  0
ARC
  8
0
 62
4
 10
-1.72004780E+02
 20
2.70750000E+02
 40
2.59951898E+01
 50
1.59743841E+02
 51
2.00256159E+02
  0
ARC
  8
0
 62
4
 10
-1.72004780E+02
 20
2.88750000E+02
 40
2.59951898E+01
 50
1.59743841E+02
 51
2.00256159E+02
  0
LINE
  8
0
 62
4
 10
-1.96392274E+02
 20
2.79750000E+02
 11
-1.83607665E+02
 21
2.79750000E+02
  0
LINE
  8
0
 62
4
 10
-1.97999970E+02
 20
2.97750000E+02
 11
-1.81999970E+02
 21
2.97750000E+02
  0
LINE
  8
0
 62
4
 10
-1.97999970E+02
 20
2.61750000E+02
 11
-1.81999970E+02
 21
2.61750000E+02
  0
LINE
  8
0
 62
4
 10
-1.81999969E+02
 20
2.61750000E+02
 11
-1.81999969E+02
 21
2.97750000E+02
  0
LINE
  8
0
 62
4
 10
-1.97999969E+02
 20
2.61750000E+02
 11
-1.97999969E+02
 21
2.97750000E+02
  0
LINE
  8
0
 62
4
 10
-5.75517546E+01
 20
3.09809660E+02
 11
-4.40000000E+01
 21
3.09809660E+02
  0
LINE
  8
0
 62
4
 10
-5.63255466E+01
 20
3.10140182E+02
 11
-5.05000000E+01
 21
3.10140182E+02
  0
LINE
  8
0
  6
CENTER
 62
6
 10
-5.30000000E+01
 20
3.15119769E+02
 11
-5.00000000E+01
 21
3.15119769E+02
  0
LINE
  8
0
  6
CENTER
 62
6
 10
-5.15000000E+01
 20
3.16619769E+02
 11
-5.15000000E+01
 21
3.13619769E+02
  0
LINE
  8
0
  6
CENTER
 62
6
 10
-6.05000000E+01
 20
3.13521703E+02
 11
-5.75000000E+01
 21
3.13521703E+02
  0
LINE
  8
0
  6
CENTER
 62
6
 10
-5.90000000E+01
 20
3.15021703E+02
 11
-5.90000000E+01
 21
3.12021703E+02
  0
LINE
  8
0
 62
4
 10
-5.48500000E+01
 20
3.12395453E+02
 11
-5.44420422E+01
 21
3.12395453E+02
  0
LINE
  8
0
 62
4
 10
-4.85579578E+01
 20
3.12395453E+02
 11
-4.40000000E+01
 21
3.12395453E+02
  0
LINE
  8
0
 62
4
 10
-5.48500000E+01
 20
3.11987176E+02
 11
-5.39970030E+01
 21
3.11987176E+02
  0
ARC
  8
0
 62
4
 10
-4.88324719E+01
 20
3.17310146E+02
 40
5.85028287E+00
 50
2.20700079E+02
 51
2.61152916E+02
  0
ARC
  8
0
 62
4
 10
-5.41675281E+01
 20
3.17310146E+02
 40
5.85028287E+00
 50
2.78847084E+02
 51
3.19299921E+02
  0
ARC
  8
0
 62
4
 10
-5.15000000E+01
 20
3.15155713E+02
 40
4.03418497E+00
 50
2.17357913E+02
 51
3.22642090E+02
  0
POLYLINE
  8
0
 62
4
 66
1
  0
VERTEX
  8
0
 62
4
 10
-4.82933854E+01
 20
3.12707801E+02
  0
VERTEX
  8
0
 62
4
 10
-4.82057600E+01
 20
3.12841202E+02
  0
VERTEX
  8
0
 62
4
 10
-4.81441075E+01
 20
3.12977665E+02
  0
VERTEX
  8
0
 62
4
 10
-4.81089140E+01
 20
3.13116116E+02
  0
VERTEX
  8
0
 62
4
 10
-4.81004569E+01
 20
3.13255463E+02
  0
VERTEX
  8
0
 62
4
 10
-4.81188030E+01
 20
3.13394607E+02
  0
VERTEX
  8
0
 62
4
 10
-4.81638075E+01
 20
3.13532450E+02
  0
VERTEX
  8
0
 62
4
 10
-4.82351156E+01
 20
3.13667907E+02
  0
VERTEX
  8
0
 62
4
 10
-4.83321652E+01
 20
3.13799909E+02
  0
VERTEX
  8
0
 62
4
 10
-4.84541911E+01
 20
3.13927416E+02
  0
VERTEX
  8
0
 62
4
 10
-4.86002311E+01
 20
3.14049422E+02
  0
VERTEX
  8
0
 62
4
 10
-4.87691338E+01
 20
3.14164965E+02
  0
VERTEX
  8
0
 62
4
 10
-4.89595676E+01
 20
3.14273134E+02
  0
VERTEX
  8
0
 62
4
 10
-4.91700310E+01
 20
3.14373077E+02
  0
VERTEX
  8
0
 62
4
 10
-4.93988646E+01
 20
3.14464005E+02
  0
VERTEX
  8
0
 62
4
 10
-4.96442643E+01
 20
3.14545202E+02
  0
VERTEX
  8
0
 62
4
 10
-4.99042952E+01
 20
3.14616027E+02
  0
VERTEX
  8
0
 62
4
 10
-5.01769072E+01
 20
3.14675922E+02
  0
VERTEX
  8
0
 62
4
 10
-5.04599508E+01
 20
3.14724414E+02
  0
VERTEX
  8
0
 62
4
 10
-5.07511946E+01
 20
3.14761122E+02
  0
VERTEX
  8
0
 62
4
 10
-5.10483422E+01
 20
3.14785757E+02
  0
VERTEX
  8
0
 62
4
 10
-5.13490508E+01
 20
3.14798122E+02
  0
VERTEX
  8
0
 62
4
 10
-5.16509496E+01
 20
3.14798122E+02
  0
VERTEX
  8
0
 62
4
 10
-5.19516582E+01
 20
3.14785756E+02
  0
VERTEX
  8
0
 62
4
 10
-5.22488058E+01
 20
3.14761122E+02
  0
VERTEX
  8
0
 62
4
 10
-5.25400495E+01
 20
3.14724414E+02
  0
VERTEX
  8
0
 62
4
 10
-5.28230932E+01
 20
3.14675922E+02
  0
VERTEX
  8
0
 62
4
 10
-5.30957051E+01
 20
3.14616027E+02
  0
VERTEX
  8
0
 62
4
 10
-5.33557360E+01
 20
3.14545202E+02
  0
VERTEX
  8
0
 62
4
 10
-5.36011357E+01
 20
3.14464005E+02
  0
VERTEX
  8
0
 62
4
 10
-5.38299693E+01
 20
3.14373077E+02
  0
VERTEX
  8
0
 62
4
 10
-5.40404327E+01
 20
3.14273134E+02
  0
VERTEX
  8
0
 62
4
 10
-5.42308664E+01
 20
3.14164965E+02
  0
VERTEX
  8
0
 62
4
 10
-5.43997691E+01
 20
3.14049422E+02
  0
VERTEX
  8
0
 62
4
 10
-5.45458091E+01
 20
3.13927416E+02
  0
VERTEX
  8
0
 62
4
 10
-5.46678349E+01
 20
3.13799909E+02
  0
VERTEX
  8
0
 62
4
 10
-5.47648845E+01
 20
3.13667907E+02
  0
VERTEX
  8
0
 62
4
 10
-5.48361926E+01
 20
3.13532450E+02
  0
VERTEX
  8
0
 62
4
 10
-5.48811971E+01
 20
3.13394606E+02
  0
VERTEX
  8
0
 62
4
 10
-5.48995431E+01
 20
3.13255463E+02
  0
VERTEX
  8
0
 62
4
 10
-5.48910860E+01
 20
3.13116116E+02
  0
VERTEX
  8
0
 62
4
 10
-5.48558924E+01
 20
3.12977665E+02
  0
VERTEX
  8
0
 62
4
 10
-5.47942399E+01
 20
3.12841202E+02
  0
VERTEX
  8
0
 62
4
 10
-5.47066145E+01
 20
3.12707801E+02
  0
SEQEND
  8
0
  0
POLYLINE
  8
0
 62
4
 66
1
  0
VERTEX
  8
0
 62
4
 10
-4.81000000E+01
 20
3.14232759E+02
  0
VERTEX
  8
0
 62
4
 10
-4.81136874E+01
 20
3.14373488E+02
  0
VERTEX
  8
0
 62
4
 10
-4.81546394E+01
 20
3.14513084E+02
  0
VERTEX
  8
0
 62
4
 10
-4.82225263E+01
 20
3.14650422E+02
  0
VERTEX
  8
0
 62
4
 10
-4.83168014E+01
 20
3.14784398E+02
  0
VERTEX
  8
0
 62
4
 10
-4.84367058E+01
 20
3.14913933E+02
  0
VERTEX
  8
0
 62
4
 10
-4.85812741E+01
 20
3.15037983E+02
  0
VERTEX
  8
0
 62
4
 10
-4.87493422E+01
 20
3.15155550E+02
  0
VERTEX
  8
0
 62
4
 10
-4.89395570E+01
 20
3.15265687E+02
  0
VERTEX
  8
0
 62
4
 10
-4.91503870E+01
 20
3.15367507E+02
  0
VERTEX
  8
0
 62
4
 10
-4.93801347E+01
 20
3.15460192E+02
  0
VERTEX
  8
0
 62
4
 10
-4.96269502E+01
 20
3.15542993E+02
  0
VERTEX
  8
0
 62
4
 10
-4.98888465E+01
 20
3.15615246E+02
  0
VERTEX
  8
0
 62
4
 10
-5.01637149E+01
 20
3.15676367E+02
  0
VERTEX
  8
0
 62
4
 10
-5.04493422E+01
 20
3.15725866E+02
  0
VERTEX
  8
0
 62
4
 10
-5.07434288E+01
 20
3.15763342E+02
  0
VERTEX
  8
0
 62
4
 10
-5.10436069E+01
 20
3.15788496E+02
  0
VERTEX
  8
0
 62
4
 10
-5.13474596E+01
 20
3.15801123E+02
  0
VERTEX
  8
0
 62
4
 10
-5.16525404E+01
 20
3.15801123E+02
  0
VERTEX
  8
0
 62
4
 10
-5.19563931E+01
 20
3.15788496E+02
  0
VERTEX
  8
0
 62
4
 10
-5.22565712E+01
 20
3.15763342E+02
  0
VERTEX
  8
0
 62
4
 10
-5.25506578E+01
 20
3.15725866E+02
  0
VERTEX
  8
0
 62
4
 10
-5.28362851E+01
 20
3.15676367E+02
  0
VERTEX
  8
0
 62
4
 10
-5.31111534E+01
 20
3.15615246E+02
  0
VERTEX
  8
0
 62
4
 10
-5.33730497E+01
 20
3.15542993E+02
  0
VERTEX
  8
0
 62
4
 10
-5.36198653E+01
 20
3.15460192E+02
  0
VERTEX
  8
0
 62
4
 10
-5.38496130E+01
 20
3.15367507E+02
  0
VERTEX
  8
0
 62
4
 10
-5.40604430E+01
 20
3.15265687E+02
  0
VERTEX
  8
0
 62
4
 10
-5.42506578E+01
 20
3.15155550E+02
  0
VERTEX
  8
0
 62
4
 10
-5.44187259E+01
 20
3.15037983E+02
  0
VERTEX
  8
0
 62
4
 10
-5.45632941E+01
 20
3.14913933E+02
  0
VERTEX
  8
0
 62
4
 10
-5.46831986E+01
 20
3.14784398E+02
  0
VERTEX
  8
0
 62
4
 10
-5.47774737E+01
 20
3.14650422E+02
  0
VERTEX
  8
0
 62
4
 10
-5.48453606E+01
 20
3.14513084E+02
  0
VERTEX
  8
0
 62
4
 10
-5.48863126E+01
 20
3.14373488E+02
  0
VERTEX
  8
0
 62
4
 10
-5.49000000E+01
 20
3.14232759E+02
  0
SEQEND
  8
0
  0
LINE
  8
0
 62
4
 10
-4.81000000E+01
 20
3.13229725E+02
 11
-4.81000000E+01
 21
3.14232759E+02
  0
LINE
  8
0
 62
4
 10
-5.49000000E+01
 20
3.13229725E+02
 11
-5.49000000E+01
 21
3.14232759E+02
  0
POLYLINE
  8
0
 62
4
 66
1
  0
VERTEX
  8
0
 62
4
 10
-4.81000000E+01
 20
3.13449146E+02
  0
VERTEX
  8
0
 62
4
 10
-4.79634183E+01
 20
3.13590847E+02
  0
VERTEX
  8
0
 62
4
 10
-4.78544705E+01
 20
3.13737564E+02
  0
VERTEX
  8
0
 62
4
 10
-4.77740077E+01
 20
3.13888151E+02
  0
VERTEX
  8
0
 62
4
 10
-4.77226587E+01
 20
3.14041430E+02
  0
VERTEX
  8
0
 62
4
 10
-4.77008247E+01
 20
3.14196204E+02
  0
VERTEX
  8
0
 62
4
 10
-4.77086764E+01
 20
3.14351263E+02
  0
VERTEX
  8
0
 62
4
 10
-4.77461524E+01
 20
3.14505397E+02
  0
VERTEX
  8
0
 62
4
 10
-4.78129598E+01
 20
3.14657401E+02
  0
VERTEX
  8
0
 62
4
 10
-4.79085766E+01
 20
3.14806086E+02
  0
VERTEX
  8
0
 62
4
 10
-4.80322558E+01
 20
3.14950292E+02
  0
VERTEX
  8
0
 62
4
 10
-4.81830309E+01
 20
3.15088891E+02
  0
VERTEX
  8
0
 62
4
 10
-4.83597238E+01
 20
3.15220800E+02
  0
VERTEX
  8
0
 62
4
 10
-4.85609538E+01
 20
3.15344989E+02
  0
VERTEX
  8
0
 62
4
 10
-4.87851488E+01
 20
3.15460488E+02
  0
VERTEX
  8
0
 62
4
 10
-4.90305567E+01
 20
3.15566393E+02
  0
VERTEX
  8
0
 62
4
 10
-4.92952602E+01
 20
3.15661878E+02
  0
VERTEX
  8
0
 62
4
 10
-4.95771908E+01
 20
3.15746196E+02
  0
VERTEX
  8
0
 62
4
 10
-4.98741457E+01
 20
3.15818689E+02
  0
VERTEX
  8
0
 62
4
 10
-5.01838046E+01
 20
3.15878789E+02
  0
VERTEX
  8
0
 62
4
 10
-5.05037478E+01
 20
3.15926028E+02
  0
VERTEX
  8
0
 62
4
 10
-5.08314754E+01
 20
3.15960037E+02
  0
VERTEX
  8
0
 62
4
 10
-5.11644267E+01
 20
3.15980549E+02
  0
VERTEX
  8
0
 62
4
 10
-5.15000000E+01
 20
3.15987404E+02
  0
VERTEX
  8
0
 62
4
 10
-5.18355734E+01
 20
3.15980549E+02
  0
VERTEX
  8
0
 62
4
 10
-5.21685246E+01
 20
3.15960037E+02
  0
VERTEX
  8
0
 62
4
 10
-5.24962523E+01
 20
3.15926028E+02
  0
VERTEX
  8
0
 62
4
 10
-5.28161955E+01
 20
3.15878789E+02
  0
VERTEX
  8
0
 62
4
 10
-5.31258543E+01
 20
3.15818689E+02
  0
VERTEX
  8
0
 62
4
 10
-5.34228092E+01
 20
3.15746196E+02
  0
VERTEX
  8
0
 62
4
 10
-5.37047398E+01
 20
3.15661878E+02
  0
VERTEX
  8
0
 62
4
 10
-5.39694433E+01
 20
3.15566393E+02
  0
VERTEX
  8
0
 62
4
 10
-5.42148513E+01
 20
3.15460488E+02
  0
VERTEX
  8
0
 62
4
 10
-5.44390462E+01
 20
3.15344989E+02
  0
VERTEX
  8
0
 62
4
 10
-5.46402763E+01
 20
3.15220800E+02
  0
VERTEX
  8
0
 62
4
 10
-5.48169692E+01
 20
3.15088891E+02
  0
VERTEX
  8
0
 62
4
 10
-5.49677442E+01
 20
3.14950292E+02
  0
VERTEX
  8
0
 62
4
 10
-5.50914234E+01
 20
3.14806086E+02
  0
VERTEX
  8
0
 62
4
 10
-5.51870402E+01
 20
3.14657401E+02
  0
VERTEX
  8
0
 62
4
 10
-5.52538476E+01
 20
3.14505397E+02
  0
VERTEX
  8
0
 62
4
 10
-5.52913236E+01
 20
3.14351263E+02
  0
VERTEX
  8
0
 62
4
 10
-5.52991753E+01
 20
3.14196204E+02
  0
VERTEX
  8
0
 62
4
 10
-5.52773413E+01
 20
3.14041430E+02
  0
VERTEX
  8
0
 62
4
 10
-5.52259923E+01
 20
3.13888151E+02
  0
VERTEX
  8
0
 62
4
 10
-5.51455295E+01
 20
3.13737564E+02
  0
VERTEX
  8
0
 62
4
 10
-5.50365817E+01
 20
3.13590847E+02
  0
VERTEX
  8
0
 62
4
 10
-5.49000000E+01
 20
3.13449146E+02
  0
SEQEND
  8
0
  0
POLYLINE
  8
0
 62
4
 66
1
  0
VERTEX
  8
0
 62
4
 10
-4.77000000E+01
 20
3.15119769E+02
  0
VERTEX
  8
0
 62
4
 10
-4.77152977E+01
 20
3.15277054E+02
  0
VERTEX
  8
0
 62
4
 10
-4.77610676E+01
 20
3.15433073E+02
  0
VERTEX
  8
0
 62
4
 10
-4.78369411E+01
 20
3.15586569E+02
  0
VERTEX
  8
0
 62
4
 10
-4.79423075E+01
 20
3.15736307E+02
  0
VERTEX
  8
0
 62
4
 10
-4.80763183E+01
 20
3.15881081E+02
  0
VERTEX
  8
0
 62
4
 10
-4.82378946E+01
 20
3.16019725E+02
  0
VERTEX
  8
0
 62
4
 10
-4.84257354E+01
 20
3.16151123E+02
  0
VERTEX
  8
0
 62
4
 10
-4.86383284E+01
 20
3.16274218E+02
  0
VERTEX
  8
0
 62
4
 10
-4.88739619E+01
 20
3.16388017E+02
  0
VERTEX
  8
0
 62
4
 10
-4.91307387E+01
 20
3.16491605E+02
  0
VERTEX
  8
0
 62
4
 10
-4.94065915E+01
 20
3.16584149E+02
  0
VERTEX
  8
0
 62
4
 10
-4.96992991E+01
 20
3.16664901E+02
  0
VERTEX
  8
0
 62
4
 10
-5.00065049E+01
 20
3.16733214E+02
  0
VERTEX
  8
0
 62
4
 10
-5.03257354E+01
 20
3.16788535E+02
  0
VERTEX
  8
0
 62
4
 10
-5.06544204E+01
 20
3.16830421E+02
  0
VERTEX
  8
0
 62
4
 10
-5.09899136E+01
 20
3.16858534E+02
  0
VERTEX
  8
0
 62
4
 10
-5.13295136E+01
 20
3.16872647E+02
  0
VERTEX
  8
0
 62
4
 10
-5.16704863E+01
 20
3.16872647E+02
  0
VERTEX
  8
0
 62
4
 10
-5.20100864E+01
 20
3.16858534E+02
  0
VERTEX
  8
0
 62
4
 10
-5.23455795E+01
 20
3.16830421E+02
  0
VERTEX
  8
0
 62
4
 10
-5.26742646E+01
 20
3.16788535E+02
  0
VERTEX
  8
0
 62
4
 10
-5.29934951E+01
 20
3.16733214E+02
  0
VERTEX
  8
0
 62
4
 10
-5.33007009E+01
 20
3.16664901E+02
  0
VERTEX
  8
0
 62
4
 10
-5.35934085E+01
 20
3.16584149E+02
  0
VERTEX
  8
0
 62
4
 10
-5.38692612E+01
 20
3.16491606E+02
  0
VERTEX
  8
0
 62
4
 10
-5.41260380E+01
 20
3.16388017E+02
  0
VERTEX
  8
0
 62
4
 10
-5.43616716E+01
 20
3.16274218E+02
  0
VERTEX
  8
0
 62
4
 10
-5.45742646E+01
 20
3.16151123E+02
  0
VERTEX
  8
0
 62
4
 10
-5.47621054E+01
 20
3.16019725E+02
  0
VERTEX
  8
0
 62
4
 10
-5.49236817E+01
 20
3.15881081E+02
  0
VERTEX
  8
0
 62
4
 10
-5.50576925E+01
 20
3.15736307E+02
  0
VERTEX
  8
0
 62
4
 10
-5.51630589E+01
 20
3.15586569E+02
  0
VERTEX
  8
0
 62
4
 10
-5.52389324E+01
 20
3.15433073E+02
  0
VERTEX
  8
0
 62
4
 10
-5.52847023E+01
 20
3.15277054E+02
  0
VERTEX
  8
0
 62
4
 10
-5.53000000E+01
 20
3.15119769E+02
  0
SEQEND
  8
0
  0
LINE
  8
0
 62
4
 10
-4.77000000E+01
 20
3.14232759E+02
 11
-4.77000000E+01
 21
3.15119769E+02
  0
LINE
  8
0
 62
4
 10
-5.53000000E+01
 20
3.14232759E+02
 11
-5.53000000E+01
 21
3.15119769E+02
  0
ARC
  8
0
 62
4
 10
-6.27314809E+01
 20
3.19274803E+02
 40
9.13527383E+00
 50
2.82413151E+02
 51
3.07011803E+02
  0
ARC
  8
0
 62
4
 10
-5.52685190E+01
 20
3.19274803E+02
 40
9.13527424E+00
 50
2.32988198E+02
 51
2.57586848E+02
  0
POLYLINE
  8
0
 62
4
 66
1
  0
VERTEX
  8
0
 62
4
 10
-5.48500000E+01
 20
3.13166585E+02
  0
VERTEX
  8
0
 62
4
 10
-5.48667067E+01
 20
3.13338357E+02
  0
VERTEX
  8
0
 62
4
 10
-5.49166922E+01
 20
3.13508746E+02
  0
VERTEX
  8
0
 62
4
 10
-5.49995541E+01
 20
3.13676380E+02
  0
VERTEX
  8
0
 62
4
 10
-5.51146253E+01
 20
3.13839909E+02
  0
VERTEX
  8
0
 62
4
 10
-5.52609792E+01
 20
3.13998018E+02
  0
VERTEX
  8
0
 62
4
 10
-5.54374375E+01
 20
3.14149432E+02
  0
VERTEX
  8
0
 62
4
 10
-5.56425795E+01
 20
3.14292932E+02
  0
VERTEX
  8
0
 62
4
 10
-5.58747534E+01
 20
3.14427365E+02
  0
VERTEX
  8
0
 62
4
 10
-5.61320900E+01
 20
3.14551646E+02
  0
VERTEX
  8
0
 62
4
 10
-5.64125173E+01
 20
3.14664775E+02
  0
VERTEX
  8
0
 62
4
 10
-5.67137775E+01
 20
3.14765842E+02
  0
VERTEX
  8
0
 62
4
 10
-5.70334450E+01
 20
3.14854032E+02
  0
VERTEX
  8
0
 62
4
 10
-5.73689461E+01
 20
3.14928636E+02
  0
VERTEX
  8
0
 62
4
 10
-5.77175794E+01
 20
3.14989053E+02
  0
VERTEX
  8
0
 62
4
 10
-5.80765381E+01
 20
3.15034797E+02
  0
VERTEX
  8
0
 62
4
 10
-5.84429319E+01
 20
3.15065499E+02
  0
VERTEX
  8
0
 62
4
 10
-5.88138109E+01
 20
3.15080912E+02
  0
VERTEX
  8
0
 62
4
 10
-5.91861890E+01
 20
3.15080912E+02
  0
VERTEX
  8
0
 62
4
 10
-5.95570680E+01
 20
3.15065499E+02
  0
VERTEX
  8
0
 62
4
 10
-5.99234618E+01
 20
3.15034797E+02
  0
VERTEX
  8
0
 62
4
 10
-6.02824205E+01
 20
3.14989053E+02
  0
VERTEX
  8
0
 62
4
 10
-6.06310539E+01
 20
3.14928636E+02
  0
VERTEX
  8
0
 62
4
 10
-6.09665549E+01
 20
3.14854032E+02
  0
VERTEX
  8
0
 62
4
 10
-6.12862224E+01
 20
3.14765842E+02
  0
VERTEX
  8
0
 62
4
 10
-6.15874827E+01
 20
3.14664775E+02
  0
VERTEX
  8
0
 62
4
 10
-6.18679100E+01
 20
3.14551646E+02
  0
VERTEX
  8
0
 62
4
 10
-6.21252466E+01
 20
3.14427365E+02
  0
VERTEX
  8
0
 62
4
 10
-6.23574205E+01
 20
3.14292932E+02
  0
VERTEX
  8
0
 62
4
 10
-6.25625625E+01
 20
3.14149432E+02
  0
VERTEX
  8
0
 62
4
 10
-6.27390208E+01
 20
3.13998018E+02
  0
VERTEX
  8
0
 62
4
 10
-6.28853747E+01
 20
3.13839909E+02
  0
VERTEX
  8
0
 62
4
 10
-6.30004459E+01
 20
3.13676380E+02
  0
VERTEX
  8
0
 62
4
 10
-6.30833078E+01
 20
3.13508746E+02
  0
VERTEX
  8
0
 62
4
 10
-6.31332933E+01
 20
3.13338357E+02
  0
VERTEX
  8
0
 62
4
 10
-6.31500000E+01
 20
3.13166585E+02
  0
SEQEND
  8
0
  0
POLYLINE
  8
0
 62
4
 66
1
  0
VERTEX
  8
0
 62
4
 10
-6.31500000E+01
 20
3.11605446E+02
  0
VERTEX
  8
0
 62
4
 10
-6.31342080E+01
 20
3.11438433E+02
  0
VERTEX
  8
0
 62
4
 10
-6.30869522E+01
 20
3.11272692E+02
  0
VERTEX
  8
0
 62
4
 10
-6.30085922E+01
 20
3.11109482E+02
  0
VERTEX
  8
0
 62
4
 10
-6.28997244E+01
 20
3.10950048E+02
  0
VERTEX
  8
0
 62
4
 10
-6.27611773E+01
 20
3.10795601E+02
  0
VERTEX
  8
0
 62
4
 10
-6.25940054E+01
 20
3.10647318E+02
  0
VERTEX
  8
0
 62
4
 10
-6.23994810E+01
 20
3.10506326E+02
  0
VERTEX
  8
0
 62
4
 10
-6.21790844E+01
 20
3.10373700E+02
  0
VERTEX
  8
0
 62
4
 10
-6.19344931E+01
 20
3.10250448E+02
  0
VERTEX
  8
0
 62
4
 10
-6.16675686E+01
 20
3.10137508E+02
  0
VERTEX
  8
0
 62
4
 10
-6.13803422E+01
 20
3.10035740E+02
  0
VERTEX
  8
0
 62
4
 10
-6.10750000E+01
 20
3.09945919E+02
  0
VERTEX
  8
0
 62
4
 10
-6.07538658E+01
 20
3.09868728E+02
  0
VERTEX
  8
0
 62
4
 10
-6.04193836E+01
 20
3.09804754E+02
  0
VERTEX
  8
0
 62
4
 10
-6.00740990E+01
 20
3.09754484E+02
  0
VERTEX
  8
0
 62
4
 10
-5.97206399E+01
 20
3.09718302E+02
  0
VERTEX
  8
0
 62
4
 10
-5.93616963E+01
 20
3.09696481E+02
  0
VERTEX
  8
0
 62
4
 10
-5.90000000E+01
 20
3.09689189E+02
  0
VERTEX
  8
0
 62
4
 10
-5.86383037E+01
 20
3.09696481E+02
  0
VERTEX
  8
0
 62
4
 10
-5.82793601E+01
 20
3.09718302E+02
  0
VERTEX
  8
0
 62
4
 10
-5.79259010E+01
 20
3.09754484E+02
  0
VERTEX
  8
0
 62
4
 10
-5.75806164E+01
 20
3.09804754E+02
  0
VERTEX
  8
0
 62
4
 10
-5.72461342E+01
 20
3.09868728E+02
  0
VERTEX
  8
0
 62
4
 10
-5.69250000E+01
 20
3.09945919E+02
  0
VERTEX
  8
0
 62
4
 10
-5.66196578E+01
 20
3.10035740E+02
  0
VERTEX
  8
0
 62
4
 10
-5.63324314E+01
 20
3.10137508E+02
  0
VERTEX
  8
0
 62
4
 10
-5.60655069E+01
 20
3.10250448E+02
  0
VERTEX
  8
0
 62
4
 10
-5.58209156E+01
 20
3.10373700E+02
  0
VERTEX
  8
0
 62
4
 10
-5.56005190E+01
 20
3.10506326E+02
  0
VERTEX
  8
0
 62
4
 10
-5.54059946E+01
 20
3.10647318E+02
  0
VERTEX
  8
0
 62
4
 10
-5.52388227E+01
 20
3.10795601E+02
  0
VERTEX
  8
0
 62
4
 10
-5.51002756E+01
 20
3.10950048E+02
  0
VERTEX
  8
0
 62
4
 10
-5.49914078E+01
 20
3.11109482E+02
  0
VERTEX
  8
0
 62
4
 10
-5.49130478E+01
 20
3.11272691E+02
  0
VERTEX
  8
0
 62
4
 10
-5.48657920E+01
 20
3.11438433E+02
  0
VERTEX
  8
0
 62
4
 10
-5.48500000E+01
 20
3.11605446E+02
  0
VERTEX
  8
0
 62
4
 10
-5.48657920E+01
 20
3.11772459E+02
  0
VERTEX
  8
0
 62
4
 10
-5.49130478E+01
 20
3.11938200E+02
  0
VERTEX
  8
0
 62
4
 10
-5.49914078E+01
 20
3.12101410E+02
  0
VERTEX
  8
0
 62
4
 10
-5.51002756E+01
 20
3.12260844E+02
  0
VERTEX
  8
0
 62
4
 10
-5.52388227E+01
 20
3.12415291E+02
  0
VERTEX
  8
0
 62
4
 10
-5.54059946E+01
 20
3.12563574E+02
  0
VERTEX
  8
0
 62
4
 10
-5.56005190E+01
 20
3.12704566E+02
  0
VERTEX
  8
0
 62
4
 10
-5.58209156E+01
 20
3.12837192E+02
  0
VERTEX
  8
0
 62
4
 10
-5.60655069E+01
 20
3.12960444E+02
  0
VERTEX
  8
0
 62
4
 10
-5.63324314E+01
 20
3.13073384E+02
  0
VERTEX
  8
0
 62
4
 10
-5.66196578E+01
 20
3.13175152E+02
  0
VERTEX
  8
0
 62
4
 10
-5.69250000E+01
 20
3.13264973E+02
  0
VERTEX
  8
0
 62
4
 10
-5.72461342E+01
 20
3.13342164E+02
  0
VERTEX
  8
0
 62
4
 10
-5.75806164E+01
 20
3.13406138E+02
  0
VERTEX
  8
0
 62
4
 10
-5.79259010E+01
 20
3.13456408E+02
  0
VERTEX
  8
0
 62
4
 10
-5.82793601E+01
 20
3.13492590E+02
  0
VERTEX
  8
0
 62
4
 10
-5.86383037E+01
 20
3.13514411E+02
  0
VERTEX
  8
0
 62
4
 10
-5.90000000E+01
 20
3.13521703E+02
  0
VERTEX
  8
0
 62
4
 10
-5.93616963E+01
 20
3.13514411E+02
  0
VERTEX
  8
0
 62
4
 10
-5.97206399E+01
 20
3.13492590E+02
  0
VERTEX
  8
0
 62
4
 10
-6.00740990E+01
 20
3.13456408E+02
  0
VERTEX
  8
0
 62
4
 10
-6.04193836E+01
 20
3.13406138E+02
  0
VERTEX
  8
0
 62
4
 10
-6.07538658E+01
 20
3.13342164E+02
  0
VERTEX
  8
0
 62
4
 10
-6.10750000E+01
 20
3.13264973E+02
  0
VERTEX
  8
0
 62
4
 10
-6.13803422E+01
 20
3.13175152E+02
  0
VERTEX
  8
0
 62
4
 10
-6.16675686E+01
 20
3.13073384E+02
  0
VERTEX
  8
0
 62
4
 10
-6.19344931E+01
 20
3.12960444E+02
  0
VERTEX
  8
0
 62
4
 10
-6.21790844E+01
 20
3.12837192E+02
  0
VERTEX
  8
0
 62
4
 10
-6.23994810E+01
 20
3.12704566E+02
  0
VERTEX
  8
0
 62
4
 10
-6.25940054E+01
 20
3.12563574E+02
  0
VERTEX
  8
0
 62
4
 10
-6.27611773E+01
 20
3.12415291E+02
  0
VERTEX
  8
0
 62
4
 10
-6.28997244E+01
 20
3.12260844E+02
  0
VERTEX
  8
0
 62
4
 10
-6.30085922E+01
 20
3.12101410E+02
  0
VERTEX
  8
0
 62
4
 10
-6.30869522E+01
 20
3.11938201E+02
  0
VERTEX
  8
0
 62
4
 10
-6.31342080E+01
 20
3.11772459E+02
  0
VERTEX
  8
0
 62
4
 10
-6.31500000E+01
 20
3.11605446E+02
  0
SEQEND
  8
0
  0
LINE
  8
0
 62
4
 10
-5.48500000E+01
 20
3.13166585E+02
 11
-5.48500000E+01
 21
3.11605446E+02
  0
LINE
  8
0
 62
4
 10
-6.31500000E+01
 20
3.13166585E+02
 11
-6.31500000E+01
 21
3.11605446E+02
  0
POLYLINE
  8
0
 62
4
 66
1
  0
VERTEX
  8
0
 62
4
 10
-5.50279899E+01
 20
3.13721767E+02
  0
VERTEX
  8
0
 62
4
 10
-5.50848960E+01
 20
3.13882159E+02
  0
VERTEX
  8
0
 62
4
 10
-5.51721189E+01
 20
3.14039621E+02
  0
VERTEX
  8
0
 62
4
 10
-5.52889832E+01
 20
3.14192932E+02
  0
VERTEX
  8
0
 62
4
 10
-5.54345840E+01
 20
3.14340906E+02
  0
VERTEX
  8
0
 62
4
 10
-5.56077937E+01
 20
3.14482397E+02
  0
VERTEX
  8
0
 62
4
 10
-5.58072712E+01
 20
3.14616308E+02
  0
VERTEX
  8
0
 62
4
 10
-5.60314717E+01
 20
3.14741604E+02
  0
VERTEX
  8
0
 62
4
 10
-5.62786592E+01
 20
3.14857313E+02
  0
VERTEX
  8
0
 62
4
 10
-5.65469195E+01
 20
3.14962540E+02
  0
VERTEX
  8
0
 62
4
 10
-5.68341754E+01
 20
3.15056471E+02
  0
VERTEX
  8
0
 62
4
 10
-5.71382024E+01
 20
3.15138377E+02
  0
VERTEX
  8
0
 62
4
 10
-5.74566464E+01
 20
3.15207624E+02
  0
VERTEX
  8
0
 62
4
 10
-5.77870414E+01
 20
3.15263676E+02
  0
VERTEX
  8
0
 62
4
 10
-5.81268290E+01
 20
3.15306100E+02
  0
VERTEX
  8
0
 62
4
 10
-5.84733781E+01
 20
3.15334566E+02
  0
VERTEX
  8
0
 62
4
 10
-5.88240051E+01
 20
3.15348855E+02
  0
VERTEX
  8
0
 62
4
 10
-5.91759949E+01
 20
3.15348855E+02
  0
VERTEX
  8
0
 62
4
 10
-5.95266219E+01
 20
3.15334566E+02
  0
VERTEX
  8
0
 62
4
 10
-5.98731710E+01
 20
3.15306100E+02
  0
VERTEX
  8
0
 62
4
 10
-6.02129586E+01
 20
3.15263676E+02
  0
VERTEX
  8
0
 62
4
 10
-6.05433536E+01
 20
3.15207624E+02
  0
VERTEX
  8
0
 62
4
 10
-6.08617976E+01
 20
3.15138377E+02
  0
VERTEX
  8
0
 62
4
 10
-6.11658246E+01
 20
3.15056471E+02
  0
VERTEX
  8
0
 62
4
 10
-6.14530805E+01
 20
3.14962541E+02
  0
VERTEX
  8
0
 62
4
 10
-6.17213408E+01
 20
3.14857313E+02
  0
VERTEX
  8
0
 62
4
 10
-6.19685283E+01
 20
3.14741604E+02
  0
VERTEX
  8
0
 62
4
 10
-6.21927288E+01
 20
3.14616308E+02
  0
VERTEX
  8
0
 62
4
 10
-6.23922063E+01
 20
3.14482397E+02
  0
VERTEX
  8
0
 62
4
 10
-6.25654160E+01
 20
3.14340906E+02
  0
VERTEX
  8
0
 62
4
 10
-6.27110168E+01
 20
3.14192932E+02
  0
VERTEX
  8
0
 62
4
 10
-6.28278811E+01
 20
3.14039621E+02
  0
VERTEX
  8
0
 62
4
 10
-6.29151040E+01
 20
3.13882159E+02
  0
VERTEX
  8
0
 62
4
 10
-6.29720101E+01
 20
3.13721767E+02
  0
SEQEND
  8
0
  0
POLYLINE
  8
0
 62
4
 66
1
  0
VERTEX
  8
0
 62
4
 10
-4.55000000E+01
 20
3.46642872E+02
  0
VERTEX
  8
0
 62
4
 10
-4.55080514E+01
 20
3.46681675E+02
  0
VERTEX
  8
0
 62
4
 10
-4.55321408E+01
 20
3.46720166E+02
  0
VERTEX
  8
0
 62
4
 10
-4.55720743E+01
 20
3.46758034E+02
  0
VERTEX
  8
0
 62
4
 10
-4.56275303E+01
 20
3.46794975E+02
  0
VERTEX
  8
0
 62
4
 10
-4.56980623E+01
 20
3.46830691E+02
  0
VERTEX
  8
0
 62
4
 10
-4.57831024E+01
 20
3.46864895E+02
  0
VERTEX
  8
0
 62
4
 10
-4.58819660E+01
 20
3.46897312E+02
  0
VERTEX
  8
0
 62
4
 10
-4.59938571E+01
 20
3.46927680E+02
  0
VERTEX
  8
0
 62
4
 10
-4.61178747E+01
 20
3.46955755E+02
  0
VERTEX
  8
0
 62
4
 10
-4.62530204E+01
 20
3.46981311E+02
  0
VERTEX
  8
0
 62
4
 10
-4.63982060E+01
 20
3.47004141E+02
  0
VERTEX
  8
0
 62
4
 10
-4.65522627E+01
 20
3.47024064E+02
  0
VERTEX
  8
0
 62
4
 10
-4.67139499E+01
 20
3.47040916E+02
  0
VERTEX
  8
0
 62
4
 10
-4.68819660E+01
 20
3.47054565E+02
  0
VERTEX
  8
0
 62
4
 10
-4.70549581E+01
 20
3.47064898E+02
  0
VERTEX
  8
0
 62
4
 10
-4.72315335E+01
 20
3.47071834E+02
  0
VERTEX
  8
0
 62
4
 10
-4.74102703E+01
 20
3.47075315E+02
  0
VERTEX
  8
0
 62
4
 10
-4.75897296E+01
 20
3.47075315E+02
  0
VERTEX
  8
0
 62
4
 10
-4.77684665E+01
 20
3.47071834E+02
  0
VERTEX
  8
0
 62
4
 10
-4.79450419E+01
 20
3.47064898E+02
  0
VERTEX
  8
0
 62
4
 10
-4.81180340E+01
 20
3.47054565E+02
  0
VERTEX
  8
0
 62
4
 10
-4.82860501E+01
 20
3.47040916E+02
  0
VERTEX
  8
0
 62
4
 10
-4.84477373E+01
 20
3.47024064E+02
  0
VERTEX
  8
0
 62
4
 10
-4.86017940E+01
 20
3.47004141E+02
  0
VERTEX
  8
0
 62
4
 10
-4.87469796E+01
 20
3.46981311E+02
  0
VERTEX
  8
0
 62
4
 10
-4.88821253E+01
 20
3.46955755E+02
  0
VERTEX
  8
0
 62
4
 10
-4.90061429E+01
 20
3.46927680E+02
  0
VERTEX
  8
0
 62
4
 10
-4.91180340E+01
 20
3.46897312E+02
  0
VERTEX
  8
0
 62
4
 10
-4.92168976E+01
 20
3.46864895E+02
  0
VERTEX
  8
0
 62
4
 10
-4.93019377E+01
 20
3.46830691E+02
  0
VERTEX
  8
0
 62
4
 10
-4.93724697E+01
 20
3.46794975E+02
  0
VERTEX
  8
0
 62
4
 10
-4.94279257E+01
 20
3.46758034E+02
  0
VERTEX
  8
0
 62
4
 10
-4.94678592E+01
 20
3.46720166E+02
  0
VERTEX
  8
0
 62
4
 10
-4.94919486E+01
 20
3.46681675E+02
  0
VERTEX
  8
0
 62
4
 10
-4.95000000E+01
 20
3.46642872E+02
  0
SEQEND
  8
0
  0
POLYLINE
  8
0
 62
4
 66
1
  0
VERTEX
  8
0
 62
4
 10
-5.35000000E+01
 20
3.46642872E+02
  0
VERTEX
  8
0
 62
4
 10
-5.35080514E+01
 20
3.46681675E+02
  0
VERTEX
  8
0
 62
4
 10
-5.35321408E+01
 20
3.46720166E+02
  0
VERTEX
  8
0
 62
4
 10
-5.35720743E+01
 20
3.46758034E+02
  0
VERTEX
  8
0
 62
4
 10
-5.36275303E+01
 20
3.46794975E+02
  0
VERTEX
  8
0
 62
4
 10
-5.36980623E+01
 20
3.46830691E+02
  0
VERTEX
  8
0
 62
4
 10
-5.37831024E+01
 20
3.46864895E+02
  0
VERTEX
  8
0
 62
4
 10
-5.38819660E+01
 20
3.46897312E+02
  0
VERTEX
  8
0
 62
4
 10
-5.39938571E+01
 20
3.46927680E+02
  0
VERTEX
  8
0
 62
4
 10
-5.41178747E+01
 20
3.46955755E+02
  0
VERTEX
  8
0
 62
4
 10
-5.42530204E+01
 20
3.46981311E+02
  0
VERTEX
  8
0
 62
4
 10
-5.43982060E+01
 20
3.47004141E+02
  0
VERTEX
  8
0
 62
4
 10
-5.45522627E+01
 20
3.47024064E+02
  0
VERTEX
  8
0
 62
4
 10
-5.47139499E+01
 20
3.47040916E+02
  0
VERTEX
  8
0
 62
4
 10
-5.48819660E+01
 20
3.47054565E+02
  0
VERTEX
  8
0
 62
4
 10
-5.50549581E+01
 20
3.47064898E+02
  0
VERTEX
  8
0
 62
4
 10
-5.52315335E+01
 20
3.47071834E+02
  0
VERTEX
  8
0
 62
4
 10
-5.54102703E+01
 20
3.47075315E+02
  0
VERTEX
  8
0
 62
4
 10
-5.55897296E+01
 20
3.47075315E+02
  0
VERTEX
  8
0
 62
4
 10
-5.57684665E+01
 20
3.47071834E+02
  0
VERTEX
  8
0
 62
4
 10
-5.59450419E+01
 20
3.47064898E+02
  0
VERTEX
  8
0
 62
4
 10
-5.61180340E+01
 20
3.47054565E+02
  0
VERTEX
  8
0
 62
4
 10
-5.62860501E+01
 20
3.47040916E+02
  0
VERTEX
  8
0
 62
4
 10
-5.64477373E+01
 20
3.47024064E+02
  0
VERTEX
  8
0
 62
4
 10
-5.66017940E+01
 20
3.47004141E+02
  0
VERTEX
  8
0
 62
4
 10
-5.67469796E+01
 20
3.46981311E+02
  0
VERTEX
  8
0
 62
4
 10
-5.68821253E+01
 20
3.46955755E+02
  0
VERTEX
  8
0
 62
4
 10
-5.70061429E+01
 20
3.46927680E+02
  0
VERTEX
  8
0
 62
4
 10
-5.71180340E+01
 20
3.46897312E+02
  0
VERTEX
  8
0
 62
4
 10
-5.72168976E+01
 20
3.46864895E+02
  0
VERTEX
  8
0
 62
4
 10
-5.73019377E+01
 20
3.46830691E+02
  0
VERTEX
  8
0
 62
4
 10
-5.73724697E+01
 20
3.46794975E+02
  0
VERTEX
  8
0
 62
4
 10
-5.74279257E+01
 20
3.46758034E+02
  0
VERTEX
  8
0
 62
4
 10
-5.74678592E+01
 20
3.46720166E+02
  0
VERTEX
  8
0
 62
4
 10
-5.74919486E+01
 20
3.46681675E+02
  0
VERTEX
  8
0
 62
4
 10
-5.75000000E+01
 20
3.46642872E+02
  0
SEQEND
  8
0
  0
LINE
  8
0
 62
4
 10
-7.40000000E+01
 20
3.10140182E+02
 11
-7.40000000E+01
 21
3.09809660E+02
  0
LINE
  8
0
 62
4
 10
-7.40000000E+01
 20
3.12395453E+02
 11
-7.40000000E+01
 21
3.10140182E+02
  0
LINE
  8
0
 62
4
 10
-7.55000000E+01
 20
3.12357154E+02
 11
-7.40000000E+01
 21
3.11987176E+02
  0
LINE
  8
0
 62
4
 10
-7.55000000E+01
 20
3.11311294E+02
 11
-7.40000000E+01
 21
3.10140182E+02
  0
LINE
  8
0
 62
4
 10
-7.40000000E+01
 20
3.15535219E+02
 11
-7.55000000E+01
 21
3.14366234E+02
  0
LINE
  8
0
 62
4
 10
-5.05000000E+01
 20
3.10271409E+02
 11
-4.40000000E+01
 21
3.10271409E+02
  0
LINE
  8
0
 62
4
 10
-7.40000000E+01
 20
3.12395453E+02
 11
-6.31500000E+01
 21
3.12395453E+02
  0
LINE
  8
0
 62
4
 10
-7.40000000E+01
 20
3.10140182E+02
 11
-6.16744534E+01
 21
3.10140182E+02
  0
LINE
  8
0
 62
4
 10
-7.40000000E+01
 20
3.11987176E+02
 11
-6.31500000E+01
 21
3.11987176E+02
  0
LINE
  8
0
  6
CENTER
 62
6
 10
-6.80000000E+01
 20
3.15119769E+02
 11
-6.50000000E+01
 21
3.15119769E+02
  0
LINE
  8
0
 62
4
 10
-7.40000000E+01
 20
3.09809660E+02
 11
-6.04482454E+01
 21
3.09809660E+02
  0
LINE
  8
0
 62
6
 10
-4.90000000E+01
 20
3.46929195E+02
 11
-4.90000000E+01
 21
3.44310076E+02
  0
LINE
  8
0
 62
6
 10
-4.60000000E+01
 20
3.46929195E+02
 11
-4.60000000E+01
 21
3.44310076E+02
  0
LINE
  8
0
 62
4
 10
-4.95000000E+01
 20
3.46642872E+02
 11
-4.95000000E+01
 21
3.44310076E+02
  0
LINE
  8
0
 62
4
 10
-4.55000000E+01
 20
3.46642872E+02
 11
-4.55000000E+01
 21
3.44310076E+02
  0
LINE
  8
0
 62
6
 10
-5.70000000E+01
 20
3.46929195E+02
 11
-5.70000000E+01
 21
3.44310076E+02
  0
LINE
  8
0
 62
6
 10
-5.40000000E+01
 20
3.46929195E+02
 11
-5.40000000E+01
 21
3.44310076E+02
  0
LINE
  8
0
 62
4
 10
-5.75000000E+01
 20
3.46642872E+02
 11
-5.75000000E+01
 21
3.44310076E+02
  0
LINE
  8
0
 62
4
 10
-5.35000000E+01
 20
3.46642872E+02
 11
-5.35000000E+01
 21
3.44310076E+02
  0
LINE
  8
0
 62
4
 10
-7.55000000E+01
 20
3.14366234E+02
 11
-7.55000000E+01
 21
3.11311294E+02
  0
LINE
  8
0
 62
4
 10
-7.40000000E+01
 20
3.19013934E+02
 11
-7.40000000E+01
 21
3.19413934E+02
  0
LINE
  8
0
 62
4
 10
-5.90000000E+01
 20
3.44310076E+02
 11
-4.40000000E+01
 21
3.44310076E+02
  0
LINE
  8
0
 62
4
 10
-7.40000000E+01
 20
3.26333850E+02
 11
-4.40000000E+01
 21
3.26333850E+02
  0
LINE
  8
0
 62
4
 10
-5.90000000E+01
 20
3.44310076E+02
 11
-5.90000000E+01
 21
3.26333850E+02
  0
LINE
  8
0
 62
4
 10
-4.40000000E+01
 20
3.44310076E+02
 11
-4.40000000E+01
 21
3.09809660E+02
  0
LINE
  8
0
 62
4
 10
-7.40000000E+01
 20
3.26333850E+02
 11
-7.40000000E+01
 21
3.12395453E+02
  0
LINE
  8
0
  6
CENTER
 62
6
 10
-4.75000000E+01
 20
3.50075655E+02
 11
-4.75000000E+01
 21
3.42563387E+02
  0
LINE
  8
0
  6
CENTER
 62
6
 10
-5.55000000E+01
 20
3.50075655E+02
 11
-5.55000000E+01
 21
3.42563387E+02
  0
LINE
  8
0
  6
CENTER
 62
6
 10
-6.65000000E+01
 20
3.16619769E+02
 11
-6.65000000E+01
 21
3.13619769E+02
  0
LINE
  8
0
 62
4
 10
-7.40000000E+01
 20
3.17197638E+02
 11
-4.40000000E+01
 21
3.17197638E+02
  0
LINE
  8
0
 62
4
 10
-5.05000000E+01
 20
3.10140182E+02
 11
-5.05000000E+01
 21
3.11247433E+02
  0
LINE
  8
0
 62
4
 10
-1.44824543E+00
 20
2.49690340E+02
 11
-1.50000000E+01
 21
2.49690340E+02
  0
LINE
  8
0
 62
4
 10
-2.67445339E+00
 20
2.49359818E+02
 11
-8.50000000E+00
 21
2.49359818E+02
  0
LINE
  8
0
  6
CENTER
 62
6
 10
-6.00000000E+00
 20
2.44380231E+02
 11
-9.00000000E+00
 21
2.44380231E+02
  0
LINE
  8
0
  6
CENTER
 62
6
 10
-7.50000000E+00
 20
2.42880231E+02
 11
-7.50000000E+00
 21
2.45880231E+02
  0
LINE
  8
0
  6
CENTER
 62
6
 10
1.50000000E+00
 20
2.45978297E+02
 11
-1.50000000E+00
 21
2.45978297E+02
  0
LINE
  8
0
  6
CENTER
 62
6
 10
1.96507699E-10
 20
2.44478297E+02
 11
1.96507699E-10
 21
2.47478297E+02
  0
LINE
  8
0
 62
4
 10
-4.15000000E+00
 20
2.47104547E+02
 11
-4.55795782E+00
 21
2.47104547E+02
  0
LINE
  8
0
 62
4
 10
-1.04420422E+01
 20
2.47104547E+02
 11
-1.50000000E+01
 21
2.47104547E+02
  0
LINE
  8
0
 62
4
 10
-4.15000000E+00
 20
2.47512824E+02
 11
-5.00299700E+00
 21
2.47512824E+02
  0
ARC
  8
0
 62
4
 10
-1.01675281E+01
 20
2.42189854E+02
 40
5.85028287E+00
 50
4.07000790E+01
 51
8.11529153E+01
  0
ARC
  8
0
 62
4
 10
-4.83247189E+00
 20
2.42189854E+02
 40
5.85028287E+00
 50
9.88470845E+01
 51
1.39299921E+02
  0
ARC
  8
0
 62
4
 10
-7.50000000E+00
 20
2.44344287E+02
 40
4.03418497E+00
 50
3.73579130E+01
 51
1.42642090E+02
  0
POLYLINE
  8
0
 62
4
 66
1
  0
VERTEX
  8
0
 62
4
 10
-1.07066146E+01
 20
2.46792199E+02
  0
VERTEX
  8
0
 62
4
 10
-1.07942400E+01
 20
2.46658798E+02
  0
VERTEX
  8
0
 62
4
 10
-1.08558925E+01
 20
2.46522335E+02
  0
VERTEX
  8
0
 62
4
 10
-1.08910860E+01
 20
2.46383884E+02
  0
VERTEX
  8
0
 62
4
 10
-1.08995431E+01
 20
2.46244537E+02
  0
VERTEX
  8
0
 62
4
 10
-1.08811970E+01
 20
2.46105393E+02
  0
VERTEX
  8
0
 62
4
 10
-1.08361925E+01
 20
2.45967550E+02
  0
VERTEX
  8
0
 62
4
 10
-1.07648844E+01
 20
2.45832093E+02
  0
VERTEX
  8
0
 62
4
 10
-1.06678348E+01
 20
2.45700091E+02
  0
VERTEX
  8
0
 62
4
 10
-1.05458089E+01
 20
2.45572584E+02
  0
VERTEX
  8
0
 62
4
 10
-1.03997689E+01
 20
2.45450578E+02
  0
VERTEX
  8
0
 62
4
 10
-1.02308662E+01
 20
2.45335035E+02
  0
VERTEX
  8
0
 62
4
 10
-1.00404324E+01
 20
2.45226866E+02
  0
VERTEX
  8
0
 62
4
 10
-9.82996904E+00
 20
2.45126923E+02
  0
VERTEX
  8
0
 62
4
 10
-9.60113540E+00
 20
2.45035995E+02
  0
VERTEX
  8
0
 62
4
 10
-9.35573572E+00
 20
2.44954798E+02
  0
VERTEX
  8
0
 62
4
 10
-9.09570481E+00
 20
2.44883973E+02
  0
VERTEX
  8
0
 62
4
 10
-8.82309284E+00
 20
2.44824078E+02
  0
VERTEX
  8
0
 62
4
 10
-8.54004916E+00
 20
2.44775586E+02
  0
VERTEX
  8
0
 62
4
 10
-8.24880540E+00
 20
2.44738877E+02
  0
VERTEX
  8
0
 62
4
 10
-7.95165780E+00
 20
2.44714243E+02
  0
VERTEX
  8
0
 62
4
 10
-7.65094919E+00
 20
2.44701878E+02
  0
VERTEX
  8
0
 62
4
 10
-7.34905044E+00
 20
2.44701878E+02
  0
VERTEX
  8
0
 62
4
 10
-7.04834183E+00
 20
2.44714244E+02
  0
VERTEX
  8
0
 62
4
 10
-6.75119424E+00
 20
2.44738878E+02
  0
VERTEX
  8
0
 62
4
 10
-6.45995049E+00
 20
2.44775586E+02
  0
VERTEX
  8
0
 62
4
 10
-6.17690682E+00
 20
2.44824078E+02
  0
VERTEX
  8
0
 62
4
 10
-5.90429486E+00
 20
2.44883973E+02
  0
VERTEX
  8
0
 62
4
 10
-5.64426397E+00
 20
2.44954798E+02
  0
VERTEX
  8
0
 62
4
 10
-5.39886431E+00
 20
2.45035995E+02
  0
VERTEX
  8
0
 62
4
 10
-5.17003069E+00
 20
2.45126923E+02
  0
VERTEX
  8
0
 62
4
 10
-4.95956733E+00
 20
2.45226866E+02
  0
VERTEX
  8
0
 62
4
 10
-4.76913357E+00
 20
2.45335035E+02
  0
VERTEX
  8
0
 62
4
 10
-4.60023087E+00
 20
2.45450578E+02
  0
VERTEX
  8
0
 62
4
 10
-4.45419090E+00
 20
2.45572584E+02
  0
VERTEX
  8
0
 62
4
 10
-4.33216509E+00
 20
2.45700091E+02
  0
VERTEX
  8
0
 62
4
 10
-4.23511554E+00
 20
2.45832093E+02
  0
VERTEX
  8
0
 62
4
 10
-4.16380742E+00
 20
2.45967550E+02
  0
VERTEX
  8
0
 62
4
 10
-4.11880294E+00
 20
2.46105394E+02
  0
VERTEX
  8
0
 62
4
 10
-4.10045693E+00
 20
2.46244537E+02
  0
VERTEX
  8
0
 62
4
 10
-4.10891404E+00
 20
2.46383884E+02
  0
VERTEX
  8
0
 62
4
 10
-4.14410759E+00
 20
2.46522335E+02
  0
VERTEX
  8
0
 62
4
 10
-4.20576010E+00
 20
2.46658798E+02
  0
VERTEX
  8
0
 62
4
 10
-4.29338549E+00
 20
2.46792199E+02
  0
SEQEND
  8
0
  0
POLYLINE
  8
0
 62
4
 66
1
  0
VERTEX
  8
0
 62
4
 10
-1.09000000E+01
 20
2.45267241E+02
  0
VERTEX
  8
0
 62
4
 10
-1.08863126E+01
 20
2.45126512E+02
  0
VERTEX
  8
0
 62
4
 10
-1.08453606E+01
 20
2.44986916E+02
  0
VERTEX
  8
0
 62
4
 10
-1.07774737E+01
 20
2.44849578E+02
  0
VERTEX
  8
0
 62
4
 10
-1.06831986E+01
 20
2.44715602E+02
  0
VERTEX
  8
0
 62
4
 10
-1.05632942E+01
 20
2.44586067E+02
  0
VERTEX
  8
0
 62
4
 10
-1.04187259E+01
 20
2.44462017E+02
  0
VERTEX
  8
0
 62
4
 10
-1.02506578E+01
 20
2.44344450E+02
  0
VERTEX
  8
0
 62
4
 10
-1.00604430E+01
 20
2.44234313E+02
  0
VERTEX
  8
0
 62
4
 10
-9.84961302E+00
 20
2.44132493E+02
  0
VERTEX
  8
0
 62
4
 10
-9.61986534E+00
 20
2.44039808E+02
  0
VERTEX
  8
0
 62
4
 10
-9.37304975E+00
 20
2.43957007E+02
  0
VERTEX
  8
0
 62
4
 10
-9.11115347E+00
 20
2.43884754E+02
  0
VERTEX
  8
0
 62
4
 10
-8.83628512E+00
 20
2.43823633E+02
  0
VERTEX
  8
0
 62
4
 10
-8.55065780E+00
 20
2.43774134E+02
  0
VERTEX
  8
0
 62
4
 10
-8.25657119E+00
 20
2.43736658E+02
  0
VERTEX
  8
0
 62
4
 10
-7.95639312E+00
 20
2.43711504E+02
  0
VERTEX
  8
0
 62
4
 10
-7.65254044E+00
 20
2.43698877E+02
  0
VERTEX
  8
0
 62
4
 10
-7.34745960E+00
 20
2.43698877E+02
  0
VERTEX
  8
0
 62
4
 10
-7.04360691E+00
 20
2.43711504E+02
  0
VERTEX
  8
0
 62
4
 10
-6.74342884E+00
 20
2.43736658E+02
  0
VERTEX
  8
0
 62
4
 10
-6.44934224E+00
 20
2.43774134E+02
  0
VERTEX
  8
0
 62
4
 10
-6.16371491E+00
 20
2.43823633E+02
  0
VERTEX
  8
0
 62
4
 10
-5.88884657E+00
 20
2.43884754E+02
  0
VERTEX
  8
0
 62
4
 10
-5.62695028E+00
 20
2.43957007E+02
  0
VERTEX
  8
0
 62
4
 10
-5.38013469E+00
 20
2.44039808E+02
  0
VERTEX
  8
0
 62
4
 10
-5.15038701E+00
 20
2.44132493E+02
  0
VERTEX
  8
0
 62
4
 10
-4.93955703E+00
 20
2.44234313E+02
  0
VERTEX
  8
0
 62
4
 10
-4.74934223E+00
 20
2.44344450E+02
  0
VERTEX
  8
0
 62
4
 10
-4.58127411E+00
 20
2.44462017E+02
  0
VERTEX
  8
0
 62
4
 10
-4.43670586E+00
 20
2.44586067E+02
  0
VERTEX
  8
0
 62
4
 10
-4.31680145E+00
 20
2.44715602E+02
  0
VERTEX
  8
0
 62
4
 10
-4.22252628E+00
 20
2.44849578E+02
  0
VERTEX
  8
0
 62
4
 10
-4.15463940E+00
 20
2.44986916E+02
  0
VERTEX
  8
0
 62
4
 10
-4.11368740E+00
 20
2.45126512E+02
  0
VERTEX
  8
0
 62
4
 10
-4.10000000E+00
 20
2.45267241E+02
  0
SEQEND
  8
0
  0
LINE
  8
0
 62
4
 10
-1.09000000E+01
 20
2.46270275E+02
 11
-1.09000000E+01
 21
2.45267241E+02
  0
LINE
  8
0
 62
4
 10
-4.10000000E+00
 20
2.46270275E+02
 11
-4.10000000E+00
 21
2.45267241E+02
  0
POLYLINE
  8
0
 62
4
 66
1
  0
VERTEX
  8
0
 62
4
 10
-1.09000000E+01
 20
2.46050854E+02
  0
VERTEX
  8
0
 62
4
 10
-1.10365817E+01
 20
2.45909153E+02
  0
VERTEX
  8
0
 62
4
 10
-1.11455295E+01
 20
2.45762436E+02
  0
VERTEX
  8
0
 62
4
 10
-1.12259923E+01
 20
2.45611849E+02
  0
VERTEX
  8
0
 62
4
 10
-1.12773413E+01
 20
2.45458570E+02
  0
VERTEX
  8
0
 62
4
 10
-1.12991753E+01
 20
2.45303796E+02
  0
VERTEX
  8
0
 62
4
 10
-1.12913236E+01
 20
2.45148737E+02
  0
VERTEX
  8
0
 62
4
 10
-1.12538476E+01
 20
2.44994603E+02
  0
VERTEX
  8
0
 62
4
 10
-1.11870402E+01
 20
2.44842599E+02
  0
VERTEX
  8
0
 62
4
 10
-1.10914234E+01
 20
2.44693914E+02
  0
VERTEX
  8
0
 62
4
 10
-1.09677442E+01
 20
2.44549708E+02
  0
VERTEX
  8
0
 62
4
 10
-1.08169691E+01
 20
2.44411109E+02
  0
VERTEX
  8
0
 62
4
 10
-1.06402762E+01
 20
2.44279200E+02
  0
VERTEX
  8
0
 62
4
 10
-1.04390462E+01
 20
2.44155011E+02
  0
VERTEX
  8
0
 62
4
 10
-1.02148512E+01
 20
2.44039512E+02
  0
VERTEX
  8
0
 62
4
 10
-9.96944328E+00
 20
2.43933607E+02
  0
VERTEX
  8
0
 62
4
 10
-9.70473982E+00
 20
2.43838122E+02
  0
VERTEX
  8
0
 62
4
 10
-9.42280918E+00
 20
2.43753804E+02
  0
VERTEX
  8
0
 62
4
 10
-9.12585428E+00
 20
2.43681311E+02
  0
VERTEX
  8
0
 62
4
 10
-8.81619544E+00
 20
2.43621211E+02
  0
VERTEX
  8
0
 62
4
 10
-8.49625223E+00
 20
2.43573972E+02
  0
VERTEX
  8
0
 62
4
 10
-8.16852461E+00
 20
2.43539963E+02
  0
VERTEX
  8
0
 62
4
 10
-7.83557333E+00
 20
2.43519451E+02
  0
VERTEX
  8
0
 62
4
 10
-7.49999998E+00
 20
2.43512596E+02
  0
VERTEX
  8
0
 62
4
 10
-7.16442663E+00
 20
2.43519451E+02
  0
VERTEX
  8
0
 62
4
 10
-6.83147536E+00
 20
2.43539963E+02
  0
VERTEX
  8
0
 62
4
 10
-6.50374773E+00
 20
2.43573972E+02
  0
VERTEX
  8
0
 62
4
 10
-6.18380453E+00
 20
2.43621211E+02
  0
VERTEX
  8
0
 62
4
 10
-5.87414569E+00
 20
2.43681311E+02
  0
VERTEX
  8
0
 62
4
 10
-5.57719079E+00
 20
2.43753804E+02
  0
VERTEX
  8
0
 62
4
 10
-5.29526015E+00
 20
2.43838122E+02
  0
VERTEX
  8
0
 62
4
 10
-5.03055669E+00
 20
2.43933607E+02
  0
VERTEX
  8
0
 62
4
 10
-4.78514873E+00
 20
2.44039512E+02
  0
VERTEX
  8
0
 62
4
 10
-4.56095382E+00
 20
2.44155011E+02
  0
VERTEX
  8
0
 62
4
 10
-4.35972374E+00
 20
2.44279200E+02
  0
VERTEX
  8
0
 62
4
 10
-4.18303084E+00
 20
2.44411109E+02
  0
VERTEX
  8
0
 62
4
 10
-4.03225576E+00
 20
2.44549708E+02
  0
VERTEX
  8
0
 62
4
 10
-3.90857661E+00
 20
2.44693914E+02
  0
VERTEX
  8
0
 62
4
 10
-3.81295977E+00
 20
2.44842599E+02
  0
VERTEX
  8
0
 62
4
 10
-3.74615237E+00
 20
2.44994603E+02
  0
VERTEX
  8
0
 62
4
 10
-3.70867642E+00
 20
2.45148737E+02
  0
VERTEX
  8
0
 62
4
 10
-3.70082475E+00
 20
2.45303796E+02
  0
VERTEX
  8
0
 62
4
 10
-3.72265871E+00
 20
2.45458570E+02
  0
VERTEX
  8
0
 62
4
 10
-3.77400769E+00
 20
2.45611849E+02
  0
VERTEX
  8
0
 62
4
 10
-3.85447047E+00
 20
2.45762436E+02
  0
VERTEX
  8
0
 62
4
 10
-3.96341834E+00
 20
2.45909153E+02
  0
VERTEX
  8
0
 62
4
 10
-4.10000001E+00
 20
2.46050854E+02
  0
SEQEND
  8
0
  0
POLYLINE
  8
0
 62
4
 66
1
  0
VERTEX
  8
0
 62
4
 10
-1.13000000E+01
 20
2.44380231E+02
  0
VERTEX
  8
0
 62
4
 10
-1.12847023E+01
 20
2.44222946E+02
  0
VERTEX
  8
0
 62
4
 10
-1.12389324E+01
 20
2.44066927E+02
  0
VERTEX
  8
0
 62
4
 10
-1.11630589E+01
 20
2.43913431E+02
  0
VERTEX
  8
0
 62
4
 10
-1.10576925E+01
 20
2.43763693E+02
  0
VERTEX
  8
0
 62
4
 10
-1.09236817E+01
 20
2.43618919E+02
  0
VERTEX
  8
0
 62
4
 10
-1.07621054E+01
 20
2.43480275E+02
  0
VERTEX
  8
0
 62
4
 10
-1.05742646E+01
 20
2.43348877E+02
  0
VERTEX
  8
0
 62
4
 10
-1.03616716E+01
 20
2.43225782E+02
  0
VERTEX
  8
0
 62
4
 10
-1.01260381E+01
 20
2.43111983E+02
  0
VERTEX
  8
0
 62
4
 10
-9.86926126E+00
 20
2.43008395E+02
  0
VERTEX
  8
0
 62
4
 10
-9.59340854E+00
 20
2.42915851E+02
  0
VERTEX
  8
0
 62
4
 10
-9.30070093E+00
 20
2.42835099E+02
  0
VERTEX
  8
0
 62
4
 10
-8.99349514E+00
 20
2.42766786E+02
  0
VERTEX
  8
0
 62
4
 10
-8.67426460E+00
 20
2.42711465E+02
  0
VERTEX
  8
0
 62
4
 10
-8.34557957E+00
 20
2.42669579E+02
  0
VERTEX
  8
0
 62
4
 10
-8.01008643E+00
 20
2.42641466E+02
  0
VERTEX
  8
0
 62
4
 10
-7.67048638E+00
 20
2.42627353E+02
  0
VERTEX
  8
0
 62
4
 10
-7.32951367E+00
 20
2.42627353E+02
  0
VERTEX
  8
0
 62
4
 10
-6.98991361E+00
 20
2.42641466E+02
  0
VERTEX
  8
0
 62
4
 10
-6.65442047E+00
 20
2.42669579E+02
  0
VERTEX
  8
0
 62
4
 10
-6.32573544E+00
 20
2.42711465E+02
  0
VERTEX
  8
0
 62
4
 10
-6.00650490E+00
 20
2.42766786E+02
  0
VERTEX
  8
0
 62
4
 10
-5.69929910E+00
 20
2.42835099E+02
  0
VERTEX
  8
0
 62
4
 10
-5.40659149E+00
 20
2.42915851E+02
  0
VERTEX
  8
0
 62
4
 10
-5.13073877E+00
 20
2.43008395E+02
  0
VERTEX
  8
0
 62
4
 10
-4.87396195E+00
 20
2.43111983E+02
  0
VERTEX
  8
0
 62
4
 10
-4.63832845E+00
 20
2.43225782E+02
  0
VERTEX
  8
0
 62
4
 10
-4.42573544E+00
 20
2.43348877E+02
  0
VERTEX
  8
0
 62
4
 10
-4.23789460E+00
 20
2.43480275E+02
  0
VERTEX
  8
0
 62
4
 10
-4.07631831E+00
 20
2.43618919E+02
  0
VERTEX
  8
0
 62
4
 10
-3.94230750E+00
 20
2.43763693E+02
  0
VERTEX
  8
0
 62
4
 10
-3.83694114E+00
 20
2.43913431E+02
  0
VERTEX
  8
0
 62
4
 10
-3.76106757E+00
 20
2.44066927E+02
  0
VERTEX
  8
0
 62
4
 10
-3.71529769E+00
 20
2.44222946E+02
  0
VERTEX
  8
0
 62
4
 10
-3.70000000E+00
 20
2.44380231E+02
  0
SEQEND
  8
0
  0
LINE
  8
0
 62
4
 10
-1.13000000E+01
 20
2.45267241E+02
 11
-1.13000000E+01
 21
2.44380231E+02
  0
LINE
  8
0
 62
4
 10
-3.70000000E+00
 20
2.45267241E+02
 11
-3.70000000E+00
 21
2.44380231E+02
  0
ARC
  8
0
 62
4
 10
3.73148086E+00
 20
2.40225197E+02
 40
9.13527383E+00
 50
1.02413151E+02
 51
1.27011803E+02
  0
ARC
  8
0
 62
4
 10
-3.73148102E+00
 20
2.40225197E+02
 40
9.13527424E+00
 50
5.29881979E+01
 51
7.75868484E+01
  0
POLYLINE
  8
0
 62
4
 66
1
  0
VERTEX
  8
0
 62
4
 10
-4.15000000E+00
 20
2.46333415E+02
  0
VERTEX
  8
0
 62
4
 10
-4.13329332E+00
 20
2.46161643E+02
  0
VERTEX
  8
0
 62
4
 10
-4.08330780E+00
 20
2.45991254E+02
  0
VERTEX
  8
0
 62
4
 10
-4.00044588E+00
 20
2.45823620E+02
  0
VERTEX
  8
0
 62
4
 10
-3.88537472E+00
 20
2.45660091E+02
  0
VERTEX
  8
0
 62
4
 10
-3.73902081E+00
 20
2.45501982E+02
  0
VERTEX
  8
0
 62
4
 10
-3.56256250E+00
 20
2.45350568E+02
  0
VERTEX
  8
0
 62
4
 10
-3.35742054E+00
 20
2.45207068E+02
  0
VERTEX
  8
0
 62
4
 10
-3.12524660E+00
 20
2.45072635E+02
  0
VERTEX
  8
0
 62
4
 10
-2.86791001E+00
 20
2.44948354E+02
  0
VERTEX
  8
0
 62
4
 10
-2.58748269E+00
 20
2.44835225E+02
  0
VERTEX
  8
0
 62
4
 10
-2.28622249E+00
 20
2.44734158E+02
  0
VERTEX
  8
0
 62
4
 10
-1.96655497E+00
 20
2.44645968E+02
  0
VERTEX
  8
0
 62
4
 10
-1.63105390E+00
 20
2.44571364E+02
  0
VERTEX
  8
0
 62
4
 10
-1.28242055E+00
 20
2.44510947E+02
  0
VERTEX
  8
0
 62
4
 10
-9.23461896E-01
 20
2.44465203E+02
  0
VERTEX
  8
0
 62
4
 10
-5.57068074E-01
 20
2.44434501E+02
  0
VERTEX
  8
0
 62
4
 10
-1.86189068E-01
 20
2.44419088E+02
  0
VERTEX
  8
0
 62
4
 10
1.86189024E-01
 20
2.44419088E+02
  0
VERTEX
  8
0
 62
4
 10
5.57068031E-01
 20
2.44434501E+02
  0
VERTEX
  8
0
 62
4
 10
9.23461853E-01
 20
2.44465203E+02
  0
VERTEX
  8
0
 62
4
 10
1.28242050E+00
 20
2.44510947E+02
  0
VERTEX
  8
0
 62
4
 10
1.63105386E+00
 20
2.44571364E+02
  0
VERTEX
  8
0
 62
4
 10
1.96655493E+00
 20
2.44645968E+02
  0
VERTEX
  8
0
 62
4
 10
2.28622245E+00
 20
2.44734158E+02
  0
VERTEX
  8
0
 62
4
 10
2.58748266E+00
 20
2.44835225E+02
  0
VERTEX
  8
0
 62
4
 10
2.86790997E+00
 20
2.44948354E+02
  0
VERTEX
  8
0
 62
4
 10
3.12524657E+00
 20
2.45072635E+02
  0
VERTEX
  8
0
 62
4
 10
3.35742051E+00
 20
2.45207068E+02
  0
VERTEX
  8
0
 62
4
 10
3.56256248E+00
 20
2.45350568E+02
  0
VERTEX
  8
0
 62
4
 10
3.73902079E+00
 20
2.45501982E+02
  0
VERTEX
  8
0
 62
4
 10
3.88537470E+00
 20
2.45660091E+02
  0
VERTEX
  8
0
 62
4
 10
4.00044586E+00
 20
2.45823620E+02
  0
VERTEX
  8
0
 62
4
 10
4.08330779E+00
 20
2.45991254E+02
  0
VERTEX
  8
0
 62
4
 10
4.13329332E+00
 20
2.46161643E+02
  0
VERTEX
  8
0
 62
4
 10
4.15000000E+00
 20
2.46333415E+02
  0
SEQEND
  8
0
  0
POLYLINE
  8
0
 62
4
 66
1
  0
VERTEX
  8
0
 62
4
 10
4.15000000E+00
 20
2.47894554E+02
  0
VERTEX
  8
0
 62
4
 10
4.13420800E+00
 20
2.48061567E+02
  0
VERTEX
  8
0
 62
4
 10
4.08695218E+00
 20
2.48227308E+02
  0
VERTEX
  8
0
 62
4
 10
4.00859218E+00
 20
2.48390518E+02
  0
VERTEX
  8
0
 62
4
 10
3.89972438E+00
 20
2.48549952E+02
  0
VERTEX
  8
0
 62
4
 10
3.76117732E+00
 20
2.48704399E+02
  0
VERTEX
  8
0
 62
4
 10
3.59400543E+00
 20
2.48852682E+02
  0
VERTEX
  8
0
 62
4
 10
3.39948098E+00
 20
2.48993674E+02
  0
VERTEX
  8
0
 62
4
 10
3.17908444E+00
 20
2.49126300E+02
  0
VERTEX
  8
0
 62
4
 10
2.93449314E+00
 20
2.49249552E+02
  0
VERTEX
  8
0
 62
4
 10
2.66756858E+00
 20
2.49362492E+02
  0
VERTEX
  8
0
 62
4
 10
2.38034221E+00
 20
2.49464260E+02
  0
VERTEX
  8
0
 62
4
 10
2.07500000E+00
 20
2.49554081E+02
  0
VERTEX
  8
0
 62
4
 10
1.75386578E+00
 20
2.49631272E+02
  0
VERTEX
  8
0
 62
4
 10
1.41938359E+00
 20
2.49695246E+02
  0
VERTEX
  8
0
 62
4
 10
1.07409904E+00
 20
2.49745516E+02
  0
VERTEX
  8
0
 62
4
 10
7.20639935E-01
 20
2.49781698E+02
  0
VERTEX
  8
0
 62
4
 10
3.61696330E-01
 20
2.49803519E+02
  0
VERTEX
  8
0
 62
4
 10
-2.72967170E-09
 20
2.49810811E+02
  0
VERTEX
  8
0
 62
4
 10
-3.61696335E-01
 20
2.49803519E+02
  0
VERTEX
  8
0
 62
4
 10
-7.20639940E-01
 20
2.49781698E+02
  0
VERTEX
  8
0
 62
4
 10
-1.07409904E+00
 20
2.49745516E+02
  0
VERTEX
  8
0
 62
4
 10
-1.41938360E+00
 20
2.49695246E+02
  0
VERTEX
  8
0
 62
4
 10
-1.75386579E+00
 20
2.49631272E+02
  0
VERTEX
  8
0
 62
4
 10
-2.07500000E+00
 20
2.49554081E+02
  0
VERTEX
  8
0
 62
4
 10
-2.38034221E+00
 20
2.49464260E+02
  0
VERTEX
  8
0
 62
4
 10
-2.66756858E+00
 20
2.49362492E+02
  0
VERTEX
  8
0
 62
4
 10
-2.93449314E+00
 20
2.49249552E+02
  0
VERTEX
  8
0
 62
4
 10
-3.17908444E+00
 20
2.49126300E+02
  0
VERTEX
  8
0
 62
4
 10
-3.39948099E+00
 20
2.48993674E+02
  0
VERTEX
  8
0
 62
4
 10
-3.59400543E+00
 20
2.48852682E+02
  0
VERTEX
  8
0
 62
4
 10
-3.76117732E+00
 20
2.48704399E+02
  0
VERTEX
  8
0
 62
4
 10
-3.89972438E+00
 20
2.48549952E+02
  0
VERTEX
  8
0
 62
4
 10
-4.00859218E+00
 20
2.48390518E+02
  0
VERTEX
  8
0
 62
4
 10
-4.08695218E+00
 20
2.48227308E+02
  0
VERTEX
  8
0
 62
4
 10
-4.13420800E+00
 20
2.48061567E+02
  0
VERTEX
  8
0
 62
4
 10
-4.15000000E+00
 20
2.47894554E+02
  0
VERTEX
  8
0
 62
4
 10
-4.13420800E+00
 20
2.47727541E+02
  0
VERTEX
  8
0
 62
4
 10
-4.08695217E+00
 20
2.47561800E+02
  0
VERTEX
  8
0
 62
4
 10
-4.00859218E+00
 20
2.47398590E+02
  0
VERTEX
  8
0
 62
4
 10
-3.89972437E+00
 20
2.47239156E+02
  0
VERTEX
  8
0
 62
4
 10
-3.76117731E+00
 20
2.47084709E+02
  0
VERTEX
  8
0
 62
4
 10
-3.59400542E+00
 20
2.46936426E+02
  0
VERTEX
  8
0
 62
4
 10
-3.39948098E+00
 20
2.46795434E+02
  0
VERTEX
  8
0
 62
4
 10
-3.17908443E+00
 20
2.46662808E+02
  0
VERTEX
  8
0
 62
4
 10
-2.93449314E+00
 20
2.46539556E+02
  0
VERTEX
  8
0
 62
4
 10
-2.66756857E+00
 20
2.46426616E+02
  0
VERTEX
  8
0
 62
4
 10
-2.38034220E+00
 20
2.46324848E+02
  0
VERTEX
  8
0
 62
4
 10
-2.07499999E+00
 20
2.46235027E+02
  0
VERTEX
  8
0
 62
4
 10
-1.75386578E+00
 20
2.46157836E+02
  0
VERTEX
  8
0
 62
4
 10
-1.41938359E+00
 20
2.46093862E+02
  0
VERTEX
  8
0
 62
4
 10
-1.07409903E+00
 20
2.46043592E+02
  0
VERTEX
  8
0
 62
4
 10
-7.20639929E-01
 20
2.46007410E+02
  0
VERTEX
  8
0
 62
4
 10
-3.61696324E-01
 20
2.45985589E+02
  0
VERTEX
  8
0
 62
4
 10
8.97504590E-09
 20
2.45978297E+02
  0
VERTEX
  8
0
 62
4
 10
3.61696342E-01
 20
2.45985589E+02
  0
VERTEX
  8
0
 62
4
 10
7.20639946E-01
 20
2.46007410E+02
  0
VERTEX
  8
0
 62
4
 10
1.07409905E+00
 20
2.46043592E+02
  0
VERTEX
  8
0
 62
4
 10
1.41938360E+00
 20
2.46093862E+02
  0
VERTEX
  8
0
 62
4
 10
1.75386580E+00
 20
2.46157836E+02
  0
VERTEX
  8
0
 62
4
 10
2.07500001E+00
 20
2.46235027E+02
  0
VERTEX
  8
0
 62
4
 10
2.38034222E+00
 20
2.46324848E+02
  0
VERTEX
  8
0
 62
4
 10
2.66756859E+00
 20
2.46426616E+02
  0
VERTEX
  8
0
 62
4
 10
2.93449315E+00
 20
2.46539556E+02
  0
VERTEX
  8
0
 62
4
 10
3.17908445E+00
 20
2.46662808E+02
  0
VERTEX
  8
0
 62
4
 10
3.39948099E+00
 20
2.46795434E+02
  0
VERTEX
  8
0
 62
4
 10
3.59400543E+00
 20
2.46936426E+02
  0
VERTEX
  8
0
 62
4
 10
3.76117732E+00
 20
2.47084709E+02
  0
VERTEX
  8
0
 62
4
 10
3.89972438E+00
 20
2.47239156E+02
  0
VERTEX
  8
0
 62
4
 10
4.00859218E+00
 20
2.47398590E+02
  0
VERTEX
  8
0
 62
4
 10
4.08695218E+00
 20
2.47561800E+02
  0
VERTEX
  8
0
 62
4
 10
4.13420800E+00
 20
2.47727541E+02
  0
VERTEX
  8
0
 62
4
 10
4.15000000E+00
 20
2.47894554E+02
  0
SEQEND
  8
0
  0
LINE
  8
0
 62
4
 10
-4.15000000E+00
 20
2.46333415E+02
 11
-4.15000000E+00
 21
2.47894554E+02
  0
LINE
  8
0
 62
4
 10
4.15000000E+00
 20
2.46333415E+02
 11
4.15000000E+00
 21
2.47894554E+02
  0
POLYLINE
  8
0
 62
4
 66
1
  0
VERTEX
  8
0
 62
4
 10
-3.97201005E+00
 20
2.45778233E+02
  0
VERTEX
  8
0
 62
4
 10
-3.91510396E+00
 20
2.45617841E+02
  0
VERTEX
  8
0
 62
4
 10
-3.82788106E+00
 20
2.45460379E+02
  0
VERTEX
  8
0
 62
4
 10
-3.71101676E+00
 20
2.45307068E+02
  0
VERTEX
  8
0
 62
4
 10
-3.56541602E+00
 20
2.45159094E+02
  0
VERTEX
  8
0
 62
4
 10
-3.39220628E+00
 20
2.45017603E+02
  0
VERTEX
  8
0
 62
4
 10
-3.19272882E+00
 20
2.44883692E+02
  0
VERTEX
  8
0
 62
4
 10
-2.96852830E+00
 20
2.44758396E+02
  0
VERTEX
  8
0
 62
4
 10
-2.72134083E+00
 20
2.44642687E+02
  0
VERTEX
  8
0
 62
4
 10
-2.45308051E+00
 20
2.44537459E+02
  0
VERTEX
  8
0
 62
4
 10
-2.16582464E+00
 20
2.44443529E+02
  0
VERTEX
  8
0
 62
4
 10
-1.86179759E+00
 20
2.44361623E+02
  0
VERTEX
  8
0
 62
4
 10
-1.54335361E+00
 20
2.44292376E+02
  0
VERTEX
  8
0
 62
4
 10
-1.21295859E+00
 20
2.44236324E+02
  0
VERTEX
  8
0
 62
4
 10
-8.73170971E-01
 20
2.44193900E+02
  0
VERTEX
  8
0
 62
4
 10
-5.26621903E-01
 20
2.44165434E+02
  0
VERTEX
  8
0
 62
4
 10
-1.75994910E-01
 20
2.44151145E+02
  0
VERTEX
  8
0
 62
4
 10
1.75994908E-01
 20
2.44151145E+02
  0
VERTEX
  8
0
 62
4
 10
5.26621900E-01
 20
2.44165434E+02
  0
VERTEX
  8
0
 62
4
 10
8.73170969E-01
 20
2.44193900E+02
  0
VERTEX
  8
0
 62
4
 10
1.21295859E+00
 20
2.44236324E+02
  0
VERTEX
  8
0
 62
4
 10
1.54335361E+00
 20
2.44292376E+02
  0
VERTEX
  8
0
 62
4
 10
1.86179758E+00
 20
2.44361623E+02
  0
VERTEX
  8
0
 62
4
 10
2.16582463E+00
 20
2.44443529E+02
  0
VERTEX
  8
0
 62
4
 10
2.45308051E+00
 20
2.44537459E+02
  0
VERTEX
  8
0
 62
4
 10
2.72134083E+00
 20
2.44642687E+02
  0
VERTEX
  8
0
 62
4
 10
2.96852830E+00
 20
2.44758396E+02
  0
VERTEX
  8
0
 62
4
 10
3.19272882E+00
 20
2.44883692E+02
  0
VERTEX
  8
0
 62
4
 10
3.39220628E+00
 20
2.45017603E+02
  0
VERTEX
  8
0
 62
4
 10
3.56541601E+00
 20
2.45159094E+02
  0
VERTEX
  8
0
 62
4
 10
3.71101676E+00
 20
2.45307068E+02
  0
VERTEX
  8
0
 62
4
 10
3.82788106E+00
 20
2.45460379E+02
  0
VERTEX
  8
0
 62
4
 10
3.91510396E+00
 20
2.45617841E+02
  0
VERTEX
  8
0
 62
4
 10
3.97201005E+00
 20
2.45778233E+02
  0
SEQEND
  8
0
  0
POLYLINE
  8
0
 62
4
 66
1
  0
VERTEX
  8
0
 62
4
 10
-1.35000000E+01
 20
2.12857128E+02
  0
VERTEX
  8
0
 62
4
 10
-1.34919486E+01
 20
2.12818325E+02
  0
VERTEX
  8
0
 62
4
 10
-1.34678592E+01
 20
2.12779834E+02
  0
VERTEX
  8
0
 62
4
 10
-1.34279257E+01
 20
2.12741966E+02
  0
VERTEX
  8
0
 62
4
 10
-1.33724697E+01
 20
2.12705025E+02
  0
VERTEX
  8
0
 62
4
 10
-1.33019377E+01
 20
2.12669309E+02
  0
VERTEX
  8
0
 62
4
 10
-1.32168976E+01
 20
2.12635105E+02
  0
VERTEX
  8
0
 62
4
 10
-1.31180340E+01
 20
2.12602688E+02
  0
VERTEX
  8
0
 62
4
 10
-1.30061429E+01
 20
2.12572320E+02
  0
VERTEX
  8
0
 62
4
 10
-1.28821253E+01
 20
2.12544245E+02
  0
VERTEX
  8
0
 62
4
 10
-1.27469796E+01
 20
2.12518689E+02
  0
VERTEX
  8
0
 62
4
 10
-1.26017940E+01
 20
2.12495859E+02
  0
VERTEX
  8
0
 62
4
 10
-1.24477373E+01
 20
2.12475936E+02
  0
VERTEX
  8
0
 62
4
 10
-1.22860501E+01
 20
2.12459084E+02
  0
VERTEX
  8
0
 62
4
 10
-1.21180340E+01
 20
2.12445435E+02
  0
VERTEX
  8
0
 62
4
 10
-1.19450419E+01
 20
2.12435102E+02
  0
VERTEX
  8
0
 62
4
 10
-1.17684665E+01
 20
2.12428166E+02
  0
VERTEX
  8
0
 62
4
 10
-1.15897297E+01
 20
2.12424685E+02
  0
VERTEX
  8
0
 62
4
 10
-1.14102704E+01
 20
2.12424685E+02
  0
VERTEX
  8
0
 62
4
 10
-1.12315335E+01
 20
2.12428166E+02
  0
VERTEX
  8
0
 62
4
 10
-1.10549581E+01
 20
2.12435102E+02
  0
VERTEX
  8
0
 62
4
 10
-1.08819660E+01
 20
2.12445435E+02
  0
VERTEX
  8
0
 62
4
 10
-1.07139499E+01
 20
2.12459084E+02
  0
VERTEX
  8
0
 62
4
 10
-1.05522627E+01
 20
2.12475936E+02
  0
VERTEX
  8
0
 62
4
 10
-1.03982060E+01
 20
2.12495859E+02
  0
VERTEX
  8
0
 62
4
 10
-1.02530204E+01
 20
2.12518689E+02
  0
VERTEX
  8
0
 62
4
 10
-1.01178747E+01
 20
2.12544245E+02
  0
VERTEX
  8
0
 62
4
 10
-9.99385708E+00
 20
2.12572320E+02
  0
VERTEX
  8
0
 62
4
 10
-9.88196602E+00
 20
2.12602688E+02
  0
VERTEX
  8
0
 62
4
 10
-9.78310242E+00
 20
2.12635105E+02
  0
VERTEX
  8
0
 62
4
 10
-9.69806227E+00
 20
2.12669309E+02
  0
VERTEX
  8
0
 62
4
 10
-9.62753026E+00
 20
2.12705025E+02
  0
VERTEX
  8
0
 62
4
 10
-9.57207428E+00
 20
2.12741966E+02
  0
VERTEX
  8
0
 62
4
 10
-9.53214083E+00
 20
2.12779834E+02
  0
VERTEX
  8
0
 62
4
 10
-9.50805141E+00
 20
2.12818325E+02
  0
VERTEX
  8
0
 62
4
 10
-9.50000000E+00
 20
2.12857128E+02
  0
SEQEND
  8
0
  0
POLYLINE
  8
0
 62
4
 66
1
  0
VERTEX
  8
0
 62
4
 10
-5.50000003E+00
 20
2.12857128E+02
  0
VERTEX
  8
0
 62
4
 10
-5.49194862E+00
 20
2.12818325E+02
  0
VERTEX
  8
0
 62
4
 10
-5.46785921E+00
 20
2.12779834E+02
  0
VERTEX
  8
0
 62
4
 10
-5.42792575E+00
 20
2.12741966E+02
  0
VERTEX
  8
0
 62
4
 10
-5.37246977E+00
 20
2.12705025E+02
  0
VERTEX
  8
0
 62
4
 10
-5.30193777E+00
 20
2.12669309E+02
  0
VERTEX
  8
0
 62
4
 10
-5.21689762E+00
 20
2.12635105E+02
  0
VERTEX
  8
0
 62
4
 10
-5.11803402E+00
 20
2.12602688E+02
  0
VERTEX
  8
0
 62
4
 10
-5.00614297E+00
 20
2.12572320E+02
  0
VERTEX
  8
0
 62
4
 10
-4.88212533E+00
 20
2.12544245E+02
  0
VERTEX
  8
0
 62
4
 10
-4.74697964E+00
 20
2.12518689E+02
  0
VERTEX
  8
0
 62
4
 10
-4.60179400E+00
 20
2.12495859E+02
  0
VERTEX
  8
0
 62
4
 10
-4.44773736E+00
 20
2.12475936E+02
  0
VERTEX
  8
0
 62
4
 10
-4.28605010E+00
 20
2.12459084E+02
  0
VERTEX
  8
0
 62
4
 10
-4.11803403E+00
 20
2.12445435E+02
  0
VERTEX
  8
0
 62
4
 10
-3.94504191E+00
 20
2.12435102E+02
  0
VERTEX
  8
0
 62
4
 10
-3.76846657E+00
 20
2.12428166E+02
  0
VERTEX
  8
0
 62
4
 10
-3.58972970E+00
 20
2.12424685E+02
  0
VERTEX
  8
0
 62
4
 10
-3.41027038E+00
 20
2.12424685E+02
  0
VERTEX
  8
0
 62
4
 10
-3.23153351E+00
 20
2.12428166E+02
  0
VERTEX
  8
0
 62
4
 10
-3.05495817E+00
 20
2.12435102E+02
  0
VERTEX
  8
0
 62
4
 10
-2.88196605E+00
 20
2.12445435E+02
  0
VERTEX
  8
0
 62
4
 10
-2.71394998E+00
 20
2.12459084E+02
  0
VERTEX
  8
0
 62
4
 10
-2.55226272E+00
 20
2.12475936E+02
  0
VERTEX
  8
0
 62
4
 10
-2.39820608E+00
 20
2.12495859E+02
  0
VERTEX
  8
0
 62
4
 10
-2.25302044E+00
 20
2.12518689E+02
  0
VERTEX
  8
0
 62
4
 10
-2.11787474E+00
 20
2.12544245E+02
  0
VERTEX
  8
0
 62
4
 10
-1.99385711E+00
 20
2.12572320E+02
  0
VERTEX
  8
0
 62
4
 10
-1.88196605E+00
 20
2.12602688E+02
  0
VERTEX
  8
0
 62
4
 10
-1.78310245E+00
 20
2.12635105E+02
  0
VERTEX
  8
0
 62
4
 10
-1.69806230E+00
 20
2.12669309E+02
  0
VERTEX
  8
0
 62
4
 10
-1.62753029E+00
 20
2.12705025E+02
  0
VERTEX
  8
0
 62
4
 10
-1.57207431E+00
 20
2.12741966E+02
  0
VERTEX
  8
0
 62
4
 10
-1.53214086E+00
 20
2.12779834E+02
  0
VERTEX
  8
0
 62
4
 10
-1.50805144E+00
 20
2.12818325E+02
  0
VERTEX
  8
0
 62
4
 10
-1.50000003E+00
 20
2.12857128E+02
  0
SEQEND
  8
0
  0
LINE
  8
0
 62
4
 10
1.50000000E+01
 20
2.49359818E+02
 11
1.50000000E+01
 21
2.49690340E+02
  0
LINE
  8
0
 62
4
 10
1.50000000E+01
 20
2.47104547E+02
 11
1.50000000E+01
 21
2.49359818E+02
  0
LINE
  8
0
 62
4
 10
1.65000000E+01
 20
2.47142846E+02
 11
1.50000000E+01
 21
2.47512824E+02
  0
LINE
  8
0
 62
4
 10
1.65000000E+01
 20
2.48188706E+02
 11
1.50000000E+01
 21
2.49359818E+02
  0
LINE
  8
0
 62
4
 10
1.50000000E+01
 20
2.43964781E+02
 11
1.65000000E+01
 21
2.45133766E+02
  0
LINE
  8
0
 62
4
 10
-8.50000000E+00
 20
2.49228591E+02
 11
-1.50000000E+01
 21
2.49228591E+02
  0
LINE
  8
0
 62
4
 10
1.50000000E+01
 20
2.47104547E+02
 11
4.15000000E+00
 21
2.47104547E+02
  0
LINE
  8
0
 62
4
 10
1.50000000E+01
 20
2.49359818E+02
 11
2.67445339E+00
 21
2.49359818E+02
  0
LINE
  8
0
 62
4
 10
1.50000000E+01
 20
2.47512824E+02
 11
4.15000000E+00
 21
2.47512824E+02
  0
LINE
  8
0
  6
CENTER
 62
6
 10
9.00000000E+00
 20
2.44380231E+02
 11
6.00000000E+00
 21
2.44380231E+02
  0
LINE
  8
0
 62
4
 10
1.50000000E+01
 20
2.49690340E+02
 11
1.44824543E+00
 21
2.49690340E+02
  0
LINE
  8
0
 62
6
 10
-1.00000000E+01
 20
2.12570805E+02
 11
-1.00000000E+01
 21
2.15189924E+02
  0
LINE
  8
0
 62
6
 10
-1.30000000E+01
 20
2.12570805E+02
 11
-1.30000000E+01
 21
2.15189924E+02
  0
LINE
  8
0
 62
4
 10
-9.50000003E+00
 20
2.12857128E+02
 11
-9.50000003E+00
 21
2.15189924E+02
  0
LINE
  8
0
 62
4
 10
-1.35000000E+01
 20
2.12857128E+02
 11
-1.35000000E+01
 21
2.15189924E+02
  0
LINE
  8
0
 62
6
 10
-2.00000003E+00
 20
2.12570805E+02
 11
-2.00000003E+00
 21
2.15189924E+02
  0
LINE
  8
0
 62
6
 10
-5.00000003E+00
 20
2.12570805E+02
 11
-5.00000003E+00
 21
2.15189924E+02
  0
LINE
  8
0
 62
4
 10
-1.50000003E+00
 20
2.12857128E+02
 11
-1.50000003E+00
 21
2.15189924E+02
  0
LINE
  8
0
 62
4
 10
-5.50000003E+00
 20
2.12857128E+02
 11
-5.50000003E+00
 21
2.15189924E+02
  0
LINE
  8
0
 62
4
 10
1.65000000E+01
 20
2.45133766E+02
 11
1.65000000E+01
 21
2.48188706E+02
  0
LINE
  8
0
 62
4
 10
1.50000000E+01
 20
2.40486066E+02
 11
1.50000000E+01
 21
2.40086066E+02
  0
LINE
  8
0
 62
4
 10
-2.90511082E-08
 20
2.15189924E+02
 11
-1.50000000E+01
 21
2.15189924E+02
  0
LINE
  8
0
 62
4
 10
1.50000000E+01
 20
2.33166150E+02
 11
-1.50000000E+01
 21
2.33166150E+02
  0
LINE
  8
0
 62
4
 10
3.30970806E-10
 20
2.15189924E+02
 11
2.35417019E-10
 21
2.33166150E+02
  0
LINE
  8
0
 62
4
 10
-1.50000000E+01
 20
2.15189924E+02
 11
-1.50000000E+01
 21
2.49690340E+02
  0
LINE
  8
0
 62
4
 10
1.50000000E+01
 20
2.33166150E+02
 11
1.50000000E+01
 21
2.47104547E+02
  0
LINE
  8
0
  6
CENTER
 62
6
 10
-1.15000000E+01
 20
2.09424345E+02
 11
-1.15000000E+01
 21
2.16936613E+02
  0
LINE
  8
0
  6
CENTER
 62
6
 10
-3.50000003E+00
 20
2.09424345E+02
 11
-3.50000003E+00
 21
2.16936613E+02
  0
LINE
  8
0
  6
CENTER
 62
6
 10
7.50000000E+00
 20
2.42880231E+02
 11
7.50000000E+00
 21
2.45880231E+02
  0
LINE
  8
0
 62
4
 10
1.50000000E+01
 20
2.42302362E+02
 11
-1.50000000E+01
 21
2.42302362E+02
  0
LINE
  8
0
 62
4
 10
-8.50000000E+00
 20
2.49359818E+02
 11
-8.50000000E+00
 21
2.48252567E+02
  0
LINE
  8
0
 62
7
 10
-4.55000000E+01
 20
3.46250000E+02
 11
2.70000000E+01
 21
3.46250000E+02
  0
LINE
  8
0
 62
7
 10
-5.35000000E+01
 20
3.46250000E+02
 11
-4.95000000E+01
 21
3.46250000E+02
  0
LINE
  8
0
 62
7
 10
-5.90000000E+01
 20
3.37250031E+02
 11
-9.00000000E+01
 21
3.37250031E+02
  0
LINE
  8
0
 62
7
 10
-7.40000000E+01
 20
3.26250031E+02
 11
-9.00000000E+01
 21
3.26250031E+02
  0
LINE
  8
0
 62
7
 10
-9.50000003E+00
 20
2.13250000E+02
 11
-5.50000003E+00
 21
2.13250000E+02
  0
LINE
  8
0
 62
7
 10
-1.50000003E+00
 20
2.13250000E+02
 11
2.70000000E+01
 21
2.13250000E+02
  0
LINE
  8
0
 62
7
 10
-1.50000000E+01
 20
2.22249969E+02
 11
-9.00000000E+01
 21
2.22249969E+02
  0
LINE
  8
0
 62
7
 10
-1.50000000E+01
 20
2.33249969E+02
 11
-9.00000000E+01
 21
2.33249969E+02
  0
LINE
  8
0
 62
4
 10
-4.40000000E+01
 20
3.14337701E+02
 11
-3.31339746E+01
 21
3.14337701E+02
  0
LINE
  8
0
  6
CENTER
 62
6
 10
-7.90000000E+01
 20
3.12837701E+02
 11
-3.20000000E+01
 21
3.12837701E+02
  0
LINE
  8
0
 62
4
 10
-4.40000000E+01
 20
3.11337701E+02
 11
-3.48660254E+01
 21
3.11337701E+02
  0
LINE
  8
0
 62
6
 10
-3.57320508E+01
 20
3.09837700E+02
 11
-3.22679492E+01
 21
3.15837700E+02
  0
LINE
  8
0
 62
4
 10
-1.50000000E+01
 20
2.45162299E+02
 11
-2.58660254E+01
 21
2.45162299E+02
  0
LINE
  8
0
  6
CENTER
 62
6
 10
2.00000000E+01
 20
2.46662299E+02
 11
-2.70000000E+01
 21
2.46662299E+02
  0
LINE
  8
0
 62
4
 10
-1.50000000E+01
 20
2.48162299E+02
 11
-2.41339746E+01
 21
2.48162299E+02
  0
LINE
  8
0
 62
6
 10
-2.32679491E+01
 20
2.49662300E+02
 11
-2.67320508E+01
 21
2.43662300E+02
  0
LINE
  8
0
 62
4
 10
-1.35133267E+02
 20
-2.59750298E+02
 11
-1.30133267E+02
 21
-2.59750289E+02
  0
LINE
  8
0
 62
4
 10
-1.35133277E+02
 20
-2.53710283E+02
 11
-1.30133277E+02
 21
-2.53710274E+02
  0
LINE
  8
0
 62
4
 10
-1.35133290E+02
 20
-2.46832332E+02
 11
-1.30133290E+02
 21
-2.46832323E+02
  0
POLYLINE
  8
0
 62
4
 66
1
  0
VERTEX
  8
0
 62
4
 10
-1.11533211E+02
 20
-2.75157602E+02
  0
VERTEX
  8
0
 62
4
 10
-1.11520277E+02
 20
-2.75436666E+02
  0
VERTEX
  8
0
 62
4
 10
-1.11481565E+02
 20
-2.75713607E+02
  0
VERTEX
  8
0
 62
4
 10
-1.11417370E+02
 20
-2.75986317E+02
  0
VERTEX
  8
0
 62
4
 10
-1.11328181E+02
 20
-2.76252720E+02
  0
VERTEX
  8
0
 62
4
 10
-1.11214677E+02
 20
-2.76510789E+02
  0
VERTEX
  8
0
 62
4
 10
-1.11077720E+02
 20
-2.76758560E+02
  0
VERTEX
  8
0
 62
4
 10
-1.10918354E+02
 20
-2.76994146E+02
  0
VERTEX
  8
0
 62
4
 10
-1.10737791E+02
 20
-2.77215756E+02
  0
VERTEX
  8
0
 62
4
 10
-1.10537406E+02
 20
-2.77421703E+02
  0
VERTEX
  8
0
 62
4
 10
-1.10318723E+02
 20
-2.77610419E+02
  0
VERTEX
  8
0
 62
4
 10
-1.10083408E+02
 20
-2.77780467E+02
  0
VERTEX
  8
0
 62
4
 10
-1.09833250E+02
 20
-2.77930555E+02
  0
VERTEX
  8
0
 62
4
 10
-1.09570154E+02
 20
-2.78059539E+02
  0
VERTEX
  8
0
 62
4
 10
-1.09296122E+02
 20
-2.78166437E+02
  0
VERTEX
  8
0
 62
4
 10
-1.09013239E+02
 20
-2.78250438E+02
  0
VERTEX
  8
0
 62
4
 10
-1.08723659E+02
 20
-2.78310900E+02
  0
VERTEX
  8
0
 62
4
 10
-1.08429585E+02
 20
-2.78347364E+02
  0
VERTEX
  8
0
 62
4
 10
-1.08133256E+02
 20
-2.78359552E+02
  0
VERTEX
  8
0
 62
4
 10
-1.07836926E+02
 20
-2.78347372E+02
  0
VERTEX
  8
0
 62
4
 10
-1.07542852E+02
 20
-2.78310916E+02
  0
VERTEX
  8
0
 62
4
 10
-1.07253270E+02
 20
-2.78250462E+02
  0
VERTEX
  8
0
 62
4
 10
-1.06970385E+02
 20
-2.78166470E+02
  0
VERTEX
  8
0
 62
4
 10
-1.06696350E+02
 20
-2.78059579E+02
  0
VERTEX
  8
0
 62
4
 10
-1.06433250E+02
 20
-2.77930603E+02
  0
VERTEX
  8
0
 62
4
 10
-1.06183088E+02
 20
-2.77780522E+02
  0
VERTEX
  8
0
 62
4
 10
-1.05947768E+02
 20
-2.77610480E+02
  0
VERTEX
  8
0
 62
4
 10
-1.05729080E+02
 20
-2.77421771E+02
  0
VERTEX
  8
0
 62
4
 10
-1.05528689E+02
 20
-2.77215830E+02
  0
VERTEX
  8
0
 62
4
 10
-1.05348120E+02
 20
-2.76994225E+02
  0
VERTEX
  8
0
 62
4
 10
-1.05188747E+02
 20
-2.76758643E+02
  0
VERTEX
  8
0
 62
4
 10
-1.05051784E+02
 20
-2.76510876E+02
  0
VERTEX
  8
0
 62
4
 10
-1.04938272E+02
 20
-2.76252810E+02
  0
VERTEX
  8
0
 62
4
 10
-1.04849075E+02
 20
-2.75986409E+02
  0
VERTEX
  8
0
 62
4
 10
-1.04784872E+02
 20
-2.75713702E+02
  0
VERTEX
  8
0
 62
4
 10
-1.04746153E+02
 20
-2.75436762E+02
  0
VERTEX
  8
0
 62
4
 10
-1.04733211E+02
 20
-2.75157698E+02
  0
VERTEX
  8
0
 62
4
 10
-1.04746145E+02
 20
-2.74878634E+02
  0
VERTEX
  8
0
 62
4
 10
-1.04784857E+02
 20
-2.74601693E+02
  0
VERTEX
  8
0
 62
4
 10
-1.04849052E+02
 20
-2.74328983E+02
  0
VERTEX
  8
0
 62
4
 10
-1.04938241E+02
 20
-2.74062580E+02
  0
VERTEX
  8
0
 62
4
 10
-1.05051745E+02
 20
-2.73804511E+02
  0
VERTEX
  8
0
 62
4
 10
-1.05188702E+02
 20
-2.73556740E+02
  0
VERTEX
  8
0
 62
4
 10
-1.05348068E+02
 20
-2.73321154E+02
  0
VERTEX
  8
0
 62
4
 10
-1.05528631E+02
 20
-2.73099544E+02
  0
VERTEX
  8
0
 62
4
 10
-1.05729016E+02
 20
-2.72893597E+02
  0
VERTEX
  8
0
 62
4
 10
-1.05947699E+02
 20
-2.72704881E+02
  0
VERTEX
  8
0
 62
4
 10
-1.06183014E+02
 20
-2.72534833E+02
  0
VERTEX
  8
0
 62
4
 10
-1.06433172E+02
 20
-2.72384745E+02
  0
VERTEX
  8
0
 62
4
 10
-1.06696268E+02
 20
-2.72255761E+02
  0
VERTEX
  8
0
 62
4
 10
-1.06970300E+02
 20
-2.72148863E+02
  0
VERTEX
  8
0
 62
4
 10
-1.07253183E+02
 20
-2.72064862E+02
  0
VERTEX
  8
0
 62
4
 10
-1.07542763E+02
 20
-2.72004400E+02
  0
VERTEX
  8
0
 62
4
 10
-1.07836837E+02
 20
-2.71967936E+02
  0
VERTEX
  8
0
 62
4
 10
-1.08133166E+02
 20
-2.71955748E+02
  0
VERTEX
  8
0
 62
4
 10
-1.08429496E+02
 20
-2.71967928E+02
  0
VERTEX
  8
0
 62
4
 10
-1.08723570E+02
 20
-2.72004384E+02
  0
VERTEX
  8
0
 62
4
 10
-1.09013152E+02
 20
-2.72064838E+02
  0
VERTEX
  8
0
 62
4
 10
-1.09296037E+02
 20
-2.72148830E+02
  0
VERTEX
  8
0
 62
4
 10
-1.09570072E+02
 20
-2.72255721E+02
  0
VERTEX
  8
0
 62
4
 10
-1.09833172E+02
 20
-2.72384697E+02
  0
VERTEX
  8
0
 62
4
 10
-1.10083334E+02
 20
-2.72534778E+02
  0
VERTEX
  8
0
 62
4
 10
-1.10318654E+02
 20
-2.72704820E+02
  0
VERTEX
  8
0
 62
4
 10
-1.10537342E+02
 20
-2.72893529E+02
  0
VERTEX
  8
0
 62
4
 10
-1.10737733E+02
 20
-2.73099470E+02
  0
VERTEX
  8
0
 62
4
 10
-1.10918302E+02
 20
-2.73321075E+02
  0
VERTEX
  8
0
 62
4
 10
-1.11077675E+02
 20
-2.73556657E+02
  0
VERTEX
  8
0
 62
4
 10
-1.11214638E+02
 20
-2.73804424E+02
  0
VERTEX
  8
0
 62
4
 10
-1.11328151E+02
 20
-2.74062490E+02
  0
VERTEX
  8
0
 62
4
 10
-1.11417347E+02
 20
-2.74328891E+02
  0
VERTEX
  8
0
 62
4
 10
-1.11481550E+02
 20
-2.74601598E+02
  0
VERTEX
  8
0
 62
4
 10
-1.11520269E+02
 20
-2.74878538E+02
  0
VERTEX
  8
0
 62
4
 10
-1.11533211E+02
 20
-2.75157602E+02
  0
SEQEND
  8
0
  0
POLYLINE
  8
0
 62
4
 66
1
  0
VERTEX
  8
0
 62
4
 10
-1.11512797E+02
 20
-2.75507985E+02
  0
VERTEX
  8
0
 62
4
 10
-1.11532447E+02
 20
-2.75783073E+02
  0
VERTEX
  8
0
 62
4
 10
-1.11525524E+02
 20
-2.76058678E+02
  0
VERTEX
  8
0
 62
4
 10
-1.11492083E+02
 20
-2.76332645E+02
  0
VERTEX
  8
0
 62
4
 10
-1.11432384E+02
 20
-2.76602833E+02
  0
VERTEX
  8
0
 62
4
 10
-1.11346896E+02
 20
-2.76867128E+02
  0
VERTEX
  8
0
 62
4
 10
-1.11236286E+02
 20
-2.77123466E+02
  0
VERTEX
  8
0
 62
4
 10
-1.11101418E+02
 20
-2.77369843E+02
  0
VERTEX
  8
0
 62
4
 10
-1.10943347E+02
 20
-2.77604331E+02
  0
VERTEX
  8
0
 62
4
 10
-1.10763308E+02
 20
-2.77825099E+02
  0
VERTEX
  8
0
 62
4
 10
-1.10562710E+02
 20
-2.78030421E+02
  0
VERTEX
  8
0
 62
4
 10
-1.10343120E+02
 20
-2.78218691E+02
  0
VERTEX
  8
0
 62
4
 10
-1.10106255E+02
 20
-2.78388438E+02
  0
VERTEX
  8
0
 62
4
 10
-1.09853965E+02
 20
-2.78538335E+02
  0
VERTEX
  8
0
 62
4
 10
-1.09588225E+02
 20
-2.78667210E+02
  0
VERTEX
  8
0
 62
4
 10
-1.09311110E+02
 20
-2.78774056E+02
  0
VERTEX
  8
0
 62
4
 10
-1.09024787E+02
 20
-2.78858037E+02
  0
VERTEX
  8
0
 62
4
 10
-1.08731495E+02
 20
-2.78918497E+02
  0
VERTEX
  8
0
 62
4
 10
-1.08433526E+02
 20
-2.78954963E+02
  0
VERTEX
  8
0
 62
4
 10
-1.08133209E+02
 20
-2.78967150E+02
  0
VERTEX
  8
0
 62
4
 10
-1.07832892E+02
 20
-2.78954964E+02
  0
VERTEX
  8
0
 62
4
 10
-1.07534923E+02
 20
-2.78918498E+02
  0
VERTEX
  8
0
 62
4
 10
-1.07241631E+02
 20
-2.78858039E+02
  0
VERTEX
  8
0
 62
4
 10
-1.06955308E+02
 20
-2.78774059E+02
  0
VERTEX
  8
0
 62
4
 10
-1.06678194E+02
 20
-2.78667214E+02
  0
VERTEX
  8
0
 62
4
 10
-1.06412453E+02
 20
-2.78538340E+02
  0
VERTEX
  8
0
 62
4
 10
-1.06160164E+02
 20
-2.78388443E+02
  0
VERTEX
  8
0
 62
4
 10
-1.05923299E+02
 20
-2.78218697E+02
  0
VERTEX
  8
0
 62
4
 10
-1.05703708E+02
 20
-2.78030427E+02
  0
VERTEX
  8
0
 62
4
 10
-1.05503110E+02
 20
-2.77825106E+02
  0
VERTEX
  8
0
 62
4
 10
-1.05323072E+02
 20
-2.77604338E+02
  0
VERTEX
  8
0
 62
4
 10
-1.05165001E+02
 20
-2.77369850E+02
  0
VERTEX
  8
0
 62
4
 10
-1.05030134E+02
 20
-2.77123474E+02
  0
VERTEX
  8
0
 62
4
 10
-1.04919523E+02
 20
-2.76867136E+02
  0
VERTEX
  8
0
 62
4
 10
-1.04834035E+02
 20
-2.76602841E+02
  0
VERTEX
  8
0
 62
4
 10
-1.04774337E+02
 20
-2.76332654E+02
  0
VERTEX
  8
0
 62
4
 10
-1.04740896E+02
 20
-2.76058687E+02
  0
VERTEX
  8
0
 62
4
 10
-1.04733973E+02
 20
-2.75783082E+02
  0
VERTEX
  8
0
 62
4
 10
-1.04753623E+02
 20
-2.75507993E+02
  0
SEQEND
  8
0
  0
POLYLINE
  8
0
 62
4
 66
1
  0
VERTEX
  8
0
 62
4
 10
-1.10626432E+02
 20
-2.72980657E+02
  0
VERTEX
  8
0
 62
4
 10
-1.10892165E+02
 20
-2.73193122E+02
  0
VERTEX
  8
0
 62
4
 10
-1.11136466E+02
 20
-2.73426218E+02
  0
VERTEX
  8
0
 62
4
 10
-1.11357437E+02
 20
-2.73678136E+02
  0
VERTEX
  8
0
 62
4
 10
-1.11553362E+02
 20
-2.73946919E+02
  0
VERTEX
  8
0
 62
4
 10
-1.11722720E+02
 20
-2.74230479E+02
  0
VERTEX
  8
0
 62
4
 10
-1.11864193E+02
 20
-2.74526612E+02
  0
VERTEX
  8
0
 62
4
 10
-1.11976684E+02
 20
-2.74833019E+02
  0
VERTEX
  8
0
 62
4
 10
-1.12059318E+02
 20
-2.75147320E+02
  0
VERTEX
  8
0
 62
4
 10
-1.12111454E+02
 20
-2.75467072E+02
  0
VERTEX
  8
0
 62
4
 10
-1.12132686E+02
 20
-2.75789792E+02
  0
VERTEX
  8
0
 62
4
 10
-1.12122851E+02
 20
-2.76112974E+02
  0
VERTEX
  8
0
 62
4
 10
-1.12082023E+02
 20
-2.76434106E+02
  0
VERTEX
  8
0
 62
4
 10
-1.12010520E+02
 20
-2.76750693E+02
  0
VERTEX
  8
0
 62
4
 10
-1.11908898E+02
 20
-2.77060278E+02
  0
VERTEX
  8
0
 62
4
 10
-1.11777946E+02
 20
-2.77360454E+02
  0
VERTEX
  8
0
 62
4
 10
-1.11618681E+02
 20
-2.77648891E+02
  0
VERTEX
  8
0
 62
4
 10
-1.11432341E+02
 20
-2.77923346E+02
  0
VERTEX
  8
0
 62
4
 10
-1.11220373E+02
 20
-2.78181690E+02
  0
VERTEX
  8
0
 62
4
 10
-1.10984423E+02
 20
-2.78421913E+02
  0
VERTEX
  8
0
 62
4
 10
-1.10726325E+02
 20
-2.78642151E+02
  0
VERTEX
  8
0
 62
4
 10
-1.10448083E+02
 20
-2.78840693E+02
  0
VERTEX
  8
0
 62
4
 10
-1.10151859E+02
 20
-2.79015996E+02
  0
VERTEX
  8
0
 62
4
 10
-1.09839954E+02
 20
-2.79166699E+02
  0
VERTEX
  8
0
 62
4
 10
-1.09514791E+02
 20
-2.79291631E+02
  0
VERTEX
  8
0
 62
4
 10
-1.09178896E+02
 20
-2.79389821E+02
  0
VERTEX
  8
0
 62
4
 10
-1.08834877E+02
 20
-2.79460506E+02
  0
VERTEX
  8
0
 62
4
 10
-1.08485408E+02
 20
-2.79503139E+02
  0
VERTEX
  8
0
 62
4
 10
-1.08133203E+02
 20
-2.79517386E+02
  0
VERTEX
  8
0
 62
4
 10
-1.07780998E+02
 20
-2.79503139E+02
  0
VERTEX
  8
0
 62
4
 10
-1.07431530E+02
 20
-2.79460506E+02
  0
VERTEX
  8
0
 62
4
 10
-1.07087511E+02
 20
-2.79389821E+02
  0
VERTEX
  8
0
 62
4
 10
-1.06751616E+02
 20
-2.79291631E+02
  0
VERTEX
  8
0
 62
4
 10
-1.06426454E+02
 20
-2.79166699E+02
  0
VERTEX
  8
0
 62
4
 10
-1.06114549E+02
 20
-2.79015996E+02
  0
VERTEX
  8
0
 62
4
 10
-1.05818326E+02
 20
-2.78840693E+02
  0
VERTEX
  8
0
 62
4
 10
-1.05540085E+02
 20
-2.78642151E+02
  0
VERTEX
  8
0
 62
4
 10
-1.05281987E+02
 20
-2.78421913E+02
  0
VERTEX
  8
0
 62
4
 10
-1.05046039E+02
 20
-2.78181690E+02
  0
VERTEX
  8
0
 62
4
 10
-1.04834071E+02
 20
-2.77923346E+02
  0
VERTEX
  8
0
 62
4
 10
-1.04647732E+02
 20
-2.77648891E+02
  0
VERTEX
  8
0
 62
4
 10
-1.04488469E+02
 20
-2.77360454E+02
  0
VERTEX
  8
0
 62
4
 10
-1.04357518E+02
 20
-2.77060278E+02
  0
VERTEX
  8
0
 62
4
 10
-1.04255897E+02
 20
-2.76750693E+02
  0
VERTEX
  8
0
 62
4
 10
-1.04184395E+02
 20
-2.76434106E+02
  0
VERTEX
  8
0
 62
4
 10
-1.04143569E+02
 20
-2.76112974E+02
  0
VERTEX
  8
0
 62
4
 10
-1.04133734E+02
 20
-2.75789792E+02
  0
VERTEX
  8
0
 62
4
 10
-1.04154967E+02
 20
-2.75467072E+02
  0
VERTEX
  8
0
 62
4
 10
-1.04207104E+02
 20
-2.75147320E+02
  0
VERTEX
  8
0
 62
4
 10
-1.04289740E+02
 20
-2.74833019E+02
  0
VERTEX
  8
0
 62
4
 10
-1.04402232E+02
 20
-2.74526612E+02
  0
VERTEX
  8
0
 62
4
 10
-1.04543706E+02
 20
-2.74230479E+02
  0
VERTEX
  8
0
 62
4
 10
-1.04713064E+02
 20
-2.73946919E+02
  0
VERTEX
  8
0
 62
4
 10
-1.04908991E+02
 20
-2.73678136E+02
  0
VERTEX
  8
0
 62
4
 10
-1.05129963E+02
 20
-2.73426218E+02
  0
VERTEX
  8
0
 62
4
 10
-1.05374265E+02
 20
-2.73193122E+02
  0
VERTEX
  8
0
 62
4
 10
-1.05639998E+02
 20
-2.72980657E+02
  0
SEQEND
  8
0
  0
POLYLINE
  8
0
 62
4
 66
1
  0
VERTEX
  8
0
 62
4
 10
-1.12131733E+02
 20
-2.75948824E+02
  0
VERTEX
  8
0
 62
4
 10
-1.12125624E+02
 20
-2.76274322E+02
  0
VERTEX
  8
0
 62
4
 10
-1.12088071E+02
 20
-2.76598042E+02
  0
VERTEX
  8
0
 62
4
 10
-1.12019369E+02
 20
-2.76917434E+02
  0
VERTEX
  8
0
 62
4
 10
-1.11920060E+02
 20
-2.77229982E+02
  0
VERTEX
  8
0
 62
4
 10
-1.11790924E+02
 20
-2.77533225E+02
  0
VERTEX
  8
0
 62
4
 10
-1.11632981E+02
 20
-2.77824774E+02
  0
VERTEX
  8
0
 62
4
 10
-1.11447473E+02
 20
-2.78102333E+02
  0
VERTEX
  8
0
 62
4
 10
-1.11235861E+02
 20
-2.78363716E+02
  0
VERTEX
  8
0
 62
4
 10
-1.10999813E+02
 20
-2.78606865E+02
  0
VERTEX
  8
0
 62
4
 10
-1.10741187E+02
 20
-2.78829864E+02
  0
VERTEX
  8
0
 62
4
 10
-1.10462020E+02
 20
-2.79030957E+02
  0
VERTEX
  8
0
 62
4
 10
-1.10164512E+02
 20
-2.79208559E+02
  0
VERTEX
  8
0
 62
4
 10
-1.09851004E+02
 20
-2.79361273E+02
  0
VERTEX
  8
0
 62
4
 10
-1.09523968E+02
 20
-2.79487896E+02
  0
VERTEX
  8
0
 62
4
 10
-1.09185977E+02
 20
-2.79587430E+02
  0
VERTEX
  8
0
 62
4
 10
-1.08839695E+02
 20
-2.79659090E+02
  0
VERTEX
  8
0
 62
4
 10
-1.08487849E+02
 20
-2.79702314E+02
  0
VERTEX
  8
0
 62
4
 10
-1.08133209E+02
 20
-2.79716760E+02
  0
VERTEX
  8
0
 62
4
 10
-1.07778569E+02
 20
-2.79702315E+02
  0
VERTEX
  8
0
 62
4
 10
-1.07426723E+02
 20
-2.79659092E+02
  0
VERTEX
  8
0
 62
4
 10
-1.07080441E+02
 20
-2.79587432E+02
  0
VERTEX
  8
0
 62
4
 10
-1.06742450E+02
 20
-2.79487899E+02
  0
VERTEX
  8
0
 62
4
 10
-1.06415414E+02
 20
-2.79361278E+02
  0
VERTEX
  8
0
 62
4
 10
-1.06101907E+02
 20
-2.79208564E+02
  0
VERTEX
  8
0
 62
4
 10
-1.05804398E+02
 20
-2.79030962E+02
  0
VERTEX
  8
0
 62
4
 10
-1.05525232E+02
 20
-2.78829870E+02
  0
VERTEX
  8
0
 62
4
 10
-1.05266606E+02
 20
-2.78606872E+02
  0
VERTEX
  8
0
 62
4
 10
-1.05030558E+02
 20
-2.78363724E+02
  0
VERTEX
  8
0
 62
4
 10
-1.04818946E+02
 20
-2.78102341E+02
  0
VERTEX
  8
0
 62
4
 10
-1.04633438E+02
 20
-2.77824783E+02
  0
VERTEX
  8
0
 62
4
 10
-1.04475495E+02
 20
-2.77533234E+02
  0
VERTEX
  8
0
 62
4
 10
-1.04346360E+02
 20
-2.77229991E+02
  0
VERTEX
  8
0
 62
4
 10
-1.04247050E+02
 20
-2.76917443E+02
  0
VERTEX
  8
0
 62
4
 10
-1.04178349E+02
 20
-2.76598052E+02
  0
VERTEX
  8
0
 62
4
 10
-1.04140796E+02
 20
-2.76274332E+02
  0
VERTEX
  8
0
 62
4
 10
-1.04134687E+02
 20
-2.75948834E+02
  0
SEQEND
  8
0
  0
LINE
  8
0
 62
4
 10
-1.15633294E+02
 20
-2.44370225E+02
 11
-1.00633294E+02
 21
-2.44370198E+02
  0
LINE
  8
0
 62
6
 10
-1.06418275E+02
 20
-2.76367939E+02
 11
-1.09848149E+02
 21
-2.72938070E+02
  0
LINE
  8
0
 62
6
 10
-1.09848147E+02
 20
-2.76367942E+02
 11
-1.06418277E+02
 21
-2.72938067E+02
  0
LINE
  8
0
  6
CENTER
 62
6
 10
-1.14903212E+02
 20
-2.74653017E+02
 11
-1.01073212E+02
 21
-2.74652992E+02
  0
ARC
  8
0
 62
4
 10
-1.18635725E+02
 20
-2.71456066E+02
 40
1.49752302E+00
 50
8.99052542E+01
 51
1.80094952E+02
  0
LINE
  8
0
 62
4
 10
-1.20133245E+02
 20
-2.71458548E+02
 11
-1.20133223E+02
 21
-2.83750000E+02
  0
LINE
  8
0
  6
CENTER
 62
6
 10
-1.08133201E+02
 20
-2.81053004E+02
 11
-1.08133224E+02
 21
-2.68253004E+02
  0
LINE
  8
0
 62
4
 10
-8.11332455E+01
 20
-2.71458478E+02
 11
-8.11332234E+01
 21
-2.83750000E+02
  0
ARC
  8
0
 62
4
 10
-8.26307665E+01
 20
-2.71456002E+02
 40
1.49752302E+00
 50
3.59905254E+02
 51
9.00949513E+01
  0
LINE
  8
0
 62
4
 10
-1.18633248E+02
 20
-2.69958545E+02
 11
-8.26332482E+01
 21
-2.69958481E+02
  0
LINE
  8
0
 62
4
 10
-1.20133227E+02
 20
-2.81550951E+02
 11
-8.11332274E+01
 21
-2.81550881E+02
  0
LINE
  8
0
 62
4
 10
-1.20133225E+02
 20
-2.82926541E+02
 11
-8.11332249E+01
 21
-2.82926471E+02
  0
LINE
  8
0
 62
4
 10
-1.17633254E+02
 20
-2.66499232E+02
 11
-9.86332544E+01
 21
-2.66499198E+02
  0
LINE
  8
0
 62
4
 10
-1.00633294E+02
 20
-2.44370198E+02
 11
-1.00633254E+02
 21
-2.66499202E+02
  0
LINE
  8
0
 62
4
 10
-1.15633294E+02
 20
-2.44370198E+02
 11
-1.15633254E+02
 21
-2.66499229E+02
  0
LINE
  8
0
 62
4
 10
-1.15633255E+02
 20
-2.66379667E+02
 11
-1.00633255E+02
 21
-2.66379640E+02
  0
LINE
  8
0
 62
4
 10
-1.35133291E+02
 20
-2.45976055E+02
 11
-1.30133291E+02
 21
-2.45976046E+02
  0
LINE
  8
0
 62
4
 10
-1.24633254E+02
 20
-2.59856626E+02
 11
-1.16133254E+02
 21
-2.59856611E+02
  0
LINE
  8
0
 62
4
 10
-1.15633291E+02
 20
-2.45856621E+02
 11
-1.24633291E+02
 21
-2.45856637E+02
  0
LINE
  8
0
 62
4
 10
-1.25133291E+02
 20
-2.46356638E+02
 11
-1.25133267E+02
 21
-2.59356638E+02
  0
LINE
  8
0
 62
4
 10
-1.35133291E+02
 20
-2.45976055E+02
 11
-1.35133267E+02
 21
-2.59750298E+02
  0
LINE
  8
0
 62
4
 10
-1.30133291E+02
 20
-2.45976055E+02
 11
-1.30133267E+02
 21
-2.59750298E+02
  0
LINE
  8
0
 62
4
 10
-1.30133290E+02
 20
-2.46606630E+02
 11
-1.25133290E+02
 21
-2.46606621E+02
  0
LINE
  8
0
 62
4
 10
-1.30133268E+02
 20
-2.59106630E+02
 11
-1.25133268E+02
 21
-2.59106621E+02
  0
LINE
  8
0
 62
4
 10
-1.28633290E+02
 20
-2.46606627E+02
 11
-1.28633268E+02
 21
-2.59106627E+02
  0
LINE
  8
0
 62
4
 10
-1.28633289E+02
 20
-2.47106627E+02
 11
-1.25133289E+02
 21
-2.47106621E+02
  0
LINE
  8
0
 62
4
 10
-1.28633269E+02
 20
-2.58606627E+02
 11
-1.25133269E+02
 21
-2.58606621E+02
  0
ARC
  8
0
 62
4
 10
-1.24635765E+02
 20
-2.46354162E+02
 40
4.97531232E-01
 50
8.97150889E+01
 51
1.80285117E+02
  0
ARC
  8
0
 62
4
 10
-1.16130779E+02
 20
-2.60354136E+02
 40
4.97531232E-01
 50
3.59715089E+02
 51
9.02851166E+01
  0
ARC
  8
0
 62
4
 10
-1.24630768E+02
 20
-2.59354139E+02
 40
5.02493390E-01
 50
1.80283706E+02
 51
2.69716500E+02
  0
LINE
  8
0
 62
4
 10
-9.86332544E+01
 20
-2.66499198E+02
 11
-9.86332482E+01
 21
-2.69958509E+02
  0
LINE
  8
0
 62
4
 10
-1.17633254E+02
 20
-2.66499232E+02
 11
-1.17633248E+02
 21
-2.69958544E+02
  0
LINE
  8
0
 62
4
 10
-4.65731225E+02
 20
-2.81033197E+02
 11
-4.65202144E+02
 21
-2.82250000E+02
  0
ARC
  8
0
 62
4
 10
-4.63438553E+02
 20
-2.80036333E+02
 40
2.50001642E+00
 50
1.13500376E+02
 51
2.03499624E+02
  0
LINE
  8
0
 62
4
 10
-4.66030444E+02
 20
-2.74075434E+02
 11
-4.64435448E+02
 21
-2.77743674E+02
  0
LINE
  8
0
 62
4
 10
-4.74165051E+02
 20
-2.50351434E+02
 11
-4.69680627E+02
 21
-2.48401551E+02
  0
LINE
  8
0
 62
4
 10
-4.60409149E+02
 20
-2.44370198E+02
 11
-4.50440423E+02
 21
-2.67296700E+02
  0
LINE
  8
0
 62
4
 10
-4.74165051E+02
 20
-2.50351434E+02
 11
-4.64196324E+02
 21
-2.73277936E+02
  0
LINE
  8
0
 62
4
 10
-4.66030444E+02
 20
-2.74075434E+02
 11
-4.48606303E+02
 21
-2.66499202E+02
  0
LINE
  8
0
 62
4
 10
-4.64595073E+02
 20
-2.72360876E+02
 11
-4.50839172E+02
 21
-2.66379640E+02
  0
LINE
  8
0
 62
4
 10
-4.48606303E+02
 20
-2.66499202E+02
 11
-4.47011306E+02
 21
-2.70167442E+02
  0
LINE
  8
0
 62
4
 10
-4.43721783E+02
 20
-2.71463220E+02
 11
-4.39031558E+02
 21
-2.82250000E+02
  0
LINE
  8
0
 62
4
 10
-4.54367505E+02
 20
-2.82089537E+02
 11
-4.50699264E+02
 21
-2.80494541E+02
  0
LINE
  8
0
 62
4
 10
-4.54367505E+02
 20
-2.82089537E+02
 11
-4.54297733E+02
 21
-2.82250000E+02
  0
LINE
  8
0
 62
4
 10
-4.50699264E+02
 20
-2.80494541E+02
 11
-4.49935969E+02
 21
-2.82250000E+02
  0
LINE
  8
0
 62
4
 10
-4.61900000E+02
 20
-2.59750298E+02
 11
-4.57438406E+02
 21
-2.53710283E+02
  0
LINE
  8
0
 62
4
 10
-4.72350805E+02
 20
-2.52016070E+02
 11
-4.67889211E+02
 21
-2.45976055E+02
  0
LINE
  8
0
 62
4
 10
-4.72350805E+02
 20
-2.52016070E+02
 11
-4.69360187E+02
 21
-2.58894021E+02
  0
LINE
  8
0
 62
4
 10
-4.60429024E+02
 20
-2.46832332E+02
 11
-4.57438406E+02
 21
-2.53710283E+02
  0
LINE
  8
0
 62
4
 10
-4.69360187E+02
 20
-2.58894021E+02
 11
-4.61900000E+02
 21
-2.59750298E+02
  0
LINE
  8
0
 62
4
 10
-4.67889211E+02
 20
-2.45976055E+02
 11
-4.60429024E+02
 21
-2.46832332E+02
  0
LINE
  8
0
 62
4
 10
-4.64893573E+02
 20
-2.46320081E+02
 11
-4.60409149E+02
 21
-2.44370198E+02
  0
LINE
  8
0
 62
4
 10
-4.43323034E+02
 20
-2.72380280E+02
 11
-4.42864504E+02
 21
-2.72180905E+02
  0
LINE
  8
0
 62
4
 10
-4.40133042E+02
 20
-2.79716760E+02
 11
-4.39674512E+02
 21
-2.79517386E+02
  0
LINE
  8
0
 62
4
 10
-4.42625255E+02
 20
-2.72731141E+02
 11
-4.41038741E+02
 21
-2.72041305E+02
  0
LINE
  8
0
 62
4
 10
-4.38327247E+02
 20
-2.78277314E+02
 11
-4.39913761E+02
 21
-2.78967150E+02
  0
LINE
  8
0
 62
4
 10
-4.42864504E+02
 20
-2.72180905E+02
 11
-4.39674512E+02
 21
-2.79517386E+02
  0
ARC
  8
0
 62
4
 10
-4.38724941E+02
 20
-2.77356836E+02
 40
1.00271607E+00
 50
2.93366852E+02
 51
1.06670006E+01
  0
ARC
  8
0
 62
4
 10
-4.40634743E+02
 20
-2.72952357E+02
 40
9.96609194E-01
 50
3.60516727E+01
 51
1.13914475E+02
  0
CIRCLE
  8
0
 62
4
 10
-4.64892012E+02
 20
-2.52856621E+02
 40
3.75000000E+00
  0
ARC
  8
0
 62
4
 10
-4.49339246E+02
 20
-2.79380012E+02
 40
1.18081149E+01
 50
1.07810256E+01
 51
3.64102023E+01
  0
ARC
  8
0
 62
4
 10
-4.46011850E+02
 20
-2.72453533E+02
 40
2.49501993E+00
 50
2.33855230E+01
 51
1.13614477E+02
  0
ARC
  8
0
 62
4
 10
-4.64892012E+02
 20
-2.52856621E+02
 40
7.00000000E+00
 50
1.21736957E+02
 51
1.44581724E+02
  0
ARC
  8
0
 62
4
 10
-4.64892012E+02
 20
-2.52856621E+02
 40
7.00000000E+00
 50
8.24182754E+01
 51
1.05372928E+02
  0
LINE
  8
0
  6
CENTER
 62
6
 10
-4.55990466E+02
 20
-2.82250000E+02
 11
-4.35767148E+02
 21
-2.73456651E+02
  0
LINE
  8
0
 62
4
 10
-4.40943408E+02
 20
-2.82250000E+02
 11
-4.39335544E+02
 21
-2.81550881E+02
  0
LINE
  8
0
 62
4
 10
-4.64435448E+02
 20
-2.77743674E+02
 11
-4.47011306E+02
 21
-2.70167442E+02
  0
LINE
  8
0
 62
4
 10
-4.65531851E+02
 20
-2.81491727E+02
 11
-4.67275758E+02
 21
-2.82250000E+02
  0
LINE
  8
0
 62
4
 10
1.31022969E+02
 20
-2.71786426E+02
 11
1.36782106E+02
 21
-2.74290570E+02
  0
LINE
  8
0
 62
4
 10
1.36782106E+02
 20
-2.74290570E+02
 11
1.36713498E+02
 21
-2.75351180E+02
  0
LINE
  8
0
 62
4
 10
1.30294078E+02
 20
-2.72559937E+02
 11
1.31022969E+02
 21
-2.71786426E+02
  0
LINE
  8
0
  6
CENTER
 62
6
 10
1.34806628E+02
 20
-2.70959232E+02
 11
1.32909652E+02
 21
-2.75321978E+02
  0
LINE
  8
0
 62
4
 10
1.43511636E+02
 20
-2.81033197E+02
 11
1.42982556E+02
 21
-2.82250000E+02
  0
ARC
  8
0
 62
4
 10
1.23792261E+02
 20
-2.72453533E+02
 40
2.49501993E+00
 50
6.63855229E+01
 51
1.56614477E+02
  0
ARC
  8
0
 62
4
 10
1.27119657E+02
 20
-2.79380012E+02
 40
1.18081149E+01
 50
1.43559972E+02
 51
1.69218974E+02
  0
ARC
  8
0
 62
4
 10
1.18415154E+02
 20
-2.72952357E+02
 40
9.96609194E-01
 50
6.60855256E+01
 51
1.43948327E+02
  0
ARC
  8
0
 62
4
 10
1.16505353E+02
 20
-2.77356836E+02
 40
1.00271607E+00
 50
1.69332999E+02
 51
2.46633148E+02
  0
LINE
  8
0
 62
4
 10
1.20644916E+02
 20
-2.72180905E+02
 11
1.17454923E+02
 21
-2.79517386E+02
  0
LINE
  8
0
 62
4
 10
1.16107658E+02
 20
-2.78277314E+02
 11
1.17694172E+02
 21
-2.78967150E+02
  0
LINE
  8
0
 62
4
 10
1.20405666E+02
 20
-2.72731141E+02
 11
1.18819152E+02
 21
-2.72041305E+02
  0
LINE
  8
0
 62
4
 10
1.17913453E+02
 20
-2.79716760E+02
 11
1.17454923E+02
 21
-2.79517386E+02
  0
LINE
  8
0
 62
4
 10
1.21103446E+02
 20
-2.72380280E+02
 11
1.20644916E+02
 21
-2.72180905E+02
  0
LINE
  8
0
 62
4
 10
1.28479675E+02
 20
-2.80494541E+02
 11
1.27716380E+02
 21
-2.82250000E+02
  0
LINE
  8
0
 62
4
 10
1.32147916E+02
 20
-2.82089537E+02
 11
1.32078145E+02
 21
-2.82250000E+02
  0
LINE
  8
0
 62
4
 10
1.32147916E+02
 20
-2.82089537E+02
 11
1.28479675E+02
 21
-2.80494541E+02
  0
LINE
  8
0
 62
4
 10
1.21502195E+02
 20
-2.71463220E+02
 11
1.16811969E+02
 21
-2.82250000E+02
  0
LINE
  8
0
 62
4
 10
1.42215859E+02
 20
-2.77743674E+02
 11
1.24791717E+02
 21
-2.70167442E+02
  0
LINE
  8
0
 62
4
 10
1.43810855E+02
 20
-2.74075434E+02
 11
1.42215859E+02
 21
-2.77743674E+02
  0
LINE
  8
0
 62
4
 10
1.26386714E+02
 20
-2.66499202E+02
 11
1.24791717E+02
 21
-2.70167442E+02
  0
LINE
  8
0
 62
4
 10
1.42375484E+02
 20
-2.72360876E+02
 11
1.28619583E+02
 21
-2.66379640E+02
  0
LINE
  8
0
 62
4
 10
1.43810855E+02
 20
-2.74075434E+02
 11
1.26386714E+02
 21
-2.66499202E+02
  0
LINE
  8
0
 62
4
 10
1.18723820E+02
 20
-2.82250000E+02
 11
1.17115955E+02
 21
-2.81550881E+02
  0
ARC
  8
0
 62
4
 10
1.41218965E+02
 20
-2.80036333E+02
 40
2.50001642E+00
 50
3.36500376E+02
 51
6.64996234E+01
  0
LINE
  8
0
 62
4
 10
1.45669622E+02
 20
-2.45976055E+02
 11
1.44526240E+02
 21
-2.46107292E+02
  0
LINE
  8
0
 62
4
 10
1.46353427E+02
 20
-2.46901776E+02
 11
1.45669622E+02
 21
-2.45976055E+02
  0
LINE
  8
0
 62
4
 10
1.38189561E+02
 20
-2.44370198E+02
 11
1.51945462E+02
 21
-2.50351434E+02
  0
ARC
  8
0
 62
4
 10
1.42677002E+02
 20
-2.52858612E+02
 40
7.00000000E+00
 50
3.54182754E+01
 51
9.75817244E+01
  0
LINE
  8
0
 62
4
 10
1.38189561E+02
 20
-2.44370198E+02
 11
1.28220834E+02
 21
-2.67296700E+02
  0
LINE
  8
0
 62
4
 10
1.51945462E+02
 20
-2.50351434E+02
 11
1.41976735E+02
 21
-2.73277936E+02
  0
LINE
  8
0
 62
4
 10
1.43312262E+02
 20
-2.81491727E+02
 11
1.45056169E+02
 21
-2.82250000E+02
  0
LINE
  8
0
  6
CENTER
 62
6
 10
-1.08133364E+02
 20
-8.49449736E+01
 11
-1.08133364E+02
 21
-1.43486066E+02
  0
POLYLINE
  8
0
 62
4
 66
1
  0
VERTEX
  8
0
 62
4
 10
-1.04733364E+02
 20
-1.31002749E+02
  0
VERTEX
  8
0
 62
4
 10
-1.04746302E+02
 20
-1.30858222E+02
  0
VERTEX
  8
0
 62
4
 10
-1.04785018E+02
 20
-1.30714796E+02
  0
VERTEX
  8
0
 62
4
 10
-1.04849216E+02
 20
-1.30573560E+02
  0
VERTEX
  8
0
 62
4
 10
-1.04938409E+02
 20
-1.30435591E+02
  0
VERTEX
  8
0
 62
4
 10
-1.05051918E+02
 20
-1.30301939E+02
  0
VERTEX
  8
0
 62
4
 10
-1.05188878E+02
 20
-1.30173620E+02
  0
VERTEX
  8
0
 62
4
 10
-1.05348247E+02
 20
-1.30051611E+02
  0
VERTEX
  8
0
 62
4
 10
-1.05528813E+02
 20
-1.29936841E+02
  0
VERTEX
  8
0
 62
4
 10
-1.05729201E+02
 20
-1.29830184E+02
  0
VERTEX
  8
0
 62
4
 10
-1.05947886E+02
 20
-1.29732450E+02
  0
VERTEX
  8
0
 62
4
 10
-1.06183204E+02
 20
-1.29644384E+02
  0
VERTEX
  8
0
 62
4
 10
-1.06433364E+02
 20
-1.29566656E+02
  0
VERTEX
  8
0
 62
4
 10
-1.06696462E+02
 20
-1.29499857E+02
  0
VERTEX
  8
0
 62
4
 10
-1.06970496E+02
 20
-1.29444496E+02
  0
VERTEX
  8
0
 62
4
 10
-1.07253379E+02
 20
-1.29400995E+02
  0
VERTEX
  8
0
 62
4
 10
-1.07542960E+02
 20
-1.29369684E+02
  0
VERTEX
  8
0
 62
4
 10
-1.07837034E+02
 20
-1.29350801E+02
  0
VERTEX
  8
0
 62
4
 10
-1.08133364E+02
 20
-1.29344491E+02
  0
VERTEX
  8
0
 62
4
 10
-1.08429694E+02
 20
-1.29350801E+02
  0
VERTEX
  8
0
 62
4
 10
-1.08723768E+02
 20
-1.29369684E+02
  0
VERTEX
  8
0
 62
4
 10
-1.09013349E+02
 20
-1.29400995E+02
  0
VERTEX
  8
0
 62
4
 10
-1.09296232E+02
 20
-1.29444496E+02
  0
VERTEX
  8
0
 62
4
 10
-1.09570266E+02
 20
-1.29499857E+02
  0
VERTEX
  8
0
 62
4
 10
-1.09833364E+02
 20
-1.29566656E+02
  0
VERTEX
  8
0
 62
4
 10
-1.10083524E+02
 20
-1.29644384E+02
  0
VERTEX
  8
0
 62
4
 10
-1.10318842E+02
 20
-1.29732450E+02
  0
VERTEX
  8
0
 62
4
 10
-1.10537527E+02
 20
-1.29830184E+02
  0
VERTEX
  8
0
 62
4
 10
-1.10737915E+02
 20
-1.29936841E+02
  0
VERTEX
  8
0
 62
4
 10
-1.10918481E+02
 20
-1.30051611E+02
  0
VERTEX
  8
0
 62
4
 10
-1.11077850E+02
 20
-1.30173620E+02
  0
VERTEX
  8
0
 62
4
 10
-1.11214810E+02
 20
-1.30301939E+02
  0
VERTEX
  8
0
 62
4
 10
-1.11328319E+02
 20
-1.30435591E+02
  0
VERTEX
  8
0
 62
4
 10
-1.11417512E+02
 20
-1.30573560E+02
  0
VERTEX
  8
0
 62
4
 10
-1.11481710E+02
 20
-1.30714796E+02
  0
VERTEX
  8
0
 62
4
 10
-1.11520426E+02
 20
-1.30858222E+02
  0
VERTEX
  8
0
 62
4
 10
-1.11533364E+02
 20
-1.31002749E+02
  0
VERTEX
  8
0
 62
4
 10
-1.11520426E+02
 20
-1.31147276E+02
  0
VERTEX
  8
0
 62
4
 10
-1.11481710E+02
 20
-1.31290702E+02
  0
VERTEX
  8
0
 62
4
 10
-1.11417512E+02
 20
-1.31431938E+02
  0
VERTEX
  8
0
 62
4
 10
-1.11328319E+02
 20
-1.31569907E+02
  0
VERTEX
  8
0
 62
4
 10
-1.11214810E+02
 20
-1.31703559E+02
  0
VERTEX
  8
0
 62
4
 10
-1.11077850E+02
 20
-1.31831878E+02
  0
VERTEX
  8
0
 62
4
 10
-1.10918481E+02
 20
-1.31953887E+02
  0
VERTEX
  8
0
 62
4
 10
-1.10737915E+02
 20
-1.32068657E+02
  0
VERTEX
  8
0
 62
4
 10
-1.10537527E+02
 20
-1.32175314E+02
  0
VERTEX
  8
0
 62
4
 10
-1.10318842E+02
 20
-1.32273048E+02
  0
VERTEX
  8
0
 62
4
 10
-1.10083524E+02
 20
-1.32361114E+02
  0
VERTEX
  8
0
 62
4
 10
-1.09833364E+02
 20
-1.32438842E+02
  0
VERTEX
  8
0
 62
4
 10
-1.09570266E+02
 20
-1.32505641E+02
  0
VERTEX
  8
0
 62
4
 10
-1.09296232E+02
 20
-1.32561002E+02
  0
VERTEX
  8
0
 62
4
 10
-1.09013349E+02
 20
-1.32604503E+02
  0
VERTEX
  8
0
 62
4
 10
-1.08723768E+02
 20
-1.32635814E+02
  0
VERTEX
  8
0
 62
4
 10
-1.08429694E+02
 20
-1.32654697E+02
  0
VERTEX
  8
0
 62
4
 10
-1.08133364E+02
 20
-1.32661007E+02
  0
VERTEX
  8
0
 62
4
 10
-1.07837034E+02
 20
-1.32654697E+02
  0
VERTEX
  8
0
 62
4
 10
-1.07542960E+02
 20
-1.32635814E+02
  0
VERTEX
  8
0
 62
4
 10
-1.07253379E+02
 20
-1.32604503E+02
  0
VERTEX
  8
0
 62
4
 10
-1.06970496E+02
 20
-1.32561002E+02
  0
VERTEX
  8
0
 62
4
 10
-1.06696462E+02
 20
-1.32505641E+02
  0
VERTEX
  8
0
 62
4
 10
-1.06433364E+02
 20
-1.32438842E+02
  0
VERTEX
  8
0
 62
4
 10
-1.06183204E+02
 20
-1.32361114E+02
  0
VERTEX
  8
0
 62
4
 10
-1.05947886E+02
 20
-1.32273048E+02
  0
VERTEX
  8
0
 62
4
 10
-1.05729201E+02
 20
-1.32175314E+02
  0
VERTEX
  8
0
 62
4
 10
-1.05528813E+02
 20
-1.32068657E+02
  0
VERTEX
  8
0
 62
4
 10
-1.05348247E+02
 20
-1.31953887E+02
  0
VERTEX
  8
0
 62
4
 10
-1.05188878E+02
 20
-1.31831878E+02
  0
VERTEX
  8
0
 62
4
 10
-1.05051918E+02
 20
-1.31703559E+02
  0
VERTEX
  8
0
 62
4
 10
-1.04938409E+02
 20
-1.31569907E+02
  0
VERTEX
  8
0
 62
4
 10
-1.04849216E+02
 20
-1.31431938E+02
  0
VERTEX
  8
0
 62
4
 10
-1.04785018E+02
 20
-1.31290702E+02
  0
VERTEX
  8
0
 62
4
 10
-1.04746302E+02
 20
-1.31147276E+02
  0
VERTEX
  8
0
 62
4
 10
-1.04733364E+02
 20
-1.31002749E+02
  0
SEQEND
  8
0
  0
ARC
  8
0
 62
4
 10
-1.12368959E+02
 20
-1.20448074E+02
 40
1.21769740E+01
 50
2.81737853E+02
 51
2.99537899E+02
  0
ARC
  8
0
 62
4
 10
-1.03897769E+02
 20
-1.20448074E+02
 40
1.21769740E+01
 50
2.40462101E+02
 51
2.58262147E+02
  0
POLYLINE
  8
0
 62
4
 66
1
  0
VERTEX
  8
0
 62
4
 10
-8.89933642E+01
 20
-1.14261106E+02
  0
VERTEX
  8
0
 62
4
 10
-8.90053128E+01
 20
-1.14010135E+02
  0
VERTEX
  8
0
 62
4
 10
-8.90410679E+01
 20
-1.13761074E+02
  0
VERTEX
  8
0
 62
4
 10
-8.91003571E+01
 20
-1.13515819E+02
  0
VERTEX
  8
0
 62
4
 10
-8.91827294E+01
 20
-1.13276236E+02
  0
VERTEX
  8
0
 62
4
 10
-8.92875577E+01
 20
-1.13044148E+02
  0
VERTEX
  8
0
 62
4
 10
-8.94140444E+01
 20
-1.12821322E+02
  0
VERTEX
  8
0
 62
4
 10
-8.95612268E+01
 20
-1.12609453E+02
  0
VERTEX
  8
0
 62
4
 10
-8.97279846E+01
 20
-1.12410155E+02
  0
VERTEX
  8
0
 62
4
 10
-8.99130489E+01
 20
-1.12224943E+02
  0
VERTEX
  8
0
 62
4
 10
-9.01150111E+01
 20
-1.12055228E+02
  0
VERTEX
  8
0
 62
4
 10
-9.03323342E+01
 20
-1.11902301E+02
  0
VERTEX
  8
0
 62
4
 10
-9.05633642E+01
 20
-1.11767326E+02
  0
VERTEX
  8
0
 62
4
 10
-9.08063429E+01
 20
-1.11651331E+02
  0
VERTEX
  8
0
 62
4
 10
-9.10594210E+01
 20
-1.11555197E+02
  0
VERTEX
  8
0
 62
4
 10
-9.13206724E+01
 20
-1.11479656E+02
  0
VERTEX
  8
0
 62
4
 10
-9.15881089E+01
 20
-1.11425284E+02
  0
VERTEX
  8
0
 62
4
 10
-9.18596952E+01
 20
-1.11392495E+02
  0
VERTEX
  8
0
 62
4
 10
-9.21333642E+01
 20
-1.11381537E+02
  0
VERTEX
  8
0
 62
4
 10
-9.24070332E+01
 20
-1.11392495E+02
  0
VERTEX
  8
0
 62
4
 10
-9.26786195E+01
 20
-1.11425284E+02
  0
VERTEX
  8
0
 62
4
 10
-9.29460560E+01
 20
-1.11479656E+02
  0
VERTEX
  8
0
 62
4
 10
-9.32073075E+01
 20
-1.11555197E+02
  0
VERTEX
  8
0
 62
4
 10
-9.34603855E+01
 20
-1.11651331E+02
  0
VERTEX
  8
0
 62
4
 10
-9.37033642E+01
 20
-1.11767326E+02
  0
VERTEX
  8
0
 62
4
 10
-9.39343942E+01
 20
-1.11902301E+02
  0
VERTEX
  8
0
 62
4
 10
-9.41517173E+01
 20
-1.12055228E+02
  0
VERTEX
  8
0
 62
4
 10
-9.43536795E+01
 20
-1.12224943E+02
  0
VERTEX
  8
0
 62
4
 10
-9.45387438E+01
 20
-1.12410155E+02
  0
VERTEX
  8
0
 62
4
 10
-9.47055016E+01
 20
-1.12609453E+02
  0
VERTEX
  8
0
 62
4
 10
-9.48526840E+01
 20
-1.12821322E+02
  0
VERTEX
  8
0
 62
4
 10
-9.49791707E+01
 20
-1.13044148E+02
  0
VERTEX
  8
0
 62
4
 10
-9.50839990E+01
 20
-1.13276236E+02
  0
VERTEX
  8
0
 62
4
 10
-9.51663713E+01
 20
-1.13515819E+02
  0
VERTEX
  8
0
 62
4
 10
-9.52256605E+01
 20
-1.13761074E+02
  0
VERTEX
  8
0
 62
4
 10
-9.52614156E+01
 20
-1.14010135E+02
  0
VERTEX
  8
0
 62
4
 10
-9.52733642E+01
 20
-1.14261106E+02
  0
VERTEX
  8
0
 62
4
 10
-9.52614156E+01
 20
-1.14512077E+02
  0
VERTEX
  8
0
 62
4
 10
-9.52256605E+01
 20
-1.14761138E+02
  0
VERTEX
  8
0
 62
4
 10
-9.51663713E+01
 20
-1.15006393E+02
  0
VERTEX
  8
0
 62
4
 10
-9.50839990E+01
 20
-1.15245976E+02
  0
VERTEX
  8
0
 62
4
 10
-9.49791706E+01
 20
-1.15478064E+02
  0
VERTEX
  8
0
 62
4
 10
-9.48526840E+01
 20
-1.15700890E+02
  0
VERTEX
  8
0
 62
4
 10
-9.47055016E+01
 20
-1.15912759E+02
  0
VERTEX
  8
0
 62
4
 10
-9.45387437E+01
 20
-1.16112057E+02
  0
VERTEX
  8
0
 62
4
 10
-9.43536795E+01
 20
-1.16297269E+02
  0
VERTEX
  8
0
 62
4
 10
-9.41517173E+01
 20
-1.16466984E+02
  0
VERTEX
  8
0
 62
4
 10
-9.39343942E+01
 20
-1.16619911E+02
  0
VERTEX
  8
0
 62
4
 10
-9.37033642E+01
 20
-1.16754886E+02
  0
VERTEX
  8
0
 62
4
 10
-9.34603855E+01
 20
-1.16870881E+02
  0
VERTEX
  8
0
 62
4
 10
-9.32073074E+01
 20
-1.16967015E+02
  0
VERTEX
  8
0
 62
4
 10
-9.29460560E+01
 20
-1.17042556E+02
  0
VERTEX
  8
0
 62
4
 10
-9.26786195E+01
 20
-1.17096928E+02
  0
VERTEX
  8
0
 62
4
 10
-9.24070332E+01
 20
-1.17129717E+02
  0
VERTEX
  8
0
 62
4
 10
-9.21333642E+01
 20
-1.17140675E+02
  0
VERTEX
  8
0
 62
4
 10
-9.18596952E+01
 20
-1.17129717E+02
  0
VERTEX
  8
0
 62
4
 10
-9.15881089E+01
 20
-1.17096928E+02
  0
VERTEX
  8
0
 62
4
 10
-9.13206724E+01
 20
-1.17042556E+02
  0
VERTEX
  8
0
 62
4
 10
-9.10594209E+01
 20
-1.16967015E+02
  0
VERTEX
  8
0
 62
4
 10
-9.08063429E+01
 20
-1.16870881E+02
  0
VERTEX
  8
0
 62
4
 10
-9.05633642E+01
 20
-1.16754886E+02
  0
VERTEX
  8
0
 62
4
 10
-9.03323342E+01
 20
-1.16619911E+02
  0
VERTEX
  8
0
 62
4
 10
-9.01150111E+01
 20
-1.16466984E+02
  0
VERTEX
  8
0
 62
4
 10
-8.99130489E+01
 20
-1.16297269E+02
  0
VERTEX
  8
0
 62
4
 10
-8.97279846E+01
 20
-1.16112057E+02
  0
VERTEX
  8
0
 62
4
 10
-8.95612268E+01
 20
-1.15912759E+02
  0
VERTEX
  8
0
 62
4
 10
-8.94140444E+01
 20
-1.15700890E+02
  0
VERTEX
  8
0
 62
4
 10
-8.92875577E+01
 20
-1.15478064E+02
  0
VERTEX
  8
0
 62
4
 10
-8.91827294E+01
 20
-1.15245976E+02
  0
VERTEX
  8
0
 62
4
 10
-8.91003571E+01
 20
-1.15006393E+02
  0
VERTEX
  8
0
 62
4
 10
-8.90410679E+01
 20
-1.14761138E+02
  0
VERTEX
  8
0
 62
4
 10
-8.90053128E+01
 20
-1.14512077E+02
  0
VERTEX
  8
0
 62
4
 10
-8.89933642E+01
 20
-1.14261106E+02
  0
SEQEND
  8
0
  0
POLYLINE
  8
0
 62
4
 66
1
  0
VERTEX
  8
0
 62
4
 10
-9.39912630E+01
 20
-1.11939692E+02
  0
VERTEX
  8
0
 62
4
 10
-9.42434372E+01
 20
-1.12099041E+02
  0
VERTEX
  8
0
 62
4
 10
-9.44794569E+01
 20
-1.12277996E+02
  0
VERTEX
  8
0
 62
4
 10
-9.46975152E+01
 20
-1.12475186E+02
  0
VERTEX
  8
0
 62
4
 10
-9.48959426E+01
 20
-1.12689101E+02
  0
VERTEX
  8
0
 62
4
 10
-9.50732199E+01
 20
-1.12918105E+02
  0
VERTEX
  8
0
 62
4
 10
-9.52279900E+01
 20
-1.13160443E+02
  0
VERTEX
  8
0
 62
4
 10
-9.53590680E+01
 20
-1.13414261E+02
  0
VERTEX
  8
0
 62
4
 10
-9.54654502E+01
 20
-1.13677614E+02
  0
VERTEX
  8
0
 62
4
 10
-9.55463224E+01
 20
-1.13948488E+02
  0
VERTEX
  8
0
 62
4
 10
-9.56010653E+01
 20
-1.14224808E+02
  0
VERTEX
  8
0
 62
4
 10
-9.56292598E+01
 20
-1.14504458E+02
  0
VERTEX
  8
0
 62
4
 10
-9.56306902E+01
 20
-1.14785299E+02
  0
VERTEX
  8
0
 62
4
 10
-9.56053453E+01
 20
-1.15065178E+02
  0
VERTEX
  8
0
 62
4
 10
-9.55534193E+01
 20
-1.15341955E+02
  0
VERTEX
  8
0
 62
4
 10
-9.54753097E+01
 20
-1.15613510E+02
  0
VERTEX
  8
0
 62
4
 10
-9.53716144E+01
 20
-1.15877763E+02
  0
VERTEX
  8
0
 62
4
 10
-9.52431275E+01
 20
-1.16132692E+02
  0
VERTEX
  8
0
 62
4
 10
-9.50908325E+01
 20
-1.16376346E+02
  0
VERTEX
  8
0
 62
4
 10
-9.49158955E+01
 20
-1.16606858E+02
  0
VERTEX
  8
0
 62
4
 10
-9.47196557E+01
 20
-1.16822464E+02
  0
VERTEX
  8
0
 62
4
 10
-9.45036154E+01
 20
-1.17021513E+02
  0
VERTEX
  8
0
 62
4
 10
-9.42694288E+01
 20
-1.17202482E+02
  0
VERTEX
  8
0
 62
4
 10
-9.40188887E+01
 20
-1.17363985E+02
  0
VERTEX
  8
0
 62
4
 10
-9.37539132E+01
 20
-1.17504785E+02
  0
VERTEX
  8
0
 62
4
 10
-9.34765309E+01
 20
-1.17623804E+02
  0
VERTEX
  8
0
 62
4
 10
-9.31888655E+01
 20
-1.17720132E+02
  0
VERTEX
  8
0
 62
4
 10
-9.28931193E+01
 20
-1.17793031E+02
  0
VERTEX
  8
0
 62
4
 10
-9.25915564E+01
 20
-1.17841942E+02
  0
VERTEX
  8
0
 62
4
 10
-9.22864857E+01
 20
-1.17866492E+02
  0
VERTEX
  8
0
 62
4
 10
-9.19802427E+01
 20
-1.17866492E+02
  0
VERTEX
  8
0
 62
4
 10
-9.16751720E+01
 20
-1.17841942E+02
  0
VERTEX
  8
0
 62
4
 10
-9.13736091E+01
 20
-1.17793031E+02
  0
VERTEX
  8
0
 62
4
 10
-9.10778629E+01
 20
-1.17720132E+02
  0
VERTEX
  8
0
 62
4
 10
-9.07901975E+01
 20
-1.17623804E+02
  0
VERTEX
  8
0
 62
4
 10
-9.05128152E+01
 20
-1.17504785E+02
  0
VERTEX
  8
0
 62
4
 10
-9.02478397E+01
 20
-1.17363985E+02
  0
VERTEX
  8
0
 62
4
 10
-8.99972996E+01
 20
-1.17202482E+02
  0
VERTEX
  8
0
 62
4
 10
-8.97631130E+01
 20
-1.17021513E+02
  0
VERTEX
  8
0
 62
4
 10
-8.95470727E+01
 20
-1.16822464E+02
  0
VERTEX
  8
0
 62
4
 10
-8.93508329E+01
 20
-1.16606858E+02
  0
VERTEX
  8
0
 62
4
 10
-8.91758959E+01
 20
-1.16376346E+02
  0
VERTEX
  8
0
 62
4
 10
-8.90236009E+01
 20
-1.16132692E+02
  0
VERTEX
  8
0
 62
4
 10
-8.88951140E+01
 20
-1.15877763E+02
  0
VERTEX
  8
0
 62
4
 10
-8.87914187E+01
 20
-1.15613510E+02
  0
VERTEX
  8
0
 62
4
 10
-8.87133091E+01
 20
-1.15341955E+02
  0
VERTEX
  8
0
 62
4
 10
-8.86613831E+01
 20
-1.15065178E+02
  0
VERTEX
  8
0
 62
4
 10
-8.86360382E+01
 20
-1.14785299E+02
  0
VERTEX
  8
0
 62
4
 10
-8.86374686E+01
 20
-1.14504458E+02
  0
VERTEX
  8
0
 62
4
 10
-8.86656631E+01
 20
-1.14224808E+02
  0
VERTEX
  8
0
 62
4
 10
-8.87204060E+01
 20
-1.13948488E+02
  0
VERTEX
  8
0
 62
4
 10
-8.88012782E+01
 20
-1.13677614E+02
  0
VERTEX
  8
0
 62
4
 10
-8.89076604E+01
 20
-1.13414261E+02
  0
VERTEX
  8
0
 62
4
 10
-8.90387384E+01
 20
-1.13160443E+02
  0
VERTEX
  8
0
 62
4
 10
-8.91935085E+01
 20
-1.12918105E+02
  0
VERTEX
  8
0
 62
4
 10
-8.93707858E+01
 20
-1.12689101E+02
  0
VERTEX
  8
0
 62
4
 10
-8.95692132E+01
 20
-1.12475186E+02
  0
VERTEX
  8
0
 62
4
 10
-8.97872715E+01
 20
-1.12277996E+02
  0
VERTEX
  8
0
 62
4
 10
-9.00232912E+01
 20
-1.12099041E+02
  0
VERTEX
  8
0
 62
4
 10
-9.02754654E+01
 20
-1.11939692E+02
  0
SEQEND
  8
0
  0
LINE
  8
0
 62
4
 10
-1.04999428E+02
 20
-1.31645812E+02
 11
-8.26333642E+01
 21
-1.31645812E+02
  0
POLYLINE
  8
0
 62
4
 66
1
  0
VERTEX
  8
0
 62
4
 10
-1.04733364E+02
 20
-1.29113724E+02
  0
VERTEX
  8
0
 62
4
 10
-1.04747051E+02
 20
-1.28992196E+02
  0
VERTEX
  8
0
 62
4
 10
-1.04788003E+02
 20
-1.28871646E+02
  0
VERTEX
  8
0
 62
4
 10
-1.04855890E+02
 20
-1.28753045E+02
  0
VERTEX
  8
0
 62
4
 10
-1.04950165E+02
 20
-1.28637349E+02
  0
VERTEX
  8
0
 62
4
 10
-1.05070070E+02
 20
-1.28525487E+02
  0
VERTEX
  8
0
 62
4
 10
-1.05214638E+02
 20
-1.28418362E+02
  0
VERTEX
  8
0
 62
4
 10
-1.05382706E+02
 20
-1.28316836E+02
  0
VERTEX
  8
0
 62
4
 10
-1.05572921E+02
 20
-1.28221726E+02
  0
VERTEX
  8
0
 62
4
 10
-1.05783751E+02
 20
-1.28133797E+02
  0
VERTEX
  8
0
 62
4
 10
-1.06013499E+02
 20
-1.28053758E+02
  0
VERTEX
  8
0
 62
4
 10
-1.06260314E+02
 20
-1.27982254E+02
  0
VERTEX
  8
0
 62
4
 10
-1.06522211E+02
 20
-1.27919859E+02
  0
VERTEX
  8
0
 62
4
 10
-1.06797079E+02
 20
-1.27867077E+02
  0
VERTEX
  8
0
 62
4
 10
-1.07082706E+02
 20
-1.27824332E+02
  0
VERTEX
  8
0
 62
4
 10
-1.07376793E+02
 20
-1.27791969E+02
  0
VERTEX
  8
0
 62
4
 10
-1.07676971E+02
 20
-1.27770247E+02
  0
VERTEX
  8
0
 62
4
 10
-1.07980824E+02
 20
-1.27759342E+02
  0
VERTEX
  8
0
 62
4
 10
-1.08285904E+02
 20
-1.27759342E+02
  0
VERTEX
  8
0
 62
4
 10
-1.08589757E+02
 20
-1.27770247E+02
  0
VERTEX
  8
0
 62
4
 10
-1.08889935E+02
 20
-1.27791969E+02
  0
VERTEX
  8
0
 62
4
 10
-1.09184022E+02
 20
-1.27824332E+02
  0
VERTEX
  8
0
 62
4
 10
-1.09469649E+02
 20
-1.27867077E+02
  0
VERTEX
  8
0
 62
4
 10
-1.09744517E+02
 20
-1.27919859E+02
  0
VERTEX
  8
0
 62
4
 10
-1.10006414E+02
 20
-1.27982254E+02
  0
VERTEX
  8
0
 62
4
 10
-1.10253229E+02
 20
-1.28053758E+02
  0
VERTEX
  8
0
 62
4
 10
-1.10482977E+02
 20
-1.28133797E+02
  0
VERTEX
  8
0
 62
4
 10
-1.10693807E+02
 20
-1.28221726E+02
  0
VERTEX
  8
0
 62
4
 10
-1.10884022E+02
 20
-1.28316836E+02
  0
VERTEX
  8
0
 62
4
 10
-1.11052090E+02
 20
-1.28418362E+02
  0
VERTEX
  8
0
 62
4
 10
-1.11196658E+02
 20
-1.28525487E+02
  0
VERTEX
  8
0
 62
4
 10
-1.11316563E+02
 20
-1.28637349E+02
  0
VERTEX
  8
0
 62
4
 10
-1.11410838E+02
 20
-1.28753045E+02
  0
VERTEX
  8
0
 62
4
 10
-1.11478725E+02
 20
-1.28871646E+02
  0
VERTEX
  8
0
 62
4
 10
-1.11519677E+02
 20
-1.28992196E+02
  0
VERTEX
  8
0
 62
4
 10
-1.11533364E+02
 20
-1.29113724E+02
  0
SEQEND
  8
0
  0
LINE
  8
0
 62
4
 10
-1.11533364E+02
 20
-1.29113724E+02
 11
-1.11533364E+02
 21
-1.31002749E+02
  0
LINE
  8
0
 62
4
 10
-1.04733364E+02
 20
-1.29113724E+02
 11
-1.04733364E+02
 21
-1.31002749E+02
  0
POLYLINE
  8
0
 62
4
 66
1
  0
VERTEX
  8
0
 62
4
 10
-1.04733364E+02
 20
-1.29953940E+02
  0
VERTEX
  8
0
 62
4
 10
-1.04560312E+02
 20
-1.29830730E+02
  0
VERTEX
  8
0
 62
4
 10
-1.04415269E+02
 20
-1.29701898E+02
  0
VERTEX
  8
0
 62
4
 10
-1.04299372E+02
 20
-1.29568456E+02
  0
VERTEX
  8
0
 62
4
 10
-1.04213530E+02
 20
-1.29431450E+02
  0
VERTEX
  8
0
 62
4
 10
-1.04158415E+02
 20
-1.29291953E+02
  0
VERTEX
  8
0
 62
4
 10
-1.04134460E+02
 20
-1.29151058E+02
  0
VERTEX
  8
0
 62
4
 10
-1.04141852E+02
 20
-1.29009871E+02
  0
VERTEX
  8
0
 62
4
 10
-1.04180534E+02
 20
-1.28869498E+02
  0
VERTEX
  8
0
 62
4
 10
-1.04250201E+02
 20
-1.28731040E+02
  0
VERTEX
  8
0
 62
4
 10
-1.04350309E+02
 20
-1.28595581E+02
  0
VERTEX
  8
0
 62
4
 10
-1.04480072E+02
 20
-1.28464184E+02
  0
VERTEX
  8
0
 62
4
 10
-1.04638473E+02
 20
-1.28337879E+02
  0
VERTEX
  8
0
 62
4
 10
-1.04824271E+02
 20
-1.28217656E+02
  0
VERTEX
  8
0
 62
4
 10
-1.05036008E+02
 20
-1.28104457E+02
  0
VERTEX
  8
0
 62
4
 10
-1.05272026E+02
 20
-1.27999169E+02
  0
VERTEX
  8
0
 62
4
 10
-1.05530473E+02
 20
-1.27902619E+02
  0
VERTEX
  8
0
 62
4
 10
-1.05809325E+02
 20
-1.27815562E+02
  0
VERTEX
  8
0
 62
4
 10
-1.06106395E+02
 20
-1.27738682E+02
  0
VERTEX
  8
0
 62
4
 10
-1.06419354E+02
 20
-1.27672580E+02
  0
VERTEX
  8
0
 62
4
 10
-1.06745749E+02
 20
-1.27617776E+02
  0
VERTEX
  8
0
 62
4
 10
-1.07083021E+02
 20
-1.27574698E+02
  0
VERTEX
  8
0
 62
4
 10
-1.07428528E+02
 20
-1.27543685E+02
  0
VERTEX
  8
0
 62
4
 10
-1.07779559E+02
 20
-1.27524979E+02
  0
VERTEX
  8
0
 62
4
 10
-1.08133364E+02
 20
-1.27518728E+02
  0
VERTEX
  8
0
 62
4
 10
-1.08487169E+02
 20
-1.27524979E+02
  0
VERTEX
  8
0
 62
4
 10
-1.08838200E+02
 20
-1.27543685E+02
  0
VERTEX
  8
0
 62
4
 10
-1.09183707E+02
 20
-1.27574698E+02
  0
VERTEX
  8
0
 62
4
 10
-1.09520979E+02
 20
-1.27617776E+02
  0
VERTEX
  8
0
 62
4
 10
-1.09847374E+02
 20
-1.27672580E+02
  0
VERTEX
  8
0
 62
4
 10
-1.10160333E+02
 20
-1.27738682E+02
  0
VERTEX
  8
0
 62
4
 10
-1.10457403E+02
 20
-1.27815562E+02
  0
VERTEX
  8
0
 62
4
 10
-1.10736255E+02
 20
-1.27902619E+02
  0
VERTEX
  8
0
 62
4
 10
-1.10994702E+02
 20
-1.27999169E+02
  0
VERTEX
  8
0
 62
4
 10
-1.11230720E+02
 20
-1.28104457E+02
  0
VERTEX
  8
0
 62
4
 10
-1.11442457E+02
 20
-1.28217656E+02
  0
VERTEX
  8
0
 62
4
 10
-1.11628255E+02
 20
-1.28337879E+02
  0
VERTEX
  8
0
 62
4
 10
-1.11786656E+02
 20
-1.28464184E+02
  0
VERTEX
  8
0
 62
4
 10
-1.11916419E+02
 20
-1.28595581E+02
  0
VERTEX
  8
0
 62
4
 10
-1.12016527E+02
 20
-1.28731040E+02
  0
VERTEX
  8
0
 62
4
 10
-1.12086194E+02
 20
-1.28869498E+02
  0
VERTEX
  8
0
 62
4
 10
-1.12124876E+02
 20
-1.29009871E+02
  0
VERTEX
  8
0
 62
4
 10
-1.12132268E+02
 20
-1.29151058E+02
  0
VERTEX
  8
0
 62
4
 10
-1.12108313E+02
 20
-1.29291953E+02
  0
VERTEX
  8
0
 62
4
 10
-1.12053198E+02
 20
-1.29431450E+02
  0
VERTEX
  8
0
 62
4
 10
-1.11967356E+02
 20
-1.29568456E+02
  0
VERTEX
  8
0
 62
4
 10
-1.11851459E+02
 20
-1.29701898E+02
  0
VERTEX
  8
0
 62
4
 10
-1.11706416E+02
 20
-1.29830730E+02
  0
VERTEX
  8
0
 62
4
 10
-1.11533364E+02
 20
-1.29953940E+02
  0
SEQEND
  8
0
  0
POLYLINE
  8
0
 62
4
 66
1
  0
VERTEX
  8
0
 62
4
 10
-1.04133364E+02
 20
-1.28655194E+02
  0
VERTEX
  8
0
 62
4
 10
-1.04149467E+02
 20
-1.28512220E+02
  0
VERTEX
  8
0
 62
4
 10
-1.04197646E+02
 20
-1.28370396E+02
  0
VERTEX
  8
0
 62
4
 10
-1.04277513E+02
 20
-1.28230866E+02
  0
VERTEX
  8
0
 62
4
 10
-1.04388425E+02
 20
-1.28094752E+02
  0
VERTEX
  8
0
 62
4
 10
-1.04529489E+02
 20
-1.27963151E+02
  0
VERTEX
  8
0
 62
4
 10
-1.04699569E+02
 20
-1.27837122E+02
  0
VERTEX
  8
0
 62
4
 10
-1.04897296E+02
 20
-1.27717679E+02
  0
VERTEX
  8
0
 62
4
 10
-1.05121078E+02
 20
-1.27605784E+02
  0
VERTEX
  8
0
 62
4
 10
-1.05369113E+02
 20
-1.27502339E+02
  0
VERTEX
  8
0
 62
4
 10
-1.05639405E+02
 20
-1.27408176E+02
  0
VERTEX
  8
0
 62
4
 10
-1.05929776E+02
 20
-1.27324053E+02
  0
VERTEX
  8
0
 62
4
 10
-1.06237889E+02
 20
-1.27250647E+02
  0
VERTEX
  8
0
 62
4
 10
-1.06561264E+02
 20
-1.27188551E+02
  0
VERTEX
  8
0
 62
4
 10
-1.06897296E+02
 20
-1.27138262E+02
  0
VERTEX
  8
0
 62
4
 10
-1.07243280E+02
 20
-1.27100188E+02
  0
VERTEX
  8
0
 62
4
 10
-1.07596431E+02
 20
-1.27074633E+02
  0
VERTEX
  8
0
 62
4
 10
-1.07953905E+02
 20
-1.27061804E+02
  0
VERTEX
  8
0
 62
4
 10
-1.08312823E+02
 20
-1.27061804E+02
  0
VERTEX
  8
0
 62
4
 10
-1.08670297E+02
 20
-1.27074633E+02
  0
VERTEX
  8
0
 62
4
 10
-1.09023448E+02
 20
-1.27100188E+02
  0
VERTEX
  8
0
 62
4
 10
-1.09369432E+02
 20
-1.27138262E+02
  0
VERTEX
  8
0
 62
4
 10
-1.09705464E+02
 20
-1.27188551E+02
  0
VERTEX
  8
0
 62
4
 10
-1.10028839E+02
 20
-1.27250647E+02
  0
VERTEX
  8
0
 62
4
 10
-1.10336952E+02
 20
-1.27324053E+02
  0
VERTEX
  8
0
 62
4
 10
-1.10627323E+02
 20
-1.27408176E+02
  0
VERTEX
  8
0
 62
4
 10
-1.10897615E+02
 20
-1.27502339E+02
  0
VERTEX
  8
0
 62
4
 10
-1.11145650E+02
 20
-1.27605784E+02
  0
VERTEX
  8
0
 62
4
 10
-1.11369432E+02
 20
-1.27717679E+02
  0
VERTEX
  8
0
 62
4
 10
-1.11567159E+02
 20
-1.27837122E+02
  0
VERTEX
  8
0
 62
4
 10
-1.11737239E+02
 20
-1.27963151E+02
  0
VERTEX
  8
0
 62
4
 10
-1.11878303E+02
 20
-1.28094752E+02
  0
VERTEX
  8
0
 62
4
 10
-1.11989215E+02
 20
-1.28230866E+02
  0
VERTEX
  8
0
 62
4
 10
-1.12069082E+02
 20
-1.28370396E+02
  0
VERTEX
  8
0
 62
4
 10
-1.12117261E+02
 20
-1.28512220E+02
  0
VERTEX
  8
0
 62
4
 10
-1.12133364E+02
 20
-1.28655194E+02
  0
SEQEND
  8
0
  0
LINE
  8
0
 62
4
 10
-1.12133364E+02
 20
-1.28655194E+02
 11
-1.12133364E+02
 21
-1.29113724E+02
  0
LINE
  8
0
 62
4
 10
-1.04133364E+02
 20
-1.28655194E+02
 11
-1.04133364E+02
 21
-1.29113724E+02
  0
LINE
  8
0
  6
CENTER
 62
6
 10
-9.21333642E+01
 20
-1.08484099E+02
 11
-9.21333642E+01
 21
-1.20038112E+02
  0
LINE
  8
0
  6
CENTER
 62
6
 10
-9.79103707E+01
 20
-1.14261106E+02
 11
-8.63563577E+01
 21
-1.14261106E+02
  0
POLYLINE
  8
0
 62
4
 66
1
  0
VERTEX
  8
0
 62
4
 10
-1.05133364E+02
 20
-1.03096132E+02
  0
VERTEX
  8
0
 62
4
 10
-1.05144780E+02
 20
-1.02856351E+02
  0
VERTEX
  8
0
 62
4
 10
-1.05178941E+02
 20
-1.02618395E+02
  0
VERTEX
  8
0
 62
4
 10
-1.05235587E+02
 20
-1.02384074E+02
  0
VERTEX
  8
0
 62
4
 10
-1.05314286E+02
 20
-1.02155173E+02
  0
VERTEX
  8
0
 62
4
 10
-1.05414441E+02
 20
-1.01933433E+02
  0
VERTEX
  8
0
 62
4
 10
-1.05535288E+02
 20
-1.01720542E+02
  0
VERTEX
  8
0
 62
4
 10
-1.05675908E+02
 20
-1.01518120E+02
  0
VERTEX
  8
0
 62
4
 10
-1.05835231E+02
 20
-1.01327707E+02
  0
VERTEX
  8
0
 62
4
 10
-1.06012044E+02
 20
-1.01150754E+02
  0
VERTEX
  8
0
 62
4
 10
-1.06205001E+02
 20
-1.00988606E+02
  0
VERTEX
  8
0
 62
4
 10
-1.06412635E+02
 20
-1.00842497E+02
  0
VERTEX
  8
0
 62
4
 10
-1.06633364E+02
 20
-1.00713540E+02
  0
VERTEX
  8
0
 62
4
 10
-1.06865509E+02
 20
-1.00602716E+02
  0
VERTEX
  8
0
 62
4
 10
-1.07107304E+02
 20
-1.00510868E+02
  0
VERTEX
  8
0
 62
4
 10
-1.07356907E+02
 20
-1.00438696E+02
  0
VERTEX
  8
0
 62
4
 10
-1.07612419E+02
 20
-1.00386748E+02
  0
VERTEX
  8
0
 62
4
 10
-1.07871897E+02
 20
-1.00355421E+02
  0
VERTEX
  8
0
 62
4
 10
-1.08133364E+02
 20
-1.00344952E+02
  0
VERTEX
  8
0
 62
4
 10
-1.08394831E+02
 20
-1.00355421E+02
  0
VERTEX
  8
0
 62
4
 10
-1.08654309E+02
 20
-1.00386748E+02
  0
VERTEX
  8
0
 62
4
 10
-1.08909821E+02
 20
-1.00438696E+02
  0
VERTEX
  8
0
 62
4
 10
-1.09159424E+02
 20
-1.00510868E+02
  0
VERTEX
  8
0
 62
4
 10
-1.09401219E+02
 20
-1.00602716E+02
  0
VERTEX
  8
0
 62
4
 10
-1.09633364E+02
 20
-1.00713540E+02
  0
VERTEX
  8
0
 62
4
 10
-1.09854093E+02
 20
-1.00842497E+02
  0
VERTEX
  8
0
 62
4
 10
-1.10061727E+02
 20
-1.00988606E+02
  0
VERTEX
  8
0
 62
4
 10
-1.10254684E+02
 20
-1.01150754E+02
  0
VERTEX
  8
0
 62
4
 10
-1.10431497E+02
 20
-1.01327707E+02
  0
VERTEX
  8
0
 62
4
 10
-1.10590820E+02
 20
-1.01518120E+02
  0
VERTEX
  8
0
 62
4
 10
-1.10731440E+02
 20
-1.01720542E+02
  0
VERTEX
  8
0
 62
4
 10
-1.10852287E+02
 20
-1.01933433E+02
  0
VERTEX
  8
0
 62
4
 10
-1.10952442E+02
 20
-1.02155173E+02
  0
VERTEX
  8
0
 62
4
 10
-1.11031141E+02
 20
-1.02384074E+02
  0
VERTEX
  8
0
 62
4
 10
-1.11087787E+02
 20
-1.02618395E+02
  0
VERTEX
  8
0
 62
4
 10
-1.11121948E+02
 20
-1.02856351E+02
  0
VERTEX
  8
0
 62
4
 10
-1.11133364E+02
 20
-1.03096132E+02
  0
VERTEX
  8
0
 62
4
 10
-1.11121948E+02
 20
-1.03335913E+02
  0
VERTEX
  8
0
 62
4
 10
-1.11087787E+02
 20
-1.03573869E+02
  0
VERTEX
  8
0
 62
4
 10
-1.11031141E+02
 20
-1.03808190E+02
  0
VERTEX
  8
0
 62
4
 10
-1.10952442E+02
 20
-1.04037091E+02
  0
VERTEX
  8
0
 62
4
 10
-1.10852287E+02
 20
-1.04258831E+02
  0
VERTEX
  8
0
 62
4
 10
-1.10731440E+02
 20
-1.04471722E+02
  0
VERTEX
  8
0
 62
4
 10
-1.10590820E+02
 20
-1.04674144E+02
  0
VERTEX
  8
0
 62
4
 10
-1.10431497E+02
 20
-1.04864557E+02
  0
VERTEX
  8
0
 62
4
 10
-1.10254684E+02
 20
-1.05041510E+02
  0
VERTEX
  8
0
 62
4
 10
-1.10061727E+02
 20
-1.05203658E+02
  0
VERTEX
  8
0
 62
4
 10
-1.09854093E+02
 20
-1.05349767E+02
  0
VERTEX
  8
0
 62
4
 10
-1.09633364E+02
 20
-1.05478724E+02
  0
VERTEX
  8
0
 62
4
 10
-1.09401219E+02
 20
-1.05589548E+02
  0
VERTEX
  8
0
 62
4
 10
-1.09159424E+02
 20
-1.05681396E+02
  0
VERTEX
  8
0
 62
4
 10
-1.08909821E+02
 20
-1.05753568E+02
  0
VERTEX
  8
0
 62
4
 10
-1.08654309E+02
 20
-1.05805516E+02
  0
VERTEX
  8
0
 62
4
 10
-1.08394831E+02
 20
-1.05836843E+02
  0
VERTEX
  8
0
 62
4
 10
-1.08133364E+02
 20
-1.05847312E+02
  0
VERTEX
  8
0
 62
4
 10
-1.07871897E+02
 20
-1.05836843E+02
  0
VERTEX
  8
0
 62
4
 10
-1.07612419E+02
 20
-1.05805516E+02
  0
VERTEX
  8
0
 62
4
 10
-1.07356907E+02
 20
-1.05753568E+02
  0
VERTEX
  8
0
 62
4
 10
-1.07107304E+02
 20
-1.05681396E+02
  0
VERTEX
  8
0
 62
4
 10
-1.06865509E+02
 20
-1.05589548E+02
  0
VERTEX
  8
0
 62
4
 10
-1.06633364E+02
 20
-1.05478724E+02
  0
VERTEX
  8
0
 62
4
 10
-1.06412635E+02
 20
-1.05349767E+02
  0
VERTEX
  8
0
 62
4
 10
-1.06205001E+02
 20
-1.05203658E+02
  0
VERTEX
  8
0
 62
4
 10
-1.06012044E+02
 20
-1.05041510E+02
  0
VERTEX
  8
0
 62
4
 10
-1.05835231E+02
 20
-1.04864557E+02
  0
VERTEX
  8
0
 62
4
 10
-1.05675908E+02
 20
-1.04674144E+02
  0
VERTEX
  8
0
 62
4
 10
-1.05535288E+02
 20
-1.04471722E+02
  0
VERTEX
  8
0
 62
4
 10
-1.05414441E+02
 20
-1.04258831E+02
  0
VERTEX
  8
0
 62
4
 10
-1.05314286E+02
 20
-1.04037091E+02
  0
VERTEX
  8
0
 62
4
 10
-1.05235587E+02
 20
-1.03808190E+02
  0
VERTEX
  8
0
 62
4
 10
-1.05178941E+02
 20
-1.03573869E+02
  0
VERTEX
  8
0
 62
4
 10
-1.05144780E+02
 20
-1.03335913E+02
  0
VERTEX
  8
0
 62
4
 10
-1.05133364E+02
 20
-1.03096132E+02
  0
SEQEND
  8
0
  0
LINE
  8
0
  6
CENTER
 62
6
 10
-1.12585055E+02
 20
-1.03096132E+02
 11
-1.03681673E+02
 21
-1.03096132E+02
  0
LINE
  8
0
 62
4
 10
-1.35133364E+02
 20
-1.12944826E+02
 11
-1.30133364E+02
 21
-1.12944826E+02
  0
LINE
  8
0
 62
4
 10
-1.35133364E+02
 20
-1.09954208E+02
 11
-1.30133364E+02
 21
-1.09954208E+02
  0
LINE
  8
0
 62
4
 10
-1.35133364E+02
 20
-1.02494021E+02
 11
-1.30133364E+02
 21
-1.02494021E+02
  0
LINE
  8
0
 62
4
 10
-1.18633364E+02
 20
-1.25664576E+02
 11
-8.26333642E+01
 21
-1.25664576E+02
  0
LINE
  8
0
 62
4
 10
-1.17633364E+02
 20
-1.21776929E+02
 11
-9.86333642E+01
 21
-1.21776929E+02
  0
LINE
  8
0
 62
4
 10
-9.86333642E+01
 20
-1.04352788E+02
 11
-1.00633364E+02
 21
-1.04352788E+02
  0
LINE
  8
0
 62
4
 10
-1.15633364E+02
 20
-1.19942809E+02
 11
-1.00633364E+02
 21
-1.19942809E+02
  0
LINE
  8
0
 62
4
 10
-1.15633364E+02
 20
-1.09974082E+02
 11
-1.00633364E+02
 21
-1.09974082E+02
  0
LINE
  8
0
 62
6
 10
-1.05333364E+02
 20
-8.36992475E+01
 11
-1.05333364E+02
 21
-8.59975831E+01
  0
LINE
  8
0
 62
4
 10
-1.06133364E+02
 20
-8.36992475E+01
 11
-1.06133364E+02
 21
-8.59975831E+01
  0
LINE
  8
0
 62
6
 10
-1.02933364E+02
 20
-8.36992475E+01
 11
-1.02933364E+02
 21
-8.59975831E+01
  0
LINE
  8
0
 62
4
 10
-1.02133364E+02
 20
-8.36992475E+01
 11
-1.02133364E+02
 21
-8.59975831E+01
  0
LINE
  8
0
 62
4
 10
-1.06133364E+02
 20
-8.36992475E+01
 11
-1.02133364E+02
 21
-8.36992475E+01
  0
LINE
  8
0
 62
6
 10
-1.13333364E+02
 20
-8.36992475E+01
 11
-1.13333364E+02
 21
-8.59975831E+01
  0
LINE
  8
0
 62
6
 10
-1.10933364E+02
 20
-8.36992475E+01
 11
-1.10933364E+02
 21
-8.59975831E+01
  0
LINE
  8
0
 62
4
 10
-1.14133364E+02
 20
-8.36992475E+01
 11
-1.14133364E+02
 21
-8.59975831E+01
  0
LINE
  8
0
 62
4
 10
-1.10133364E+02
 20
-8.36992475E+01
 11
-1.10133364E+02
 21
-8.59975831E+01
  0
LINE
  8
0
 62
4
 10
-1.14133364E+02
 20
-8.36992475E+01
 11
-1.10133364E+02
 21
-8.36992475E+01
  0
LINE
  8
0
 62
4
 10
-1.15633364E+02
 20
-9.84912201E+01
 11
-1.24633364E+02
 21
-9.84912201E+01
  0
LINE
  8
0
 62
4
 10
-1.15633364E+02
 20
-9.62181813E+01
 11
-1.00633364E+02
 21
-9.62181813E+01
  0
LINE
  8
0
 62
4
 10
-1.17633364E+02
 20
-1.23371926E+02
 11
-1.17633364E+02
 21
-1.12491220E+02
  0
LINE
  8
0
 62
4
 10
-9.86333642E+01
 20
-1.04444662E+02
 11
-8.26333642E+01
 21
-1.04444662E+02
  0
ARC
  8
0
 62
4
 10
-8.26358703E+01
 20
-1.05947168E+02
 40
1.50250815E+00
 50
9.55645858E-02
 51
8.99044354E+01
  0
LINE
  8
0
 62
4
 10
-1.24633364E+02
 20
-1.12491220E+02
 11
-1.15633364E+02
 21
-1.12491220E+02
  0
LINE
  8
0
 62
4
 10
-1.25133364E+02
 20
-9.89912201E+01
 11
-1.25133364E+02
 21
-1.11991220E+02
  0
LINE
  8
0
 62
4
 10
-1.35133364E+02
 20
-9.80324268E+01
 11
-1.35133364E+02
 21
-1.12944826E+02
  0
LINE
  8
0
 62
4
 10
-1.30133364E+02
 20
-9.80324268E+01
 11
-1.30133364E+02
 21
-1.12944826E+02
  0
LINE
  8
0
 62
4
 10
-1.30133364E+02
 20
-9.92412201E+01
 11
-1.25133364E+02
 21
-9.92412201E+01
  0
LINE
  8
0
 62
4
 10
-1.30133364E+02
 20
-1.11741220E+02
 11
-1.25133364E+02
 21
-1.11741220E+02
  0
LINE
  8
0
 62
4
 10
-1.28633364E+02
 20
-9.92412201E+01
 11
-1.28633364E+02
 21
-1.11741220E+02
  0
LINE
  8
0
 62
4
 10
-1.28633364E+02
 20
-9.97412201E+01
 11
-1.25133364E+02
 21
-9.97412201E+01
  0
LINE
  8
0
 62
4
 10
-1.28633364E+02
 20
-1.11241220E+02
 11
-1.25133364E+02
 21
-1.11241220E+02
  0
LINE
  8
0
 62
4
 10
-1.35133364E+02
 20
-9.80324268E+01
 11
-1.30133364E+02
 21
-9.80324268E+01
  0
LINE
  8
0
 62
4
 10
-1.20133364E+02
 20
-1.12491220E+02
 11
-1.20133364E+02
 21
-1.30145812E+02
  0
LINE
  8
0
 62
4
 10
-1.17633364E+02
 20
-1.23371926E+02
 11
-9.86333642E+01
 21
-1.23371926E+02
  0
LINE
  8
0
 62
4
 10
-1.18633364E+02
 20
-1.31645812E+02
 11
-1.11267300E+02
 21
-1.31645812E+02
  0
ARC
  8
0
 62
4
 10
-8.26308623E+01
 20
-1.30148314E+02
 40
1.49750021E+00
 50
2.69904276E+02
 51
9.57242462E-02
  0
ARC
  8
0
 62
4
 10
-1.24635854E+02
 20
-1.11993710E+02
 40
4.97516125E-01
 50
1.79713229E+02
 51
2.70286771E+02
  0
ARC
  8
0
 62
4
 10
-1.18635862E+02
 20
-1.30148310E+02
 40
1.49750400E+00
 50
1.79904421E+02
 51
2.70095579E+02
  0
ARC
  8
0
 62
4
 10
-1.24630862E+02
 20
-9.89937227E+01
 40
5.02508801E-01
 50
9.02853429E+01
 51
1.79714657E+02
  0
LINE
  8
0
 62
4
 10
-9.86333642E+01
 20
-1.04352788E+02
 11
-9.86333642E+01
 21
-1.23371926E+02
  0
LINE
  8
0
 62
4
 10
-8.11333642E+01
 20
-1.05944662E+02
 11
-8.11333642E+01
 21
-1.30145812E+02
  0
LINE
  8
0
  6
CENTER
 62
6
 10
-1.12133364E+02
 20
-8.24363027E+01
 11
-1.12133364E+02
 21
-9.27018816E+01
  0
LINE
  8
0
  6
CENTER
 62
6
 10
-1.04133364E+02
 20
-8.24363027E+01
 11
-1.04133364E+02
 21
-9.27018816E+01
  0
LINE
  8
0
 62
4
 10
-1.00633364E+02
 20
-8.59975831E+01
 11
-1.00633364E+02
 21
-1.19942809E+02
  0
LINE
  8
0
 62
4
 10
-1.15633364E+02
 20
-8.59975831E+01
 11
-1.15633364E+02
 21
-1.19942809E+02
  0
LINE
  8
0
 62
4
 10
-1.15633364E+02
 20
-1.12986066E+02
 11
-1.00633364E+02
 21
-1.12986066E+02
  0
LINE
  8
0
 62
4
 10
-1.15633364E+02
 20
-8.59975831E+01
 11
-1.00633364E+02
 21
-8.59975831E+01
  0
ARC
  8
0
 62
4
 10
-1.18635862E+02
 20
-1.24167074E+02
 40
1.49750400E+00
 50
1.79904421E+02
 51
2.70095579E+02
  0
ARC
  8
0
 62
4
 10
-8.26308623E+01
 20
-1.24167078E+02
 40
1.49750021E+00
 50
2.69904276E+02
 51
9.57242462E-02
  0
LINE
  8
0
 62
4
 10
3.56460488E+02
 20
-2.44370198E+02
 11
3.56460488E+02
 21
-2.74075434E+02
  0
LINE
  8
0
 62
4
 10
3.41460488E+02
 20
-2.44370198E+02
 11
3.41460488E+02
 21
-2.74075434E+02
  0
LINE
  8
0
 62
4
 10
3.75960488E+02
 20
-2.52016070E+02
 11
3.70960488E+02
 21
-2.52016070E+02
  0
LINE
  8
0
 62
4
 10
3.75960488E+02
 20
-2.59750298E+02
 11
3.70960488E+02
 21
-2.59750298E+02
  0
LINE
  8
0
 62
4
 10
3.75960488E+02
 20
-2.58894021E+02
 11
3.70960488E+02
 21
-2.58894021E+02
  0
LINE
  8
0
 62
4
 10
3.56460488E+02
 20
-2.44370198E+02
 11
3.41460488E+02
 21
-2.44370198E+02
  0
LINE
  8
0
 62
4
 10
3.56460488E+02
 20
-2.50351434E+02
 11
3.41460488E+02
 21
-2.50351434E+02
  0
ARC
  8
0
 62
4
 10
3.56958005E+02
 20
-2.60356130E+02
 40
4.97523679E-01
 50
8.97141074E+01
 51
1.80285893E+02
  0
LINE
  8
0
 62
4
 10
3.69460488E+02
 20
-2.47108612E+02
 11
3.65960488E+02
 21
-2.47108612E+02
  0
LINE
  8
0
 62
4
 10
3.75960488E+02
 20
-2.45976055E+02
 11
3.70960488E+02
 21
-2.45976055E+02
  0
LINE
  8
0
 62
4
 10
3.65960488E+02
 20
-2.46358612E+02
 11
3.65960488E+02
 21
-2.59358612E+02
  0
LINE
  8
0
 62
4
 10
3.75960488E+02
 20
-2.45976055E+02
 11
3.75960488E+02
 21
-2.59750298E+02
  0
LINE
  8
0
 62
4
 10
3.70960488E+02
 20
-2.45976055E+02
 11
3.70960488E+02
 21
-2.59750298E+02
  0
LINE
  8
0
 62
4
 10
3.70960488E+02
 20
-2.46608612E+02
 11
3.65960488E+02
 21
-2.46608612E+02
  0
LINE
  8
0
 62
4
 10
3.70960488E+02
 20
-2.59108612E+02
 11
3.65960488E+02
 21
-2.59108612E+02
  0
LINE
  8
0
 62
4
 10
3.69460488E+02
 20
-2.46608612E+02
 11
3.69460488E+02
 21
-2.59108612E+02
  0
LINE
  8
0
 62
4
 10
3.69460488E+02
 20
-2.58608612E+02
 11
3.65960488E+02
 21
-2.58608612E+02
  0
ARC
  8
0
 62
4
 10
3.65457993E+02
 20
-2.59356117E+02
 40
5.02501096E-01
 50
2.70284473E+02
 51
3.59715527E+02
  0
ARC
  8
0
 62
4
 10
3.65462970E+02
 20
-2.46356130E+02
 40
4.97523679E-01
 50
3.59714107E+02
 51
9.02858924E+01
  0
LINE
  8
0
 62
4
 10
3.65460488E+02
 20
-2.59858612E+02
 11
3.56960488E+02
 21
-2.59858612E+02
  0
LINE
  8
0
 62
4
 10
3.56460488E+02
 20
-2.45858612E+02
 11
3.65460488E+02
 21
-2.45858612E+02
  0
LINE
  8
0
 62
4
 10
3.21960488E+02
 20
-2.71458513E+02
 11
3.21960488E+02
 21
-2.92749969E+02
  0
LINE
  8
0
 62
4
 10
3.60960488E+02
 20
-2.71453540E+02
 11
3.60960488E+02
 21
-2.92749969E+02
  0
LINE
  8
0
 62
4
 10
3.36100488E+02
 20
-2.73038498E+02
 11
3.36404311E+02
 21
-2.73706515E+02
  0
LINE
  8
0
 62
4
 10
3.29820488E+02
 20
-2.73038498E+02
 11
3.29516664E+02
 21
-2.73706515E+02
  0
POLYLINE
  8
0
 62
4
 66
1
  0
VERTEX
  8
0
 62
4
 10
3.29516664E+02
 20
-2.73706515E+02
  0
VERTEX
  8
0
 62
4
 10
3.29475256E+02
 20
-2.73827485E+02
  0
VERTEX
  8
0
 62
4
 10
3.29460522E+02
 20
-2.73949436E+02
  0
VERTEX
  8
0
 62
4
 10
3.29472573E+02
 20
-2.74071433E+02
  0
VERTEX
  8
0
 62
4
 10
3.29511317E+02
 20
-2.74192544E+02
  0
VERTEX
  8
0
 62
4
 10
3.29576459E+02
 20
-2.74311841E+02
  0
VERTEX
  8
0
 62
4
 10
3.29667499E+02
 20
-2.74428411E+02
  0
VERTEX
  8
0
 62
4
 10
3.29783740E+02
 20
-2.74541363E+02
  0
VERTEX
  8
0
 62
4
 10
3.29924294E+02
 20
-2.74649831E+02
  0
VERTEX
  8
0
 62
4
 10
3.30088085E+02
 20
-2.74752986E+02
  0
VERTEX
  8
0
 62
4
 10
3.30273858E+02
 20
-2.74850038E+02
  0
VERTEX
  8
0
 62
4
 10
3.30480192E+02
 20
-2.74940245E+02
  0
VERTEX
  8
0
 62
4
 10
3.30705508E+02
 20
-2.75022915E+02
  0
VERTEX
  8
0
 62
4
 10
3.30948082E+02
 20
-2.75097417E+02
  0
VERTEX
  8
0
 62
4
 10
3.31206058E+02
 20
-2.75163180E+02
  0
VERTEX
  8
0
 62
4
 10
3.31477460E+02
 20
-2.75219701E+02
  0
VERTEX
  8
0
 62
4
 10
3.31760212E+02
 20
-2.75266548E+02
  0
VERTEX
  8
0
 62
4
 10
3.32052150E+02
 20
-2.75303361E+02
  0
VERTEX
  8
0
 62
4
 10
3.32351039E+02
 20
-2.75329859E+02
  0
VERTEX
  8
0
 62
4
 10
3.32654593E+02
 20
-2.75345839E+02
  0
VERTEX
  8
0
 62
4
 10
3.32960488E+02
 20
-2.75351180E+02
  0
VERTEX
  8
0
 62
4
 10
3.33266383E+02
 20
-2.75345839E+02
  0
VERTEX
  8
0
 62
4
 10
3.33569937E+02
 20
-2.75329859E+02
  0
VERTEX
  8
0
 62
4
 10
3.33868826E+02
 20
-2.75303361E+02
  0
VERTEX
  8
0
 62
4
 10
3.34160764E+02
 20
-2.75266548E+02
  0
VERTEX
  8
0
 62
4
 10
3.34443516E+02
 20
-2.75219701E+02
  0
VERTEX
  8
0
 62
4
 10
3.34714918E+02
 20
-2.75163180E+02
  0
VERTEX
  8
0
 62
4
 10
3.34972894E+02
 20
-2.75097417E+02
  0
VERTEX
  8
0
 62
4
 10
3.35215468E+02
 20
-2.75022915E+02
  0
VERTEX
  8
0
 62
4
 10
3.35440784E+02
 20
-2.74940245E+02
  0
VERTEX
  8
0
 62
4
 10
3.35647118E+02
 20
-2.74850038E+02
  0
VERTEX
  8
0
 62
4
 10
3.35832891E+02
 20
-2.74752986E+02
  0
VERTEX
  8
0
 62
4
 10
3.35996682E+02
 20
-2.74649831E+02
  0
VERTEX
  8
0
 62
4
 10
3.36137236E+02
 20
-2.74541363E+02
  0
VERTEX
  8
0
 62
4
 10
3.36253477E+02
 20
-2.74428411E+02
  0
VERTEX
  8
0
 62
4
 10
3.36344517E+02
 20
-2.74311841E+02
  0
VERTEX
  8
0
 62
4
 10
3.36409659E+02
 20
-2.74192544E+02
  0
VERTEX
  8
0
 62
4
 10
3.36448403E+02
 20
-2.74071433E+02
  0
VERTEX
  8
0
 62
4
 10
3.36460454E+02
 20
-2.73949436E+02
  0
VERTEX
  8
0
 62
4
 10
3.36445720E+02
 20
-2.73827485E+02
  0
VERTEX
  8
0
 62
4
 10
3.36404312E+02
 20
-2.73706515E+02
  0
SEQEND
  8
0
  0
POLYLINE
  8
0
 62
4
 66
1
  0
VERTEX
  8
0
 62
4
 10
3.36100488E+02
 20
-2.73038498E+02
  0
VERTEX
  8
0
 62
4
 10
3.36088539E+02
 20
-2.72929373E+02
  0
VERTEX
  8
0
 62
4
 10
3.36052784E+02
 20
-2.72821078E+02
  0
VERTEX
  8
0
 62
4
 10
3.35993495E+02
 20
-2.72714438E+02
  0
VERTEX
  8
0
 62
4
 10
3.35911123E+02
 20
-2.72610264E+02
  0
VERTEX
  8
0
 62
4
 10
3.35806294E+02
 20
-2.72509349E+02
  0
VERTEX
  8
0
 62
4
 10
3.35679808E+02
 20
-2.72412462E+02
  0
VERTEX
  8
0
 62
4
 10
3.35532625E+02
 20
-2.72320339E+02
  0
VERTEX
  8
0
 62
4
 10
3.35365868E+02
 20
-2.72233682E+02
  0
VERTEX
  8
0
 62
4
 10
3.35180803E+02
 20
-2.72153149E+02
  0
VERTEX
  8
0
 62
4
 10
3.34978841E+02
 20
-2.72079355E+02
  0
VERTEX
  8
0
 62
4
 10
3.34761518E+02
 20
-2.72012861E+02
  0
VERTEX
  8
0
 62
4
 10
3.34530488E+02
 20
-2.71954172E+02
  0
VERTEX
  8
0
 62
4
 10
3.34287509E+02
 20
-2.71903735E+02
  0
VERTEX
  8
0
 62
4
 10
3.34034431E+02
 20
-2.71861935E+02
  0
VERTEX
  8
0
 62
4
 10
3.33773180E+02
 20
-2.71829089E+02
  0
VERTEX
  8
0
 62
4
 10
3.33505743E+02
 20
-2.71805448E+02
  0
VERTEX
  8
0
 62
4
 10
3.33234157E+02
 20
-2.71791190E+02
  0
VERTEX
  8
0
 62
4
 10
3.32960488E+02
 20
-2.71786426E+02
  0
VERTEX
  8
0
 62
4
 10
3.32686819E+02
 20
-2.71791190E+02
  0
VERTEX
  8
0
 62
4
 10
3.32415233E+02
 20
-2.71805448E+02
  0
VERTEX
  8
0
 62
4
 10
3.32147796E+02
 20
-2.71829089E+02
  0
VERTEX
  8
0
 62
4
 10
3.31886545E+02
 20
-2.71861935E+02
  0
VERTEX
  8
0
 62
4
 10
3.31633467E+02
 20
-2.71903735E+02
  0
VERTEX
  8
0
 62
4
 10
3.31390488E+02
 20
-2.71954172E+02
  0
VERTEX
  8
0
 62
4
 10
3.31159458E+02
 20
-2.72012861E+02
  0
VERTEX
  8
0
 62
4
 10
3.30942135E+02
 20
-2.72079355E+02
  0
VERTEX
  8
0
 62
4
 10
3.30740173E+02
 20
-2.72153149E+02
  0
VERTEX
  8
0
 62
4
 10
3.30555108E+02
 20
-2.72233682E+02
  0
VERTEX
  8
0
 62
4
 10
3.30388351E+02
 20
-2.72320339E+02
  0
VERTEX
  8
0
 62
4
 10
3.30241168E+02
 20
-2.72412462E+02
  0
VERTEX
  8
0
 62
4
 10
3.30114682E+02
 20
-2.72509349E+02
  0
VERTEX
  8
0
 62
4
 10
3.30009853E+02
 20
-2.72610264E+02
  0
VERTEX
  8
0
 62
4
 10
3.29927481E+02
 20
-2.72714438E+02
  0
VERTEX
  8
0
 62
4
 10
3.29868192E+02
 20
-2.72821078E+02
  0
VERTEX
  8
0
 62
4
 10
3.29832437E+02
 20
-2.72929373E+02
  0
VERTEX
  8
0
 62
4
 10
3.29820488E+02
 20
-2.73038498E+02
  0
VERTEX
  8
0
 62
4
 10
3.29832437E+02
 20
-2.73147623E+02
  0
VERTEX
  8
0
 62
4
 10
3.29868192E+02
 20
-2.73255918E+02
  0
VERTEX
  8
0
 62
4
 10
3.29927481E+02
 20
-2.73362558E+02
  0
VERTEX
  8
0
 62
4
 10
3.30009853E+02
 20
-2.73466732E+02
  0
VERTEX
  8
0
 62
4
 10
3.30114682E+02
 20
-2.73567647E+02
  0
VERTEX
  8
0
 62
4
 10
3.30241168E+02
 20
-2.73664534E+02
  0
VERTEX
  8
0
 62
4
 10
3.30388351E+02
 20
-2.73756657E+02
  0
VERTEX
  8
0
 62
4
 10
3.30555108E+02
 20
-2.73843314E+02
  0
VERTEX
  8
0
 62
4
 10
3.30740173E+02
 20
-2.73923847E+02
  0
VERTEX
  8
0
 62
4
 10
3.30942135E+02
 20
-2.73997641E+02
  0
VERTEX
  8
0
 62
4
 10
3.31159458E+02
 20
-2.74064135E+02
  0
VERTEX
  8
0
 62
4
 10
3.31390488E+02
 20
-2.74122824E+02
  0
VERTEX
  8
0
 62
4
 10
3.31633467E+02
 20
-2.74173261E+02
  0
VERTEX
  8
0
 62
4
 10
3.31886545E+02
 20
-2.74215061E+02
  0
VERTEX
  8
0
 62
4
 10
3.32147796E+02
 20
-2.74247907E+02
  0
VERTEX
  8
0
 62
4
 10
3.32415233E+02
 20
-2.74271548E+02
  0
VERTEX
  8
0
 62
4
 10
3.32686819E+02
 20
-2.74285806E+02
  0
VERTEX
  8
0
 62
4
 10
3.32960488E+02
 20
-2.74290570E+02
  0
VERTEX
  8
0
 62
4
 10
3.33234157E+02
 20
-2.74285806E+02
  0
VERTEX
  8
0
 62
4
 10
3.33505743E+02
 20
-2.74271548E+02
  0
VERTEX
  8
0
 62
4
 10
3.33773180E+02
 20
-2.74247907E+02
  0
VERTEX
  8
0
 62
4
 10
3.34034431E+02
 20
-2.74215061E+02
  0
VERTEX
  8
0
 62
4
 10
3.34287509E+02
 20
-2.74173261E+02
  0
VERTEX
  8
0
 62
4
 10
3.34530488E+02
 20
-2.74122824E+02
  0
VERTEX
  8
0
 62
4
 10
3.34761518E+02
 20
-2.74064135E+02
  0
VERTEX
  8
0
 62
4
 10
3.34978841E+02
 20
-2.73997641E+02
  0
VERTEX
  8
0
 62
4
 10
3.35180803E+02
 20
-2.73923847E+02
  0
VERTEX
  8
0
 62
4
 10
3.35365868E+02
 20
-2.73843314E+02
  0
VERTEX
  8
0
 62
4
 10
3.35532625E+02
 20
-2.73756657E+02
  0
VERTEX
  8
0
 62
4
 10
3.35679808E+02
 20
-2.73664534E+02
  0
VERTEX
  8
0
 62
4
 10
3.35806294E+02
 20
-2.73567647E+02
  0
VERTEX
  8
0
 62
4
 10
3.35911123E+02
 20
-2.73466732E+02
  0
VERTEX
  8
0
 62
4
 10
3.35993495E+02
 20
-2.73362558E+02
  0
VERTEX
  8
0
 62
4
 10
3.36052784E+02
 20
-2.73255918E+02
  0
VERTEX
  8
0
 62
4
 10
3.36088539E+02
 20
-2.73147623E+02
  0
VERTEX
  8
0
 62
4
 10
3.36100488E+02
 20
-2.73038498E+02
  0
SEQEND
  8
0
  0
LINE
  8
0
  6
CENTER
 62
6
 10
3.32960488E+02
 20
-2.70419510E+02
 11
3.32960488E+02
 21
-2.73038498E+02
  0
LINE
  8
0
 62
4
 10
3.59460488E+02
 20
-2.76347600E+02
 11
3.59460488E+02
 21
-2.70881358E+02
  0
LINE
  8
0
 62
4
 10
3.23460488E+02
 20
-2.76347600E+02
 11
3.23460488E+02
 21
-2.70881358E+02
  0
LINE
  8
0
 62
4
 10
3.41460488E+02
 20
-2.69958513E+02
 11
3.23460488E+02
 21
-2.69958513E+02
  0
ARC
  8
0
 62
4
 10
3.59462974E+02
 20
-2.71456026E+02
 40
1.49751542E+00
 50
3.59904859E+02
 51
9.00951404E+01
  0
ARC
  8
0
 62
4
 10
3.23458001E+02
 20
-2.71456026E+02
 40
1.49751542E+00
 50
8.99048594E+01
 51
1.80095141E+02
  0
LINE
  8
0
 62
4
 10
3.59460488E+02
 20
-2.69958513E+02
 11
3.56460488E+02
 21
-2.69958513E+02
  0
LINE
  8
0
 62
4
 10
3.56460488E+02
 20
-2.72360876E+02
 11
3.41460488E+02
 21
-2.72360876E+02
  0
ARC
  8
0
 62
4
 10
3.59462974E+02
 20
-2.79033830E+02
 40
1.49751542E+00
 50
3.59904859E+02
 51
9.00951404E+01
  0
LINE
  8
0
 62
4
 10
3.58460488E+02
 20
-2.74075434E+02
 11
3.58460488E+02
 21
-2.77536317E+02
  0
LINE
  8
0
 62
4
 10
3.58460488E+02
 20
-2.74075434E+02
 11
3.39460488E+02
 21
-2.74075434E+02
  0
LINE
  8
0
 62
4
 10
3.39460488E+02
 20
-2.74075434E+02
 11
3.39460488E+02
 21
-2.77536317E+02
  0
ARC
  8
0
 62
4
 10
3.23458001E+02
 20
-2.79033830E+02
 40
1.49751542E+00
 50
8.99048594E+01
 51
1.80095141E+02
  0
LINE
  8
0
 62
4
 10
3.59460488E+02
 20
-2.77536317E+02
 11
3.23460488E+02
 21
-2.77536317E+02
  0
LINE
  8
0
 62
4
 10
3.41460498E+02
 20
-2.81491727E+02
 11
3.56460498E+02
 21
-2.81491727E+02
  0
LINE
  8
0
 62
4
 10
3.42460498E+02
 20
-2.89956830E+02
 11
3.55460498E+02
 21
-2.89956830E+02
  0
LINE
  8
0
 62
4
 10
3.41460498E+02
 20
-3.04252570E+02
 11
3.41460498E+02
 21
-2.81491727E+02
  0
LINE
  8
0
 62
4
 10
3.56460498E+02
 20
-3.04252570E+02
 11
3.56460498E+02
 21
-2.81491727E+02
  0
LINE
  8
0
 62
4
 10
3.41460498E+02
 20
-3.04252570E+02
 11
3.56460498E+02
 21
-3.04252570E+02
  0
LINE
  8
0
  6
CENTER
 62
6
 10
3.52960498E+02
 20
-3.04891568E+02
 11
3.52960498E+02
 21
-2.97891568E+02
  0
LINE
  8
0
  6
CENTER
 62
6
 10
3.49460498E+02
 20
-3.01391568E+02
 11
3.56460498E+02
 21
-3.01391568E+02
  0
LINE
  8
0
  6
CENTER
 62
6
 10
3.41460498E+02
 20
-3.01391568E+02
 11
3.48460498E+02
 21
-3.01391568E+02
  0
LINE
  8
0
  6
CENTER
 62
6
 10
3.44960498E+02
 20
-3.04891568E+02
 11
3.44960498E+02
 21
-2.97891568E+02
  0
POLYLINE
  8
0
 62
4
 66
1
  0
VERTEX
  8
0
 62
4
 10
3.46960498E+02
 20
-3.01391568E+02
  0
VERTEX
  8
0
 62
4
 10
3.46952887E+02
 20
-3.01219171E+02
  0
VERTEX
  8
0
 62
4
 10
3.46930114E+02
 20
-3.01048086E+02
  0
VERTEX
  8
0
 62
4
 10
3.46892350E+02
 20
-3.00879616E+02
  0
VERTEX
  8
0
 62
4
 10
3.46839883E+02
 20
-3.00715041E+02
  0
VERTEX
  8
0
 62
4
 10
3.46773114E+02
 20
-3.00555616E+02
  0
VERTEX
  8
0
 62
4
 10
3.46692549E+02
 20
-3.00402552E+02
  0
VERTEX
  8
0
 62
4
 10
3.46598802E+02
 20
-3.00257016E+02
  0
VERTEX
  8
0
 62
4
 10
3.46492587E+02
 20
-3.00120114E+02
  0
VERTEX
  8
0
 62
4
 10
3.46374712E+02
 20
-2.99992888E+02
  0
VERTEX
  8
0
 62
4
 10
3.46246073E+02
 20
-2.99876308E+02
  0
VERTEX
  8
0
 62
4
 10
3.46107651E+02
 20
-2.99771259E+02
  0
VERTEX
  8
0
 62
4
 10
3.45960498E+02
 20
-2.99678542E+02
  0
VERTEX
  8
0
 62
4
 10
3.45805735E+02
 20
-2.99598862E+02
  0
VERTEX
  8
0
 62
4
 10
3.45644538E+02
 20
-2.99532826E+02
  0
VERTEX
  8
0
 62
4
 10
3.45478136E+02
 20
-2.99480936E+02
  0
VERTEX
  8
0
 62
4
 10
3.45307794E+02
 20
-2.99443587E+02
  0
VERTEX
  8
0
 62
4
 10
3.45134809E+02
 20
-2.99421063E+02
  0
VERTEX
  8
0
 62
4
 10
3.44960498E+02
 20
-2.99413536E+02
  0
VERTEX
  8
0
 62
4
 10
3.44786187E+02
 20
-2.99421063E+02
  0
VERTEX
  8
0
 62
4
 10
3.44613202E+02
 20
-2.99443587E+02
  0
VERTEX
  8
0
 62
4
 10
3.44442860E+02
 20
-2.99480936E+02
  0
VERTEX
  8
0
 62
4
 10
3.44276458E+02
 20
-2.99532826E+02
  0
VERTEX
  8
0
 62
4
 10
3.44115261E+02
 20
-2.99598862E+02
  0
VERTEX
  8
0
 62
4
 10
3.43960498E+02
 20
-2.99678542E+02
  0
VERTEX
  8
0
 62
4
 10
3.43813345E+02
 20
-2.99771259E+02
  0
VERTEX
  8
0
 62
4
 10
3.43674923E+02
 20
-2.99876308E+02
  0
VERTEX
  8
0
 62
4
 10
3.43546284E+02
 20
-2.99992888E+02
  0
VERTEX
  8
0
 62
4
 10
3.43428409E+02
 20
-3.00120114E+02
  0
VERTEX
  8
0
 62
4
 10
3.43322194E+02
 20
-3.00257016E+02
  0
VERTEX
  8
0
 62
4
 10
3.43228447E+02
 20
-3.00402552E+02
  0
VERTEX
  8
0
 62
4
 10
3.43147882E+02
 20
-3.00555616E+02
  0
VERTEX
  8
0
 62
4
 10
3.43081113E+02
 20
-3.00715041E+02
  0
VERTEX
  8
0
 62
4
 10
3.43028646E+02
 20
-3.00879616E+02
  0
VERTEX
  8
0
 62
4
 10
3.42990882E+02
 20
-3.01048086E+02
  0
VERTEX
  8
0
 62
4
 10
3.42968109E+02
 20
-3.01219171E+02
  0
VERTEX
  8
0
 62
4
 10
3.42960498E+02
 20
-3.01391568E+02
  0
VERTEX
  8
0
 62
4
 10
3.42968109E+02
 20
-3.01563965E+02
  0
VERTEX
  8
0
 62
4
 10
3.42990882E+02
 20
-3.01735050E+02
  0
VERTEX
  8
0
 62
4
 10
3.43028646E+02
 20
-3.01903520E+02
  0
VERTEX
  8
0
 62
4
 10
3.43081113E+02
 20
-3.02068095E+02
  0
VERTEX
  8
0
 62
4
 10
3.43147882E+02
 20
-3.02227520E+02
  0
VERTEX
  8
0
 62
4
 10
3.43228447E+02
 20
-3.02380584E+02
  0
VERTEX
  8
0
 62
4
 10
3.43322194E+02
 20
-3.02526120E+02
  0
VERTEX
  8
0
 62
4
 10
3.43428409E+02
 20
-3.02663022E+02
  0
VERTEX
  8
0
 62
4
 10
3.43546284E+02
 20
-3.02790248E+02
  0
VERTEX
  8
0
 62
4
 10
3.43674923E+02
 20
-3.02906828E+02
  0
VERTEX
  8
0
 62
4
 10
3.43813345E+02
 20
-3.03011877E+02
  0
VERTEX
  8
0
 62
4
 10
3.43960498E+02
 20
-3.03104594E+02
  0
VERTEX
  8
0
 62
4
 10
3.44115261E+02
 20
-3.03184274E+02
  0
VERTEX
  8
0
 62
4
 10
3.44276458E+02
 20
-3.03250310E+02
  0
VERTEX
  8
0
 62
4
 10
3.44442860E+02
 20
-3.03302200E+02
  0
VERTEX
  8
0
 62
4
 10
3.44613202E+02
 20
-3.03339549E+02
  0
VERTEX
  8
0
 62
4
 10
3.44786187E+02
 20
-3.03362073E+02
  0
VERTEX
  8
0
 62
4
 10
3.44960498E+02
 20
-3.03369600E+02
  0
VERTEX
  8
0
 62
4
 10
3.45134809E+02
 20
-3.03362073E+02
  0
VERTEX
  8
0
 62
4
 10
3.45307794E+02
 20
-3.03339549E+02
  0
VERTEX
  8
0
 62
4
 10
3.45478136E+02
 20
-3.03302200E+02
  0
VERTEX
  8
0
 62
4
 10
3.45644538E+02
 20
-3.03250310E+02
  0
VERTEX
  8
0
 62
4
 10
3.45805735E+02
 20
-3.03184274E+02
  0
VERTEX
  8
0
 62
4
 10
3.45960498E+02
 20
-3.03104594E+02
  0
VERTEX
  8
0
 62
4
 10
3.46107651E+02
 20
-3.03011877E+02
  0
VERTEX
  8
0
 62
4
 10
3.46246073E+02
 20
-3.02906828E+02
  0
VERTEX
  8
0
 62
4
 10
3.46374712E+02
 20
-3.02790248E+02
  0
VERTEX
  8
0
 62
4
 10
3.46492587E+02
 20
-3.02663022E+02
  0
VERTEX
  8
0
 62
4
 10
3.46598802E+02
 20
-3.02526120E+02
  0
VERTEX
  8
0
 62
4
 10
3.46692549E+02
 20
-3.02380584E+02
  0
VERTEX
  8
0
 62
4
 10
3.46773114E+02
 20
-3.02227520E+02
  0
VERTEX
  8
0
 62
4
 10
3.46839883E+02
 20
-3.02068095E+02
  0
VERTEX
  8
0
 62
4
 10
3.46892350E+02
 20
-3.01903520E+02
  0
VERTEX
  8
0
 62
4
 10
3.46930114E+02
 20
-3.01735050E+02
  0
VERTEX
  8
0
 62
4
 10
3.46952887E+02
 20
-3.01563965E+02
  0
VERTEX
  8
0
 62
4
 10
3.46960498E+02
 20
-3.01391568E+02
  0
SEQEND
  8
0
  0
POLYLINE
  8
0
 62
4
 66
1
  0
VERTEX
  8
0
 62
4
 10
3.54960498E+02
 20
-3.01391568E+02
  0
VERTEX
  8
0
 62
4
 10
3.54952887E+02
 20
-3.01219171E+02
  0
VERTEX
  8
0
 62
4
 10
3.54930114E+02
 20
-3.01048086E+02
  0
VERTEX
  8
0
 62
4
 10
3.54892350E+02
 20
-3.00879616E+02
  0
VERTEX
  8
0
 62
4
 10
3.54839883E+02
 20
-3.00715041E+02
  0
VERTEX
  8
0
 62
4
 10
3.54773114E+02
 20
-3.00555616E+02
  0
VERTEX
  8
0
 62
4
 10
3.54692549E+02
 20
-3.00402552E+02
  0
VERTEX
  8
0
 62
4
 10
3.54598802E+02
 20
-3.00257016E+02
  0
VERTEX
  8
0
 62
4
 10
3.54492587E+02
 20
-3.00120114E+02
  0
VERTEX
  8
0
 62
4
 10
3.54374712E+02
 20
-2.99992888E+02
  0
VERTEX
  8
0
 62
4
 10
3.54246073E+02
 20
-2.99876308E+02
  0
VERTEX
  8
0
 62
4
 10
3.54107651E+02
 20
-2.99771259E+02
  0
VERTEX
  8
0
 62
4
 10
3.53960498E+02
 20
-2.99678542E+02
  0
VERTEX
  8
0
 62
4
 10
3.53805735E+02
 20
-2.99598862E+02
  0
VERTEX
  8
0
 62
4
 10
3.53644538E+02
 20
-2.99532826E+02
  0
VERTEX
  8
0
 62
4
 10
3.53478136E+02
 20
-2.99480936E+02
  0
VERTEX
  8
0
 62
4
 10
3.53307794E+02
 20
-2.99443587E+02
  0
VERTEX
  8
0
 62
4
 10
3.53134809E+02
 20
-2.99421063E+02
  0
VERTEX
  8
0
 62
4
 10
3.52960498E+02
 20
-2.99413536E+02
  0
VERTEX
  8
0
 62
4
 10
3.52786187E+02
 20
-2.99421063E+02
  0
VERTEX
  8
0
 62
4
 10
3.52613202E+02
 20
-2.99443587E+02
  0
VERTEX
  8
0
 62
4
 10
3.52442860E+02
 20
-2.99480936E+02
  0
VERTEX
  8
0
 62
4
 10
3.52276458E+02
 20
-2.99532826E+02
  0
VERTEX
  8
0
 62
4
 10
3.52115261E+02
 20
-2.99598862E+02
  0
VERTEX
  8
0
 62
4
 10
3.51960498E+02
 20
-2.99678542E+02
  0
VERTEX
  8
0
 62
4
 10
3.51813345E+02
 20
-2.99771259E+02
  0
VERTEX
  8
0
 62
4
 10
3.51674923E+02
 20
-2.99876308E+02
  0
VERTEX
  8
0
 62
4
 10
3.51546284E+02
 20
-2.99992888E+02
  0
VERTEX
  8
0
 62
4
 10
3.51428409E+02
 20
-3.00120114E+02
  0
VERTEX
  8
0
 62
4
 10
3.51322194E+02
 20
-3.00257016E+02
  0
VERTEX
  8
0
 62
4
 10
3.51228447E+02
 20
-3.00402552E+02
  0
VERTEX
  8
0
 62
4
 10
3.51147882E+02
 20
-3.00555616E+02
  0
VERTEX
  8
0
 62
4
 10
3.51081113E+02
 20
-3.00715041E+02
  0
VERTEX
  8
0
 62
4
 10
3.51028646E+02
 20
-3.00879616E+02
  0
VERTEX
  8
0
 62
4
 10
3.50990882E+02
 20
-3.01048086E+02
  0
VERTEX
  8
0
 62
4
 10
3.50968109E+02
 20
-3.01219171E+02
  0
VERTEX
  8
0
 62
4
 10
3.50960498E+02
 20
-3.01391568E+02
  0
VERTEX
  8
0
 62
4
 10
3.50968109E+02
 20
-3.01563965E+02
  0
VERTEX
  8
0
 62
4
 10
3.50990882E+02
 20
-3.01735050E+02
  0
VERTEX
  8
0
 62
4
 10
3.51028646E+02
 20
-3.01903520E+02
  0
VERTEX
  8
0
 62
4
 10
3.51081113E+02
 20
-3.02068095E+02
  0
VERTEX
  8
0
 62
4
 10
3.51147882E+02
 20
-3.02227520E+02
  0
VERTEX
  8
0
 62
4
 10
3.51228447E+02
 20
-3.02380584E+02
  0
VERTEX
  8
0
 62
4
 10
3.51322194E+02
 20
-3.02526120E+02
  0
VERTEX
  8
0
 62
4
 10
3.51428409E+02
 20
-3.02663022E+02
  0
VERTEX
  8
0
 62
4
 10
3.51546284E+02
 20
-3.02790248E+02
  0
VERTEX
  8
0
 62
4
 10
3.51674923E+02
 20
-3.02906828E+02
  0
VERTEX
  8
0
 62
4
 10
3.51813345E+02
 20
-3.03011877E+02
  0
VERTEX
  8
0
 62
4
 10
3.51960498E+02
 20
-3.03104594E+02
  0
VERTEX
  8
0
 62
4
 10
3.52115261E+02
 20
-3.03184274E+02
  0
VERTEX
  8
0
 62
4
 10
3.52276458E+02
 20
-3.03250310E+02
  0
VERTEX
  8
0
 62
4
 10
3.52442860E+02
 20
-3.03302200E+02
  0
VERTEX
  8
0
 62
4
 10
3.52613202E+02
 20
-3.03339549E+02
  0
VERTEX
  8
0
 62
4
 10
3.52786187E+02
 20
-3.03362073E+02
  0
VERTEX
  8
0
 62
4
 10
3.52960498E+02
 20
-3.03369600E+02
  0
VERTEX
  8
0
 62
4
 10
3.53134809E+02
 20
-3.03362073E+02
  0
VERTEX
  8
0
 62
4
 10
3.53307794E+02
 20
-3.03339549E+02
  0
VERTEX
  8
0
 62
4
 10
3.53478136E+02
 20
-3.03302200E+02
  0
VERTEX
  8
0
 62
4
 10
3.53644538E+02
 20
-3.03250310E+02
  0
VERTEX
  8
0
 62
4
 10
3.53805735E+02
 20
-3.03184274E+02
  0
VERTEX
  8
0
 62
4
 10
3.53960498E+02
 20
-3.03104594E+02
  0
VERTEX
  8
0
 62
4
 10
3.54107651E+02
 20
-3.03011877E+02
  0
VERTEX
  8
0
 62
4
 10
3.54246073E+02
 20
-3.02906828E+02
  0
VERTEX
  8
0
 62
4
 10
3.54374712E+02
 20
-3.02790248E+02
  0
VERTEX
  8
0
 62
4
 10
3.54492587E+02
 20
-3.02663022E+02
  0
VERTEX
  8
0
 62
4
 10
3.54598802E+02
 20
-3.02526120E+02
  0
VERTEX
  8
0
 62
4
 10
3.54692549E+02
 20
-3.02380584E+02
  0
VERTEX
  8
0
 62
4
 10
3.54773114E+02
 20
-3.02227520E+02
  0
VERTEX
  8
0
 62
4
 10
3.54839883E+02
 20
-3.02068095E+02
  0
VERTEX
  8
0
 62
4
 10
3.54892350E+02
 20
-3.01903520E+02
  0
VERTEX
  8
0
 62
4
 10
3.54930114E+02
 20
-3.01735050E+02
  0
VERTEX
  8
0
 62
4
 10
3.54952887E+02
 20
-3.01563965E+02
  0
VERTEX
  8
0
 62
4
 10
3.54960498E+02
 20
-3.01391568E+02
  0
SEQEND
  8
0
  0
POLYLINE
  8
0
 62
4
 66
1
  0
VERTEX
  8
0
 62
4
 10
3.54160498E+02
 20
-3.01391568E+02
  0
VERTEX
  8
0
 62
4
 10
3.54155932E+02
 20
-3.01288130E+02
  0
VERTEX
  8
0
 62
4
 10
3.54142267E+02
 20
-3.01185479E+02
  0
VERTEX
  8
0
 62
4
 10
3.54119609E+02
 20
-3.01084397E+02
  0
VERTEX
  8
0
 62
4
 10
3.54088129E+02
 20
-3.00985652E+02
  0
VERTEX
  8
0
 62
4
 10
3.54048067E+02
 20
-3.00889997E+02
  0
VERTEX
  8
0
 62
4
 10
3.53999728E+02
 20
-3.00798158E+02
  0
VERTEX
  8
0
 62
4
 10
3.53943480E+02
 20
-3.00710837E+02
  0
VERTEX
  8
0
 62
4
 10
3.53879751E+02
 20
-3.00628695E+02
  0
VERTEX
  8
0
 62
4
 10
3.53809026E+02
 20
-3.00552360E+02
  0
VERTEX
  8
0
 62
4
 10
3.53731843E+02
 20
-3.00482412E+02
  0
VERTEX
  8
0
 62
4
 10
3.53648790E+02
 20
-3.00419383E+02
  0
VERTEX
  8
0
 62
4
 10
3.53560498E+02
 20
-3.00363753E+02
  0
VERTEX
  8
0
 62
4
 10
3.53467640E+02
 20
-3.00315945E+02
  0
VERTEX
  8
0
 62
4
 10
3.53370922E+02
 20
-3.00276323E+02
  0
VERTEX
  8
0
 62
4
 10
3.53271081E+02
 20
-3.00245189E+02
  0
VERTEX
  8
0
 62
4
 10
3.53168876E+02
 20
-3.00222779E+02
  0
VERTEX
  8
0
 62
4
 10
3.53065085E+02
 20
-3.00209265E+02
  0
VERTEX
  8
0
 62
4
 10
3.52960498E+02
 20
-3.00204749E+02
  0
VERTEX
  8
0
 62
4
 10
3.52855911E+02
 20
-3.00209265E+02
  0
VERTEX
  8
0
 62
4
 10
3.52752120E+02
 20
-3.00222779E+02
  0
VERTEX
  8
0
 62
4
 10
3.52649915E+02
 20
-3.00245189E+02
  0
VERTEX
  8
0
 62
4
 10
3.52550074E+02
 20
-3.00276323E+02
  0
VERTEX
  8
0
 62
4
 10
3.52453356E+02
 20
-3.00315945E+02
  0
VERTEX
  8
0
 62
4
 10
3.52360498E+02
 20
-3.00363753E+02
  0
VERTEX
  8
0
 62
4
 10
3.52272206E+02
 20
-3.00419383E+02
  0
VERTEX
  8
0
 62
4
 10
3.52189153E+02
 20
-3.00482412E+02
  0
VERTEX
  8
0
 62
4
 10
3.52111970E+02
 20
-3.00552360E+02
  0
VERTEX
  8
0
 62
4
 10
3.52041245E+02
 20
-3.00628695E+02
  0
VERTEX
  8
0
 62
4
 10
3.51977516E+02
 20
-3.00710837E+02
  0
VERTEX
  8
0
 62
4
 10
3.51921268E+02
 20
-3.00798158E+02
  0
VERTEX
  8
0
 62
4
 10
3.51872929E+02
 20
-3.00889997E+02
  0
VERTEX
  8
0
 62
4
 10
3.51832867E+02
 20
-3.00985652E+02
  0
VERTEX
  8
0
 62
4
 10
3.51801387E+02
 20
-3.01084397E+02
  0
VERTEX
  8
0
 62
4
 10
3.51778729E+02
 20
-3.01185479E+02
  0
VERTEX
  8
0
 62
4
 10
3.51765064E+02
 20
-3.01288130E+02
  0
VERTEX
  8
0
 62
4
 10
3.51760498E+02
 20
-3.01391568E+02
  0
VERTEX
  8
0
 62
4
 10
3.51765064E+02
 20
-3.01495006E+02
  0
VERTEX
  8
0
 62
4
 10
3.51778729E+02
 20
-3.01597657E+02
  0
VERTEX
  8
0
 62
4
 10
3.51801387E+02
 20
-3.01698739E+02
  0
VERTEX
  8
0
 62
4
 10
3.51832867E+02
 20
-3.01797484E+02
  0
VERTEX
  8
0
 62
4
 10
3.51872929E+02
 20
-3.01893139E+02
  0
VERTEX
  8
0
 62
4
 10
3.51921268E+02
 20
-3.01984978E+02
  0
VERTEX
  8
0
 62
4
 10
3.51977516E+02
 20
-3.02072299E+02
  0
VERTEX
  8
0
 62
4
 10
3.52041245E+02
 20
-3.02154441E+02
  0
VERTEX
  8
0
 62
4
 10
3.52111970E+02
 20
-3.02230776E+02
  0
VERTEX
  8
0
 62
4
 10
3.52189153E+02
 20
-3.02300724E+02
  0
VERTEX
  8
0
 62
4
 10
3.52272206E+02
 20
-3.02363753E+02
  0
VERTEX
  8
0
 62
4
 10
3.52360498E+02
 20
-3.02419383E+02
  0
VERTEX
  8
0
 62
4
 10
3.52453356E+02
 20
-3.02467191E+02
  0
VERTEX
  8
0
 62
4
 10
3.52550074E+02
 20
-3.02506813E+02
  0
VERTEX
  8
0
 62
4
 10
3.52649915E+02
 20
-3.02537947E+02
  0
VERTEX
  8
0
 62
4
 10
3.52752120E+02
 20
-3.02560357E+02
  0
VERTEX
  8
0
 62
4
 10
3.52855911E+02
 20
-3.02573871E+02
  0
VERTEX
  8
0
 62
4
 10
3.52960498E+02
 20
-3.02578387E+02
  0
VERTEX
  8
0
 62
4
 10
3.53065085E+02
 20
-3.02573871E+02
  0
VERTEX
  8
0
 62
4
 10
3.53168876E+02
 20
-3.02560357E+02
  0
VERTEX
  8
0
 62
4
 10
3.53271081E+02
 20
-3.02537947E+02
  0
VERTEX
  8
0
 62
4
 10
3.53370922E+02
 20
-3.02506813E+02
  0
VERTEX
  8
0
 62
4
 10
3.53467640E+02
 20
-3.02467191E+02
  0
VERTEX
  8
0
 62
4
 10
3.53560498E+02
 20
-3.02419383E+02
  0
VERTEX
  8
0
 62
4
 10
3.53648790E+02
 20
-3.02363753E+02
  0
VERTEX
  8
0
 62
4
 10
3.53731843E+02
 20
-3.02300724E+02
  0
VERTEX
  8
0
 62
4
 10
3.53809026E+02
 20
-3.02230776E+02
  0
VERTEX
  8
0
 62
4
 10
3.53879751E+02
 20
-3.02154441E+02
  0
VERTEX
  8
0
 62
4
 10
3.53943480E+02
 20
-3.02072299E+02
  0
VERTEX
  8
0
 62
4
 10
3.53999728E+02
 20
-3.01984978E+02
  0
VERTEX
  8
0
 62
4
 10
3.54048067E+02
 20
-3.01893139E+02
  0
VERTEX
  8
0
 62
4
 10
3.54088129E+02
 20
-3.01797484E+02
  0
VERTEX
  8
0
 62
4
 10
3.54119609E+02
 20
-3.01698739E+02
  0
VERTEX
  8
0
 62
4
 10
3.54142267E+02
 20
-3.01597657E+02
  0
VERTEX
  8
0
 62
4
 10
3.54155932E+02
 20
-3.01495006E+02
  0
VERTEX
  8
0
 62
4
 10
3.54160498E+02
 20
-3.01391568E+02
  0
SEQEND
  8
0
  0
POLYLINE
  8
0
 62
4
 66
1
  0
VERTEX
  8
0
 62
4
 10
3.46160498E+02
 20
-3.01391568E+02
  0
VERTEX
  8
0
 62
4
 10
3.46155932E+02
 20
-3.01288130E+02
  0
VERTEX
  8
0
 62
4
 10
3.46142267E+02
 20
-3.01185479E+02
  0
VERTEX
  8
0
 62
4
 10
3.46119609E+02
 20
-3.01084397E+02
  0
VERTEX
  8
0
 62
4
 10
3.46088129E+02
 20
-3.00985652E+02
  0
VERTEX
  8
0
 62
4
 10
3.46048067E+02
 20
-3.00889997E+02
  0
VERTEX
  8
0
 62
4
 10
3.45999728E+02
 20
-3.00798158E+02
  0
VERTEX
  8
0
 62
4
 10
3.45943480E+02
 20
-3.00710837E+02
  0
VERTEX
  8
0
 62
4
 10
3.45879751E+02
 20
-3.00628695E+02
  0
VERTEX
  8
0
 62
4
 10
3.45809026E+02
 20
-3.00552360E+02
  0
VERTEX
  8
0
 62
4
 10
3.45731843E+02
 20
-3.00482412E+02
  0
VERTEX
  8
0
 62
4
 10
3.45648790E+02
 20
-3.00419383E+02
  0
VERTEX
  8
0
 62
4
 10
3.45560498E+02
 20
-3.00363753E+02
  0
VERTEX
  8
0
 62
4
 10
3.45467640E+02
 20
-3.00315945E+02
  0
VERTEX
  8
0
 62
4
 10
3.45370922E+02
 20
-3.00276323E+02
  0
VERTEX
  8
0
 62
4
 10
3.45271081E+02
 20
-3.00245189E+02
  0
VERTEX
  8
0
 62
4
 10
3.45168876E+02
 20
-3.00222779E+02
  0
VERTEX
  8
0
 62
4
 10
3.45065085E+02
 20
-3.00209265E+02
  0
VERTEX
  8
0
 62
4
 10
3.44960498E+02
 20
-3.00204749E+02
  0
VERTEX
  8
0
 62
4
 10
3.44855911E+02
 20
-3.00209265E+02
  0
VERTEX
  8
0
 62
4
 10
3.44752120E+02
 20
-3.00222779E+02
  0
VERTEX
  8
0
 62
4
 10
3.44649915E+02
 20
-3.00245189E+02
  0
VERTEX
  8
0
 62
4
 10
3.44550074E+02
 20
-3.00276323E+02
  0
VERTEX
  8
0
 62
4
 10
3.44453356E+02
 20
-3.00315945E+02
  0
VERTEX
  8
0
 62
4
 10
3.44360498E+02
 20
-3.00363753E+02
  0
VERTEX
  8
0
 62
4
 10
3.44272206E+02
 20
-3.00419383E+02
  0
VERTEX
  8
0
 62
4
 10
3.44189153E+02
 20
-3.00482412E+02
  0
VERTEX
  8
0
 62
4
 10
3.44111970E+02
 20
-3.00552360E+02
  0
VERTEX
  8
0
 62
4
 10
3.44041245E+02
 20
-3.00628695E+02
  0
VERTEX
  8
0
 62
4
 10
3.43977516E+02
 20
-3.00710837E+02
  0
VERTEX
  8
0
 62
4
 10
3.43921268E+02
 20
-3.00798158E+02
  0
VERTEX
  8
0
 62
4
 10
3.43872929E+02
 20
-3.00889997E+02
  0
VERTEX
  8
0
 62
4
 10
3.43832867E+02
 20
-3.00985652E+02
  0
VERTEX
  8
0
 62
4
 10
3.43801387E+02
 20
-3.01084397E+02
  0
VERTEX
  8
0
 62
4
 10
3.43778729E+02
 20
-3.01185479E+02
  0
VERTEX
  8
0
 62
4
 10
3.43765064E+02
 20
-3.01288130E+02
  0
VERTEX
  8
0
 62
4
 10
3.43760498E+02
 20
-3.01391568E+02
  0
VERTEX
  8
0
 62
4
 10
3.43765064E+02
 20
-3.01495006E+02
  0
VERTEX
  8
0
 62
4
 10
3.43778729E+02
 20
-3.01597657E+02
  0
VERTEX
  8
0
 62
4
 10
3.43801387E+02
 20
-3.01698739E+02
  0
VERTEX
  8
0
 62
4
 10
3.43832867E+02
 20
-3.01797484E+02
  0
VERTEX
  8
0
 62
4
 10
3.43872929E+02
 20
-3.01893139E+02
  0
VERTEX
  8
0
 62
4
 10
3.43921268E+02
 20
-3.01984978E+02
  0
VERTEX
  8
0
 62
4
 10
3.43977516E+02
 20
-3.02072299E+02
  0
VERTEX
  8
0
 62
4
 10
3.44041245E+02
 20
-3.02154441E+02
  0
VERTEX
  8
0
 62
4
 10
3.44111970E+02
 20
-3.02230776E+02
  0
VERTEX
  8
0
 62
4
 10
3.44189153E+02
 20
-3.02300724E+02
  0
VERTEX
  8
0
 62
4
 10
3.44272206E+02
 20
-3.02363753E+02
  0
VERTEX
  8
0
 62
4
 10
3.44360498E+02
 20
-3.02419383E+02
  0
VERTEX
  8
0
 62
4
 10
3.44453356E+02
 20
-3.02467191E+02
  0
VERTEX
  8
0
 62
4
 10
3.44550074E+02
 20
-3.02506813E+02
  0
VERTEX
  8
0
 62
4
 10
3.44649915E+02
 20
-3.02537947E+02
  0
VERTEX
  8
0
 62
4
 10
3.44752120E+02
 20
-3.02560357E+02
  0
VERTEX
  8
0
 62
4
 10
3.44855911E+02
 20
-3.02573871E+02
  0
VERTEX
  8
0
 62
4
 10
3.44960498E+02
 20
-3.02578387E+02
  0
VERTEX
  8
0
 62
4
 10
3.45065085E+02
 20
-3.02573871E+02
  0
VERTEX
  8
0
 62
4
 10
3.45168876E+02
 20
-3.02560357E+02
  0
VERTEX
  8
0
 62
4
 10
3.45271081E+02
 20
-3.02537947E+02
  0
VERTEX
  8
0
 62
4
 10
3.45370922E+02
 20
-3.02506813E+02
  0
VERTEX
  8
0
 62
4
 10
3.45467640E+02
 20
-3.02467191E+02
  0
VERTEX
  8
0
 62
4
 10
3.45560498E+02
 20
-3.02419383E+02
  0
VERTEX
  8
0
 62
4
 10
3.45648790E+02
 20
-3.02363753E+02
  0
VERTEX
  8
0
 62
4
 10
3.45731843E+02
 20
-3.02300724E+02
  0
VERTEX
  8
0
 62
4
 10
3.45809026E+02
 20
-3.02230776E+02
  0
VERTEX
  8
0
 62
4
 10
3.45879751E+02
 20
-3.02154441E+02
  0
VERTEX
  8
0
 62
4
 10
3.45943480E+02
 20
-3.02072299E+02
  0
VERTEX
  8
0
 62
4
 10
3.45999728E+02
 20
-3.01984978E+02
  0
VERTEX
  8
0
 62
4
 10
3.46048067E+02
 20
-3.01893139E+02
  0
VERTEX
  8
0
 62
4
 10
3.46088129E+02
 20
-3.01797484E+02
  0
VERTEX
  8
0
 62
4
 10
3.46119609E+02
 20
-3.01698739E+02
  0
VERTEX
  8
0
 62
4
 10
3.46142267E+02
 20
-3.01597657E+02
  0
VERTEX
  8
0
 62
4
 10
3.46155932E+02
 20
-3.01495006E+02
  0
VERTEX
  8
0
 62
4
 10
3.46160498E+02
 20
-3.01391568E+02
  0
SEQEND
  8
0
  0
LINE
  8
0
 62
4
 10
3.60960498E+02
 20
-2.92496448E+02
 11
3.56460498E+02
 21
-2.92496448E+02
  0
LINE
  8
0
 62
4
 10
3.41460498E+02
 20
-2.92496448E+02
 11
3.21960498E+02
 21
-2.92496448E+02
  0
LINE
  8
0
 62
2
 10
2.39139460E+02
 20
-3.56097002E+02
 11
2.86013658E+02
 21
-2.74908509E+02
  0
LINE
  8
0
 62
2
 10
-8.54357518E+01
 20
-3.62305462E+02
 11
-3.42366060E+01
 21
-2.73625940E+02
  0
LINE
  8
0
 62
4
 10
4.61960457E+02
 20
-3.50250000E+02
 11
4.61960457E+02
 21
-3.32241470E+02
  0
LINE
  8
0
 62
4
 10
4.77960457E+02
 20
-3.50250000E+02
 11
4.77960457E+02
 21
-3.32241471E+02
  0
LINE
  8
0
 62
2
 10
4.61960457E+02
 20
-3.37832504E+02
 11
4.44960457E+02
 21
-3.37832504E+02
  0
LINE
  8
0
 62
7
 10
4.61960457E+02
 20
-3.36750000E+02
 11
4.44960457E+02
 21
-3.36750000E+02
  0
LINE
  8
0
 62
4
 10
-2.21133171E+02
 20
-3.50250000E+02
 11
-2.21133171E+02
 21
-3.32241470E+02
  0
LINE
  8
0
 62
4
 10
-2.37133171E+02
 20
-3.50250000E+02
 11
-2.37133171E+02
 21
-3.32241471E+02
  0
LINE
  8
0
 62
7
 10
-2.21133171E+02
 20
-3.36750000E+02
 11
-2.04133171E+02
 21
-3.36750000E+02
  0
LINE
  8
0
 62
2
 10
-2.21133171E+02
 20
-3.37832504E+02
 11
-2.04133171E+02
 21
-3.37832504E+02
  0
LINE
  8
0
 62
7
 10
-2.21133171E+02
 20
-1.63750000E+02
 11
-2.04133171E+02
 21
-1.63750000E+02
  0
LINE
  8
0
 62
2
 10
-2.21133171E+02
 20
-1.62667511E+02
 11
-2.04133171E+02
 21
-1.62667511E+02
  0
LINE
  8
0
 62
7
 10
-2.21133171E+02
 20
-1.36750000E+02
 11
-2.04133171E+02
 21
-1.36750000E+02
  0
LINE
  8
0
 62
2
 10
-2.21133171E+02
 20
-1.37832489E+02
 11
-2.04133171E+02
 21
-1.37832489E+02
  0
LINE
  8
0
 62
4
 10
-4.02133232E+02
 20
-3.50250000E+02
 11
-4.02133232E+02
 21
-3.39857695E+02
  0
ARC
  8
0
 62
7
 10
-4.20133232E+02
 20
-3.50250000E+02
 40
1.19999999E+01
 50
0.00000000E+00
 51
1.80000000E+02
  0
LINE
  8
0
 62
4
 10
-4.38133232E+02
 20
-3.39857695E+02
 11
-4.38133232E+02
 21
-3.50250000E+02
  0
LINE
  8
0
 62
4
 10
-4.20133232E+02
 20
-3.29465390E+02
 11
-4.38133232E+02
 21
-3.39857695E+02
  0
LINE
  8
0
 62
4
 10
-4.02133232E+02
 20
-3.39857695E+02
 11
-4.20133232E+02
 21
-3.29465390E+02
  0
ARC
  8
0
 62
4
 10
-4.20133232E+02
 20
-3.50250000E+02
 40
1.80000000E+01
 50
0.00000000E+00
 51
1.80000000E+02
  0
LINE
  8
0
 62
4
 10
4.76352762E+02
 20
-3.39849166E+02
 11
4.63568152E+02
 21
-3.39849166E+02
  0
ARC
  8
0
 62
4
 10
4.96352762E+02
 20
-3.50241470E+02
 40
3.43923047E+01
 50
1.62412046E+02
 51
1.80014210E+02
  0
ARC
  8
0
 62
4
 10
4.43568153E+02
 20
-3.50241470E+02
 40
3.43923038E+01
 50
3.59985790E+02
 51
1.75879543E+01
  0
LINE
  8
0
 62
4
 10
4.76352762E+02
 20
-3.29456861E+02
 11
4.63568152E+02
 21
-3.29456861E+02
  0
LINE
  8
0
 62
4
 10
4.77960457E+02
 20
-3.32241470E+02
 11
4.76352762E+02
 21
-3.29456861E+02
  0
LINE
  8
0
 62
4
 10
4.61960457E+02
 20
-3.32241470E+02
 11
4.63568152E+02
 21
-3.29456861E+02
  0
ARC
  8
0
 62
4
 10
4.71161419E+02
 20
-3.34653013E+02
 40
9.20096185E+00
 50
1.45615752E+02
 51
2.14384247E+02
  0
ARC
  8
0
 62
4
 10
4.68759495E+02
 20
-3.34653013E+02
 40
9.20096165E+00
 50
3.25615751E+02
 51
3.43842485E+01
  0
LINE
  8
0
 62
4
 10
-2.35525476E+02
 20
-3.39849166E+02
 11
-2.22740866E+02
 21
-3.39849166E+02
  0
ARC
  8
0
 62
4
 10
-2.55525476E+02
 20
-3.50241470E+02
 40
3.43923047E+01
 50
3.59985790E+02
 51
1.75879538E+01
  0
ARC
  8
0
 62
4
 10
-2.02740867E+02
 20
-3.50241470E+02
 40
3.43923038E+01
 50
1.62412046E+02
 51
1.80014210E+02
  0
LINE
  8
0
 62
4
 10
-2.35525476E+02
 20
-3.29456861E+02
 11
-2.22740866E+02
 21
-3.29456861E+02
  0
LINE
  8
0
 62
4
 10
-2.37133171E+02
 20
-3.32241470E+02
 11
-2.35525476E+02
 21
-3.29456861E+02
  0
LINE
  8
0
 62
4
 10
-2.21133171E+02
 20
-3.32241470E+02
 11
-2.22740866E+02
 21
-3.29456861E+02
  0
ARC
  8
0
 62
4
 10
-2.30334133E+02
 20
-3.34653013E+02
 40
9.20096185E+00
 50
3.25615753E+02
 51
3.43842475E+01
  0
ARC
  8
0
 62
4
 10
-2.27932209E+02
 20
-3.34653013E+02
 40
9.20096165E+00
 50
1.45615752E+02
 51
2.14384248E+02
  0
LINE
  8
0
 62
4
 10
-2.35525476E+02
 20
-1.50250000E+02
 11
-2.22740866E+02
 21
-1.50250000E+02
  0
LINE
  8
0
 62
4
 10
-2.37133171E+02
 20
-1.68250000E+02
 11
-2.21133171E+02
 21
-1.68250000E+02
  0
ARC
  8
0
 62
4
 10
-2.47128361E+02
 20
-1.59250000E+02
 40
2.59951902E+01
 50
3.39743842E+02
 51
2.02561583E+01
  0
ARC
  8
0
 62
4
 10
-2.11137981E+02
 20
-1.59250000E+02
 40
2.59951898E+01
 50
1.59743841E+02
 51
2.00256159E+02
  0
LINE
  8
0
 62
4
 10
-2.37133171E+02
 20
-1.32250000E+02
 11
-2.21133171E+02
 21
-1.32250000E+02
  0
ARC
  8
0
 62
4
 10
-2.47128361E+02
 20
-1.41250000E+02
 40
2.59951902E+01
 50
3.39743842E+02
 51
2.02561583E+01
  0
ARC
  8
0
 62
4
 10
-2.11137981E+02
 20
-1.41250000E+02
 40
2.59951898E+01
 50
1.59743841E+02
 51
2.00256159E+02
  0
LINE
  8
0
 62
4
 10
-2.21133171E+02
 20
-1.68250000E+02
 11
-2.21133171E+02
 21
-1.32250000E+02
  0
LINE
  8
0
 62
4
 10
-2.37133171E+02
 20
-1.68250000E+02
 11
-2.37133171E+02
 21
-1.32250000E+02
  0
TEXT
  8
0
 62
7
 10
3.38596834E+02
 20
-4.40381967E+01
 40
9.00000000E+00
  1
925
 41
1.00000000E+00
  7
MONOTXT
  0
TEXT
  8
0
 62
7
 10
2.93596834E+02
 20
-4.40381967E+01
 40
9.00000000E+00
  1
825
 41
1.00000000E+00
  7
MONOTXT
  0
TEXT
  8
0
 62
7
 10
2.48596834E+02
 20
-4.40381967E+01
 40
9.00000000E+00
  1
725
 41
1.00000000E+00
  7
MONOTXT
  0
TEXT
  8
0
 62
7
 10
2.03596834E+02
 20
-4.40381967E+01
 40
9.00000000E+00
  1
625
 41
1.00000000E+00
  7
MONOTXT
  0
TEXT
  8
0
 62
7
 10
1.58596834E+02
 20
-4.40381967E+01
 40
9.00000000E+00
  1
525
 41
1.00000000E+00
  7
MONOTXT
  0
TEXT
  8
0
 62
7
 10
1.13596834E+02
 20
-4.40381967E+01
 40
9.00000000E+00
  1
425
 41
1.00000000E+00
  7
MONOTXT
  0
TEXT
  8
0
 62
7
 10
6.85968340E+01
 20
-4.40381967E+01
 40
9.00000000E+00
  1
375
 41
1.00000000E+00
  7
MONOTXT
  0
TEXT
  8
0
 62
7
 10
2.35968340E+01
 20
-4.40381967E+01
 40
9.00000000E+00
  1
325
 41
1.00000000E+00
  7
MONOTXT
  0
TEXT
  8
0
 62
7
 10
-2.14031660E+01
 20
-4.40381967E+01
 40
9.00000000E+00
  1
275
 41
1.00000000E+00
  7
MONOTXT
  0
TEXT
  8
0
 62
7
 10
-6.64031660E+01
 20
-4.40381967E+01
 40
9.00000000E+00
  1
225
 41
1.00000000E+00
  7
MONOTXT
  0
TEXT
  8
0
 62
7
 10
-1.11403166E+02
 20
-4.40381967E+01
 40
9.00000000E+00
  1
175
 41
1.00000000E+00
  7
MONOTXT
  0
TEXT
  8
0
 62
7
 10
-1.56403166E+02
 20
-4.40381967E+01
 40
9.00000000E+00
  1
125
 41
1.00000000E+00
  7
MONOTXT
  0
TEXT
  8
0
 62
7
 10
-1.96903166E+02
 20
-4.40381967E+01
 40
9.00000000E+00
  1
75
 41
1.00000000E+00
  7
MONOTXT
  0
TEXT
  8
0
 62
7
 10
-2.41903166E+02
 20
-4.40381967E+01
 40
9.00000000E+00
  1
25
 41
1.00000000E+00
  7
MONOTXT
  0
TEXT
  8
0
 62
7
 10
-2.82403166E+02
 20
-4.40381967E+01
 40
9.00000000E+00
  1
0
 41
1.00000000E+00
  7
MONOTXT
  0
TEXT
  8
0
 62
7
 10
-3.36403166E+02
 20
-4.40381967E+01
 40
9.00000000E+00
  1
-25
 41
1.00000000E+00
  7
MONOTXT
  0
TEXT
  8
0
 62
7
 10
3.34096834E+02
 20
-2.90381967E+01
 40
9.00000000E+00
  1
1000
 41
1.00000000E+00
  7
MONOTXT
  0
TEXT
  8
0
 62
7
 10
2.93596834E+02
 20
-2.90381967E+01
 40
9.00000000E+00
  1
900
 41
1.00000000E+00
  7
MONOTXT
  0
TEXT
  8
0
 62
7
 10
2.48596834E+02
 20
-2.90381967E+01
 40
9.00000000E+00
  1
800
 41
1.00000000E+00
  7
MONOTXT
  0
TEXT
  8
0
 62
7
 10
2.03596834E+02
 20
-2.90381967E+01
 40
9.00000000E+00
  1
700
 41
1.00000000E+00
  7
MONOTXT
  0
TEXT
  8
0
 62
7
 10
1.58596834E+02
 20
-2.90381967E+01
 40
9.00000000E+00
  1
600
 41
1.00000000E+00
  7
MONOTXT
  0
TEXT
  8
0
 62
7
 10
1.13596834E+02
 20
-2.90381967E+01
 40
9.00000000E+00
  1
500
 41
1.00000000E+00
  7
MONOTXT
  0
TEXT
  8
0
 62
7
 10
6.85968340E+01
 20
-2.90381967E+01
 40
9.00000000E+00
  1
450
 41
1.00000000E+00
  7
MONOTXT
  0
TEXT
  8
0
 62
7
 10
2.35968340E+01
 20
-2.90381967E+01
 40
9.00000000E+00
  1
400
 41
1.00000000E+00
  7
MONOTXT
  0
TEXT
  8
0
 62
7
 10
-2.14031660E+01
 20
-2.90381967E+01
 40
9.00000000E+00
  1
350
 41
1.00000000E+00
  7
MONOTXT
  0
TEXT
  8
0
 62
7
 10
-6.64031660E+01
 20
-2.90381967E+01
 40
9.00000000E+00
  1
300
 41
1.00000000E+00
  7
MONOTXT
  0
TEXT
  8
0
 62
7
 10
-1.11403166E+02
 20
-2.90381967E+01
 40
9.00000000E+00
  1
250
 41
1.00000000E+00
  7
MONOTXT
  0
TEXT
  8
0
 62
7
 10
-1.56403166E+02
 20
-2.90381967E+01
 40
9.00000000E+00
  1
200
 41
1.00000000E+00
  7
MONOTXT
  0
TEXT
  8
0
 62
7
 10
-2.01403166E+02
 20
-2.90381967E+01
 40
9.00000000E+00
  1
150
 41
1.00000000E+00
  7
MONOTXT
  0
TEXT
  8
0
 62
7
 10
-2.46403166E+02
 20
-2.90381967E+01
 40
9.00000000E+00
  1
100
 41
1.00000000E+00
  7
MONOTXT
  0
TEXT
  8
0
 62
7
 10
-2.86903166E+02
 20
-2.90381967E+01
 40
9.00000000E+00
  1
75
 41
1.00000000E+00
  7
MONOTXT
  0
TEXT
  8
0
 62
7
 10
-3.31903166E+02
 20
-2.90381967E+01
 40
9.00000000E+00
  1
50
 41
1.00000000E+00
  7
MONOTXT
  0
LINE
  8
0
 62
7
 10
3.73612459E+02
 20
-4.70381967E+01
 11
3.73612459E+02
 21
-1.70381967E+01
  0
LINE
  8
0
 62
7
 10
3.28612459E+02
 20
-4.70381967E+01
 11
3.28612459E+02
 21
-1.70381967E+01
  0
LINE
  8
0
 62
7
 10
2.83612459E+02
 20
-4.70381967E+01
 11
2.83612459E+02
 21
-1.70381967E+01
  0
LINE
  8
0
 62
7
 10
2.38612459E+02
 20
-4.70381967E+01
 11
2.38612459E+02
 21
-1.70381967E+01
  0
LINE
  8
0
 62
7
 10
1.93612459E+02
 20
-4.70381967E+01
 11
1.93612459E+02
 21
-1.70381967E+01
  0
LINE
  8
0
 62
7
 10
1.48612459E+02
 20
-4.70381967E+01
 11
1.48612459E+02
 21
-1.70381967E+01
  0
LINE
  8
0
 62
7
 10
1.03612459E+02
 20
-4.70381967E+01
 11
1.03612459E+02
 21
-1.70381967E+01
  0
LINE
  8
0
 62
7
 10
5.86124590E+01
 20
-4.70381967E+01
 11
5.86124590E+01
 21
-1.70381967E+01
  0
LINE
  8
0
 62
7
 10
1.36124590E+01
 20
-4.70381967E+01
 11
1.36124590E+01
 21
-1.70381967E+01
  0
LINE
  8
0
 62
7
 10
-3.13875410E+01
 20
-4.70381967E+01
 11
-3.13875410E+01
 21
-1.70381967E+01
  0
LINE
  8
0
 62
7
 10
-7.63875410E+01
 20
-4.70381967E+01
 11
-7.63875410E+01
 21
-1.70381967E+01
  0
LINE
  8
0
 62
7
 10
-1.21387541E+02
 20
-4.70381967E+01
 11
-1.21387541E+02
 21
-1.70381967E+01
  0
LINE
  8
0
 62
7
 10
-1.66387541E+02
 20
-4.70381967E+01
 11
-1.66387541E+02
 21
-1.70381967E+01
  0
LINE
  8
0
 62
7
 10
-2.11387541E+02
 20
-4.70381967E+01
 11
-2.11387541E+02
 21
-1.70381967E+01
  0
LINE
  8
0
 62
7
 10
-2.56387541E+02
 20
-4.70381967E+01
 11
-2.56387541E+02
 21
-1.70381967E+01
  0
LINE
  8
0
 62
7
 10
-3.01387541E+02
 20
-4.70381967E+01
 11
-3.01387541E+02
 21
-1.70381967E+01
  0
LINE
  8
0
 62
7
 10
-3.46387541E+02
 20
-4.70381967E+01
 11
-3.46387541E+02
 21
-1.70381967E+01
  0
LINE
  8
0
 62
7
 10
-4.18387541E+02
 20
-3.20381967E+01
 11
3.73612459E+02
 21
-3.20381967E+01
  0
TEXT
  8
0
 62
7
 10
-4.12602228E+02
 20
-4.40381967E+01
 40
9.00000000E+00
  1
STRETCH
 41
1.00000000E+00
  7
MONOTXT
  0
TEXT
  8
0
 62
7
 10
-4.08102228E+02
 20
-2.90381967E+01
 40
9.00000000E+00
  1
STROKE
 41
1.00000000E+00
  7
MONOTXT
  0
LINE
  8
0
 62
7
 10
-4.18387541E+02
 20
-4.70381967E+01
 11
-4.18387541E+02
 21
-1.70381967E+01
  0
LINE
  8
0
 62
7
 10
-4.18387541E+02
 20
-4.70381967E+01
 11
3.73612459E+02
 21
-4.70381967E+01
  0
LINE
  8
0
 62
7
 10
-4.18387541E+02
 20
-1.70381967E+01
 11
3.73612459E+02
 21
-1.70381967E+01
  0
TEXT
  8
0
 62
7
 10
-7.54031660E+01
 20
-1.15381967E+01
 40
9.00000000E+00
  1
STRETCH LIST
 41
1.05263158E+00
  7
MONOTXT
  0
TEXT
  8
0
 62
7
 10
3.30596834E+02
 20
-1.15381967E+01
 40
9.00000000E+00
  1
(mm)
 41
1.00000000E+00
  7
MONOTXT
  0
TEXT
  8
0
 10
-8.22146873E+01
 20
3.62432384E+02
 40
9.00000000E+00
  1
STRETCH LINE
 41
1.05263158E+00
  7
MONOTXT
  0
LINE
  8
0
  6
CENTER
 62
2
 10
-1.35133364E+02
 20
-9.82499695E+01
 11
-1.72075004E+02
 21
-9.82499695E+01
  0
LINE
  8
0
  6
CENTER
 62
2
 10
-1.15633364E+02
 20
-9.82499695E+01
 11
-1.30133364E+02
 21
-9.82499695E+01
  0
LINE
  8
0
 62
7
 10
-1.29133201E+02
 20
-1.11741220E+02
 11
-1.29133201E+02
 21
-2.18249786E+02
  0
LINE
  8
0
 62
7
 10
-1.15633364E+02
 20
-9.27499695E+01
 11
-1.29133201E+02
 21
-9.27499695E+01
  0
LINE
  8
0
 62
7
 10
-1.10133364E+02
 20
-8.37500000E+01
 11
-1.06133364E+02
 21
-8.37500000E+01
  0
LINE
  8
0
 62
7
 10
-1.02133364E+02
 20
-8.37500000E+01
 11
-4.00817348E+01
 21
-8.37500000E+01
  0
LINE
  8
0
 62
7
 10
3.21960488E+02
 20
-2.83750000E+02
 11
2.80909021E+02
 21
-2.83750000E+02
  0
LINE
  8
0
 62
7
 10
3.56460498E+02
 20
-2.92749969E+02
 11
3.69960488E+02
 21
-2.92749969E+02
  0
LINE
  8
0
 62
7
 10
3.56460498E+02
 20
-3.03749969E+02
 11
3.69960488E+02
 21
-3.03749969E+02
  0
ARC
  8
0
 62
7
 10
4.04960457E+02
 20
-2.83861145E+02
 40
1.00000000E+00
 50
3.59721787E-05
 51
8.89998325E+01
  0
ARC
  8
0
 62
7
 10
4.07460457E+02
 20
-3.20750000E+02
 40
5.00000000E-01
 50
3.59721787E-05
 51
9.00000179E+01
  0
ARC
  8
0
 62
7
 10
4.21460488E+02
 20
-3.22732910E+02
 40
5.00000000E-01
 50
3.59721787E-05
 51
8.79992642E+01
  0
ARC
  8
0
 62
7
 10
4.25960488E+02
 20
-3.23750000E+02
 40
1.00000000E+00
 50
3.59721787E-05
 51
9.00000724E+01
  0
ARC
  8
0
 62
7
 10
4.46960457E+02
 20
-3.50250000E+02
 40
1.75000000E+01
 50
1.56104472E+02
 51
1.80000000E+02
  0
LINE
  8
0
 62
7
 10
4.44960457E+02
 20
-3.37832504E+02
 11
4.40960457E+02
 21
-3.37832504E+02
  0
LINE
  8
0
 62
2
 10
4.35960496E+02
 20
-3.50250000E+02
 11
4.30960479E+02
 21
-3.43161247E+02
  0
LINE
  8
0
 62
2
 10
4.39471617E+02
 20
-3.45272085E+02
 11
4.35960470E+02
 21
-3.50250000E+02
  0
LINE
  8
0
 62
7
 10
4.40960404E+02
 20
-3.46523540E+02
 11
4.36960409E+02
 21
-3.43161315E+02
  0
LINE
  8
0
 62
7
 10
4.40960452E+02
 20
-3.33821777E+02
 11
4.36960444E+02
 21
-3.32749978E+02
  0
LINE
  8
0
 62
7
 10
4.44960457E+02
 20
-3.50250000E+02
 11
4.44960457E+02
 21
-3.36750000E+02
  0
LINE
  8
0
 62
7
 10
4.93460457E+02
 20
-3.50250000E+02
 11
4.93460457E+02
 21
-3.36750000E+02
  0
LINE
  8
0
 62
7
 10
4.94960491E+02
 20
-3.38250000E+02
 11
4.93460489E+02
 21
-3.36749999E+02
  0
LINE
  8
0
 62
2
 10
4.94542946E+02
 20
-3.37832504E+02
 11
4.77960457E+02
 21
-3.37832504E+02
  0
LINE
  8
0
 62
7
 10
4.93460457E+02
 20
-3.36750000E+02
 11
4.77960457E+02
 21
-3.36750000E+02
  0
LINE
  8
0
 62
7
 10
4.94960457E+02
 20
-3.50250000E+02
 11
4.94960457E+02
 21
-3.38250000E+02
  0
LINE
  8
0
 62
7
 10
4.36960457E+02
 20
-3.43161270E+02
 11
4.36960457E+02
 21
-3.32749969E+02
  0
LINE
  8
0
  6
CENTER
 62
2
 10
3.85960457E+02
 20
-2.94949982E+02
 11
3.85960457E+02
 21
-2.77960724E+02
  0
LINE
  8
0
 62
7
 10
4.25960488E+02
 20
-3.22750000E+02
 11
4.21960488E+02
 21
-3.22750000E+02
  0
LINE
  8
0
 62
7
 10
4.36960457E+02
 20
-3.32749969E+02
 11
4.26960488E+02
 21
-3.32749969E+02
  0
LINE
  8
0
 62
7
 10
3.69960488E+02
 20
-2.83750000E+02
 11
3.60960488E+02
 21
-2.83750000E+02
  0
LINE
  8
0
 62
7
 10
2.75712886E+02
 20
-2.92749969E+02
 11
3.41460498E+02
 21
-2.92749969E+02
  0
LINE
  8
0
 62
7
 10
2.69362033E+02
 20
-3.03749969E+02
 11
3.41460498E+02
 21
-3.03749969E+02
  0
LINE
  8
0
  6
CENTER
 62
2
 10
2.72537460E+02
 20
-2.98249969E+02
 11
4.15103493E+02
 21
-2.98249969E+02
  0
LINE
  8
0
 62
7
 10
4.04977915E+02
 20
-2.82861318E+02
 11
3.69960452E+02
 21
-2.82250086E+02
  0
LINE
  8
0
 62
7
 10
4.01960488E+02
 20
-2.82808563E+02
 11
4.01960488E+02
 21
-2.82250031E+02
  0
LINE
  8
0
 62
7
 10
4.01960488E+02
 20
-2.82250000E+02
 11
3.69960457E+02
 21
-2.82250000E+02
  0
LINE
  8
0
 62
7
 10
4.21477949E+02
 20
-3.22233112E+02
 11
4.07960493E+02
 21
-3.21761072E+02
  0
LINE
  8
0
 62
7
 10
4.07460457E+02
 20
-3.20250000E+02
 11
4.05960457E+02
 21
-3.20250000E+02
  0
LINE
  8
0
 62
7
 10
4.21960488E+02
 20
-3.22750000E+02
 11
4.21960488E+02
 21
-3.50250000E+02
  0
LINE
  8
0
 62
7
 10
4.26960488E+02
 20
-3.23750000E+02
 11
4.26960488E+02
 21
-3.50250000E+02
  0
LINE
  8
0
 62
7
 10
4.07960457E+02
 20
-3.50250000E+02
 11
4.07960457E+02
 21
-3.20750000E+02
  0
LINE
  8
0
 62
7
 10
4.36960457E+02
 20
-3.43161270E+02
 11
4.30960457E+02
 21
-3.43161270E+02
  0
LINE
  8
0
 62
7
 10
4.30960457E+02
 20
-3.50250000E+02
 11
4.30960457E+02
 21
-3.43161270E+02
  0
LINE
  8
0
 62
7
 10
4.40960457E+02
 20
-3.50250000E+02
 11
4.40960457E+02
 21
-3.33821777E+02
  0
LINE
  8
0
  6
CENTER
 62
2
 10
5.01905373E+02
 20
-3.50250000E+02
 11
2.42515228E+02
 21
-3.50250000E+02
  0
LINE
  8
0
 62
7
 10
3.69960488E+02
 20
-2.82250000E+02
 11
3.69960488E+02
 21
-3.50250000E+02
  0
LINE
  8
0
 62
7
 10
4.05960457E+02
 20
-2.83861145E+02
 11
4.05960457E+02
 21
-3.50250000E+02
  0
LINE
  8
0
 62
2
 10
-1.23664974E+02
 20
-2.28520417E+02
 11
-3.42366060E+01
 21
-7.36259398E+01
  0
LINE
  8
0
  6
CENTER
 62
2
 10
9.79136431E+01
 20
-2.74631378E+02
 11
9.79136431E+01
 21
-3.50250000E+02
  0
ARC
  8
0
 62
4
 10
5.62518168E+01
 20
-2.87537685E+02
 40
1.18100000E+01
 50
2.65981016E+01
 51
2.75000000E+01
  0
LINE
  8
0
 62
7
 10
3.40135576E+01
 20
-3.30257664E+02
 11
3.40135576E+01
 21
-3.18749298E+02
  0
LINE
  8
0
  6
CENTER
 62
2
 10
-2.61610649E+02
 20
-1.50250000E+02
 11
-7.84755277E+01
 21
-1.50250000E+02
  0
LINE
  8
0
 62
7
 10
-1.65133171E+02
 20
-2.83861145E+02
 11
-1.65133171E+02
 21
-3.50250000E+02
  0
LINE
  8
0
 62
7
 10
-1.29133201E+02
 20
-2.82250000E+02
 11
-1.29133201E+02
 21
-3.50250000E+02
  0
LINE
  8
0
 62
7
 10
-2.00133171E+02
 20
-1.50250000E+02
 11
-2.00133171E+02
 21
-1.34250000E+02
  0
LINE
  8
0
 62
7
 10
-2.00133171E+02
 20
-1.50250000E+02
 11
-2.00133171E+02
 21
-1.66250000E+02
  0
LINE
  8
0
  6
CENTER
 62
2
 10
-1.36133171E+02
 20
-1.62702271E+02
 11
-1.36133171E+02
 21
-1.77315643E+02
  0
LINE
  8
0
  6
CENTER
 62
2
 10
-1.44327751E+02
 20
-1.70250031E+02
 11
-1.28058769E+02
 21
-1.70250031E+02
  0
LINE
  8
0
 62
7
 10
-1.34400975E+02
 20
-1.70250106E+02
 11
-1.35266999E+02
 21
-1.68750100E+02
  0
LINE
  8
0
 62
7
 10
-1.35267174E+02
 20
-1.68750031E+02
 11
-1.36999229E+02
 21
-1.68750031E+02
  0
LINE
  8
0
 62
7
 10
-1.37864873E+02
 20
-1.70250273E+02
 11
-1.36998865E+02
 21
-1.68750293E+02
  0
LINE
  8
0
 62
7
 10
-1.36999062E+02
 20
-1.71750103E+02
 11
-1.37865147E+02
 21
-1.70249991E+02
  0
LINE
  8
0
 62
7
 10
-1.35267174E+02
 20
-1.71750031E+02
 11
-1.36999229E+02
 21
-1.71750031E+02
  0
LINE
  8
0
 62
7
 10
-1.34400902E+02
 20
-1.70250183E+02
 11
-1.35266948E+02
 21
-1.71750229E+02
  0
LINE
  8
0
  6
CENTER
 62
2
 10
-1.08497759E+02
 20
-2.02250031E+02
 11
-1.72075004E+02
 21
-2.02250031E+02
  0
LINE
  8
0
 62
7
 10
-1.61133171E+02
 20
-1.07250000E+02
 11
-1.61133171E+02
 21
-1.93250000E+02
  0
LINE
  8
0
  6
CENTER
 62
2
 10
-1.31430839E+02
 20
-1.36250031E+02
 11
-1.59228111E+02
 21
-1.36250031E+02
  0
LINE
  8
0
 62
7
 10
-1.65133171E+02
 20
-2.16638733E+02
 11
-1.65133171E+02
 21
-8.38607483E+01
  0
LINE
  8
0
 62
7
 10
-1.64150619E+02
 20
-8.28608499E+01
 11
-1.29133095E+02
 21
-8.22496168E+01
  0
LINE
  8
0
 62
7
 10
-1.64150629E+02
 20
-2.17638530E+02
 11
-1.29133136E+02
 21
-2.18249762E+02
  0
LINE
  8
0
 62
7
 10
-1.29133201E+02
 20
-8.22496643E+01
 11
-1.29133201E+02
 21
-9.92412201E+01
  0
LINE
  8
0
  6
CENTER
 62
2
 10
-1.45133171E+02
 20
-1.50355835E+02
 11
-1.45133171E+02
 21
-1.22426727E+02
  0
LINE
  8
0
 62
7
 10
-1.96133171E+02
 20
-1.34250000E+02
 11
-1.96133171E+02
 21
-1.66250000E+02
  0
LINE
  8
0
 62
7
 10
-1.88633140E+02
 20
-1.32749969E+02
 11
-1.86133201E+02
 21
-1.32749969E+02
  0
LINE
  8
0
 62
7
 10
-1.88633140E+02
 20
-1.67750031E+02
 11
-1.86133201E+02
 21
-1.67750031E+02
  0
LINE
  8
0
  6
CENTER
 62
2
 10
-4.84532961E+01
 20
-9.82499695E+01
 11
-1.00633364E+02
 21
-9.82499695E+01
  0
LINE
  8
0
 62
7
 10
-1.29133201E+02
 20
-2.16750000E+02
 11
-1.16869321E+02
 21
-2.16750000E+02
  0
LINE
  8
0
 62
7
 10
-1.29133201E+02
 20
-8.37500000E+01
 11
-1.14133364E+02
 21
-8.37500000E+01
  0
LINE
  8
0
 62
7
 10
-1.59133171E+02
 20
-1.95250000E+02
 11
-1.29133201E+02
 21
-1.95250000E+02
  0
LINE
  8
0
 62
7
 10
-1.59133171E+02
 20
-1.05250000E+02
 11
-1.35133364E+02
 21
-1.05250000E+02
  0
LINE
  8
0
  6
CENTER
 62
2
 10
-2.61078087E+02
 20
-3.50250000E+02
 11
-7.84755277E+01
 21
-3.50250000E+02
  0
LINE
  8
0
 62
7
 10
-2.00133171E+02
 20
-3.50250000E+02
 11
-2.00133171E+02
 21
-3.33821777E+02
  0
LINE
  8
0
 62
7
 10
-1.90133171E+02
 20
-3.50250000E+02
 11
-1.90133171E+02
 21
-3.43161270E+02
  0
LINE
  8
0
 62
7
 10
-1.96133171E+02
 20
-3.43161270E+02
 11
-1.90133171E+02
 21
-3.43161270E+02
  0
LINE
  8
0
 62
7
 10
-1.81133201E+02
 20
-1.22732910E+02
 11
-1.81133201E+02
 21
-1.77750000E+02
  0
LINE
  8
0
 62
7
 10
-1.67133171E+02
 20
-1.79750000E+02
 11
-1.67133171E+02
 21
-1.20750000E+02
  0
LINE
  8
0
 62
7
 10
-1.86133201E+02
 20
-1.23750000E+02
 11
-1.86133201E+02
 21
-1.76750000E+02
  0
LINE
  8
0
 62
7
 10
-2.00133171E+02
 20
-1.34250000E+02
 11
-1.90133171E+02
 21
-1.34250000E+02
  0
LINE
  8
0
 62
7
 10
-2.00133171E+02
 20
-1.66250000E+02
 11
-1.90133171E+02
 21
-1.66250000E+02
  0
LINE
  8
0
 62
7
 10
-1.90133218E+02
 20
-1.34249926E+02
 11
-1.88633189E+02
 21
-1.32749897E+02
  0
LINE
  8
0
 62
7
 10
-1.90133175E+02
 20
-1.66249996E+02
 11
-1.88633162E+02
 21
-1.67750008E+02
  0
LINE
  8
0
 62
7
 10
-1.05322333E+02
 20
-1.96750031E+02
 11
-1.29133201E+02
 21
-1.96750031E+02
  0
LINE
  8
0
 62
7
 10
-1.11673186E+02
 20
-2.07750031E+02
 11
-1.29133201E+02
 21
-2.07750031E+02
  0
LINE
  8
0
 62
7
 10
-4.52778696E+01
 20
-9.27499695E+01
 11
-1.00633364E+02
 21
-9.27499695E+01
  0
LINE
  8
0
 62
7
 10
-5.16287226E+01
 20
-1.03749969E+02
 11
-1.00633364E+02
 21
-1.03749969E+02
  0
LINE
  8
0
 62
7
 10
-1.85133201E+02
 20
-1.77750000E+02
 11
-1.81133201E+02
 21
-1.77750000E+02
  0
LINE
  8
0
 62
7
 10
-1.80650609E+02
 20
-1.78266806E+02
 11
-1.67133152E+02
 21
-1.78738846E+02
  0
LINE
  8
0
 62
7
 10
-1.66633171E+02
 20
-1.80250000E+02
 11
-1.65133171E+02
 21
-1.80250000E+02
  0
LINE
  8
0
 62
7
 10
-1.67133171E+02
 20
-3.50250000E+02
 11
-1.67133171E+02
 21
-3.20750000E+02
  0
LINE
  8
0
 62
7
 10
-1.86133201E+02
 20
-3.23750000E+02
 11
-1.86133201E+02
 21
-3.50250000E+02
  0
LINE
  8
0
 62
7
 10
-1.85133201E+02
 20
-1.22750000E+02
 11
-1.81133201E+02
 21
-1.22750000E+02
  0
LINE
  8
0
 62
7
 10
-1.80650628E+02
 20
-1.22233133E+02
 11
-1.67133171E+02
 21
-1.21761093E+02
  0
LINE
  8
0
 62
7
 10
-1.66633171E+02
 20
-1.20250000E+02
 11
-1.65133171E+02
 21
-1.20250000E+02
  0
LINE
  8
0
 62
7
 10
-1.81133201E+02
 20
-3.22750000E+02
 11
-1.81133201E+02
 21
-3.50250000E+02
  0
LINE
  8
0
 62
7
 10
-1.66633171E+02
 20
-3.20250000E+02
 11
-1.65133171E+02
 21
-3.20250000E+02
  0
LINE
  8
0
 62
7
 10
-1.80650663E+02
 20
-3.22233112E+02
 11
-1.67133206E+02
 21
-3.21761072E+02
  0
LINE
  8
0
 62
7
 10
-1.61133201E+02
 20
-2.82250000E+02
 11
-1.29133171E+02
 21
-2.82250000E+02
  0
LINE
  8
0
 62
7
 10
-1.61133201E+02
 20
-2.82808563E+02
 11
-1.61133201E+02
 21
-2.82250031E+02
  0
LINE
  8
0
 62
7
 10
-1.64150629E+02
 20
-2.82861318E+02
 11
-1.29133166E+02
 21
-2.82250086E+02
  0
LINE
  8
0
  6
CENTER
 62
2
 10
-4.84532961E+01
 20
-2.98249969E+02
 11
-1.68776207E+02
 21
-2.98249969E+02
  0
LINE
  8
0
 62
7
 10
-5.16287226E+01
 20
-3.03749969E+02
 11
-1.29133201E+02
 21
-3.03749969E+02
  0
LINE
  8
0
 62
7
 10
-4.52778696E+01
 20
-2.92749969E+02
 11
-1.29133201E+02
 21
-2.92749969E+02
  0
LINE
  8
0
 62
7
 10
-1.29133201E+02
 20
-2.83750000E+02
 11
-4.00817348E+01
 21
-2.83750000E+02
  0
LINE
  8
0
 62
7
 10
-1.96133171E+02
 20
-3.32749969E+02
 11
-1.86133201E+02
 21
-3.32749969E+02
  0
LINE
  8
0
 62
7
 10
-1.85133201E+02
 20
-3.22750000E+02
 11
-1.81133201E+02
 21
-3.22750000E+02
  0
LINE
  8
0
  6
CENTER
 62
2
 10
-1.45133171E+02
 20
-2.94949982E+02
 11
-1.45133171E+02
 21
-2.77960724E+02
  0
LINE
  8
0
 62
7
 10
-1.96133171E+02
 20
-3.43161270E+02
 11
-1.96133171E+02
 21
-3.32749969E+02
  0
LINE
  8
0
 62
7
 10
-2.54133171E+02
 20
-3.50250000E+02
 11
-2.54133171E+02
 21
-3.38250000E+02
  0
LINE
  8
0
 62
7
 10
-2.52633171E+02
 20
-3.36750000E+02
 11
-2.37133171E+02
 21
-3.36750000E+02
  0
LINE
  8
0
 62
2
 10
-2.53715660E+02
 20
-3.37832504E+02
 11
-2.37133171E+02
 21
-3.37832504E+02
  0
LINE
  8
0
 62
7
 10
-2.54133205E+02
 20
-3.38250000E+02
 11
-2.52633203E+02
 21
-3.36749999E+02
  0
LINE
  8
0
 62
7
 10
-2.52633171E+02
 20
-3.50250000E+02
 11
-2.52633171E+02
 21
-3.36750000E+02
  0
LINE
  8
0
 62
7
 10
-2.04133171E+02
 20
-3.50250000E+02
 11
-2.04133171E+02
 21
-3.36750000E+02
  0
LINE
  8
0
 62
7
 10
-2.04133171E+02
 20
-1.63750000E+02
 11
-2.04133171E+02
 21
-1.36750000E+02
  0
LINE
  8
0
 62
7
 10
-2.54133171E+02
 20
-1.62250092E+02
 11
-2.54133171E+02
 21
-1.38250000E+02
  0
LINE
  8
0
 62
7
 10
-2.52633171E+02
 20
-1.36750000E+02
 11
-2.37133171E+02
 21
-1.36750000E+02
  0
LINE
  8
0
 62
2
 10
-2.53715660E+02
 20
-1.37832489E+02
 11
-2.37133171E+02
 21
-1.37832489E+02
  0
LINE
  8
0
 62
7
 10
-2.54133161E+02
 20
-1.38249994E+02
 11
-2.52633160E+02
 21
-1.36749992E+02
  0
LINE
  8
0
 62
7
 10
-2.52633171E+02
 20
-1.63750000E+02
 11
-2.52633171E+02
 21
-1.36750000E+02
  0
LINE
  8
0
 62
7
 10
-2.54133246E+02
 20
-1.62250018E+02
 11
-2.52633234E+02
 21
-1.63750030E+02
  0
LINE
  8
0
 62
7
 10
-2.52633171E+02
 20
-1.63750000E+02
 11
-2.37133171E+02
 21
-1.63750000E+02
  0
LINE
  8
0
 62
2
 10
-2.53715660E+02
 20
-1.62667511E+02
 11
-2.37133171E+02
 21
-1.62667511E+02
  0
LINE
  8
0
 62
7
 10
-2.00133166E+02
 20
-3.33821777E+02
 11
-1.96133158E+02
 21
-3.32749978E+02
  0
LINE
  8
0
 62
7
 10
-2.00133118E+02
 20
-3.46523540E+02
 11
-1.96133123E+02
 21
-3.43161315E+02
  0
LINE
  8
0
 62
2
 10
-1.98644331E+02
 20
-3.45272085E+02
 11
-1.95133184E+02
 21
-3.50250000E+02
  0
LINE
  8
0
 62
2
 10
-1.95133210E+02
 20
-3.50250000E+02
 11
-1.90133193E+02
 21
-3.43161247E+02
  0
LINE
  8
0
 62
7
 10
1.65313545E+02
 20
-3.50250000E+02
 11
1.65313545E+02
 21
-2.88249969E+02
  0
LINE
  8
0
 62
7
 10
1.61813606E+02
 20
-3.50250000E+02
 11
1.61813606E+02
 21
-3.18749298E+02
  0
LINE
  8
0
 62
7
 10
1.65913521E+02
 20
-3.50250000E+02
 11
1.65913521E+02
 21
-2.88250000E+02
  0
LINE
  8
0
 62
7
 10
1.30231453E+02
 20
-3.48750000E+02
 11
1.59813606E+02
 21
-3.48750000E+02
  0
LINE
  8
0
 62
7
 10
1.59913582E+02
 20
-2.82849976E+02
 11
3.59136431E+01
 21
-2.82849976E+02
  0
LINE
  8
0
 62
7
 10
1.29927071E+02
 20
-2.86349976E+02
 11
6.64127276E+01
 21
-2.86349976E+02
  0
LINE
  8
0
 62
7
 10
1.59913582E+02
 20
-2.82250000E+02
 11
3.59136431E+01
 21
-2.82250000E+02
  0
LINE
  8
0
  6
CENTER
 62
2
 10
1.70241097E+02
 20
-2.98250000E+02
 11
1.32365364E+02
 21
-2.98250000E+02
  0
LINE
  8
0
  6
CENTER
 62
2
 10
1.49913521E+02
 20
-2.78267242E+02
 11
1.49913521E+02
 21
-3.16395416E+02
  0
LINE
  8
0
 62
7
 10
1.37089929E+02
 20
-3.08953059E+02
 11
1.19705393E+02
 21
-3.26337599E+02
  0
LINE
  8
0
 62
7
 10
1.39211509E+02
 20
-3.11074379E+02
 11
1.21826844E+02
 21
-3.28459049E+02
  0
LINE
  8
0
 62
7
 10
9.94136431E+01
 20
-2.88349976E+02
 11
9.94136431E+01
 21
-3.17932220E+02
  0
LINE
  8
0
 62
7
 10
9.64136431E+01
 20
-2.88349976E+02
 11
9.64136431E+01
 21
-3.17932220E+02
  0
LINE
  8
0
 62
7
 10
1.42913643E+02
 20
-2.82250000E+02
 11
1.42913643E+02
 21
-2.82849976E+02
  0
LINE
  8
0
 62
7
 10
5.29136431E+01
 20
-2.82250000E+02
 11
5.29136431E+01
 21
-2.82849976E+02
  0
LINE
  8
0
 62
7
 10
5.87377090E+01
 20
-3.08952559E+02
 11
7.61223320E+01
 21
-3.26337187E+02
  0
LINE
  8
0
 62
7
 10
5.66163884E+01
 20
-3.11073793E+02
 11
7.40010114E+01
 21
-3.28458420E+02
  0
LINE
  8
0
 62
7
 10
6.55958330E+01
 20
-3.48750000E+02
 11
3.60135576E+01
 21
-3.48750000E+02
  0
LINE
  8
0
 62
7
 10
3.05135576E+01
 20
-3.50250000E+02
 11
3.05135576E+01
 21
-2.88249969E+02
  0
LINE
  8
0
 62
7
 10
2.99136431E+01
 20
-3.50250000E+02
 11
2.99136431E+01
 21
-2.88250000E+02
  0
LINE
  8
0
 62
7
 10
3.40135576E+01
 20
-3.50250000E+02
 11
3.40135576E+01
 21
-3.30257664E+02
  0
LINE
  8
0
  6
CENTER
 62
2
 10
6.41135943E+01
 20
-2.98250000E+02
 11
2.52711260E+01
 21
-2.98250000E+02
  0
LINE
  8
0
  6
CENTER
 62
2
 10
4.59136431E+01
 20
-2.77902649E+02
 11
4.59136431E+01
 21
-3.17746063E+02
  0
LINE
  8
0
  6
CENTER
 62
2
 10
2.35097735E+01
 20
-3.50250000E+02
 11
1.73427376E+02
 21
-3.50250000E+02
  0
LINE
  8
0
  6
CENTER
 62
2
 10
1.11913521E+02
 20
-2.94949982E+02
 11
1.11913521E+02
 21
-2.77960724E+02
  0
LINE
  8
0
 62
7
 10
1.49913584E+02
 20
-2.91321796E+02
 11
1.43913581E+02
 21
-2.94785900E+02
  0
LINE
  8
0
 62
7
 10
1.43913582E+02
 20
-2.94785904E+02
 11
1.43913582E+02
 21
-3.01714096E+02
  0
LINE
  8
0
 62
7
 10
1.49913582E+02
 20
-3.05178201E+02
 11
1.43913585E+02
 21
-3.01714101E+02
  0
LINE
  8
0
 62
7
 10
1.55913583E+02
 20
-3.01714099E+02
 11
1.49913580E+02
 21
-3.05178203E+02
  0
LINE
  8
0
 62
7
 10
1.55913582E+02
 20
-2.94785904E+02
 11
1.55913582E+02
 21
-3.01714096E+02
  0
LINE
  8
0
 62
7
 10
1.49913585E+02
 20
-2.91321796E+02
 11
1.55913582E+02
 21
-2.94785896E+02
  0
LINE
  8
0
 62
7
 10
4.59137014E+01
 20
-2.91321800E+02
 11
3.99136979E+01
 21
-2.94785904E+02
  0
LINE
  8
0
 62
7
 10
3.99137041E+01
 20
-2.94785904E+02
 11
3.99137041E+01
 21
-3.01714096E+02
  0
LINE
  8
0
 62
7
 10
4.59137066E+01
 20
-3.05178201E+02
 11
3.99137070E+01
 21
-3.01714099E+02
  0
LINE
  8
0
 62
7
 10
5.19137014E+01
 20
-3.01714105E+02
 11
4.59136979E+01
 21
-3.05178209E+02
  0
LINE
  8
0
 62
7
 10
5.19137041E+01
 20
-2.94785904E+02
 11
5.19137041E+01
 21
-3.01714096E+02
  0
LINE
  8
0
 62
7
 10
4.59137070E+01
 20
-2.91321795E+02
 11
5.19137066E+01
 21
-2.94785896E+02
  0
LINE
  8
0
 62
7
 10
-2.04133171E+02
 20
-1.37832489E+02
 11
-2.00133171E+02
 21
-1.37832489E+02
  0
LINE
  8
0
 62
7
 10
-2.04133171E+02
 20
-1.62667511E+02
 11
-2.00133171E+02
 21
-1.62667511E+02
  0
LINE
  8
0
 62
7
 10
-2.04133171E+02
 20
-3.37832504E+02
 11
-2.00133171E+02
 21
-3.37832504E+02
  0
ARC
  8
0
 62
7
 10
-1.36133171E+02
 20
-1.70250031E+02
 40
5.00000048E+00
 50
0.00000000E+00
 51
1.79999964E+02
  0
ARC
  8
0
 62
7
 10
-1.36133171E+02
 20
-1.70250031E+02
 40
5.00000048E+00
 50
1.79999977E+02
 51
1.00179127E-05
  0
CIRCLE
  8
0
 62
7
 10
-1.45133171E+02
 20
-1.36249939E+02
 40
9.25000000E+00
  0
CIRCLE
  8
0
 62
7
 10
-1.45133171E+02
 20
-1.36250000E+02
 40
1.10000000E+01
  0
CIRCLE
  8
0
 62
2
 10
-1.45133171E+02
 20
-1.36250000E+02
 40
1.04775009E+01
  0
ARC
  8
0
 62
7
 10
-1.59133171E+02
 20
-1.07250000E+02
 40
2.00000000E+00
 50
8.99999818E+01
 51
1.79999964E+02
  0
ARC
  8
0
 62
7
 10
-1.59133171E+02
 20
-1.93250000E+02
 40
2.00000000E+00
 50
1.79999977E+02
 51
2.70000028E+02
  0
ARC
  8
0
 62
7
 10
-2.06133171E+02
 20
-3.50250000E+02
 40
1.75000000E+01
 50
0.00000000E+00
 51
2.38955278E+01
  0
ARC
  8
0
 62
7
 10
-1.80633201E+02
 20
-1.77767090E+02
 40
5.00000000E-01
 50
1.79999977E+02
 51
2.67999192E+02
  0
ARC
  8
0
 62
7
 10
-1.66633171E+02
 20
-1.79750000E+02
 40
5.00000000E-01
 50
1.79999977E+02
 51
2.69999974E+02
  0
ARC
  8
0
 62
7
 10
-1.80633201E+02
 20
-1.22732910E+02
 40
5.00000000E-01
 50
9.20007356E+01
 51
1.79999964E+02
  0
ARC
  8
0
 62
7
 10
-1.66633171E+02
 20
-1.20750000E+02
 40
5.00000000E-01
 50
8.99999818E+01
 51
1.79999964E+02
  0
ARC
  8
0
 62
7
 10
-1.64133171E+02
 20
-2.16638733E+02
 40
1.00000000E+00
 50
1.79999977E+02
 51
2.68999761E+02
  0
ARC
  8
0
 62
7
 10
-1.64133171E+02
 20
-8.38607483E+01
 40
1.00000000E+00
 50
9.10002292E+01
 51
1.79999964E+02
  0
ARC
  8
0
 62
7
 10
-1.85133201E+02
 20
-1.23750000E+02
 40
1.00000000E+00
 50
8.99999818E+01
 51
1.79999964E+02
  0
ARC
  8
0
 62
7
 10
-1.85133201E+02
 20
-1.76750000E+02
 40
1.00000000E+00
 50
1.79999977E+02
 51
2.70000028E+02
  0
CIRCLE
  8
0
 62
7
 10
-1.36133171E+02
 20
-1.70250031E+02
 40
2.59999990E+00
  0
ARC
  8
0
 62
7
 10
-1.85133201E+02
 20
-3.23750000E+02
 40
1.00000000E+00
 50
8.99999274E+01
 51
1.79999964E+02
  0
ARC
  8
0
 62
7
 10
-1.80633201E+02
 20
-3.22732910E+02
 40
5.00000000E-01
 50
9.20007356E+01
 51
1.79999964E+02
  0
ARC
  8
0
 62
7
 10
-1.66633171E+02
 20
-3.20750000E+02
 40
5.00000000E-01
 50
8.99999818E+01
 51
1.79999964E+02
  0
ARC
  8
0
 62
7
 10
-1.64133171E+02
 20
-2.83861145E+02
 40
1.00000000E+00
 50
9.10001673E+01
 51
1.79999964E+02
  0
CIRCLE
  8
0
 62
7
 10
1.49913521E+02
 20
-2.98250000E+02
 40
1.05500011E+01
  0
CIRCLE
  8
0
 62
7
 10
4.59136431E+01
 20
-2.98250000E+02
 40
1.05500011E+01
  0
CIRCLE
  8
0
 62
2
 10
4.59137041E+01
 20
-2.98250000E+02
 40
6.00000000E+00
  0
CIRCLE
  8
0
 62
2
 10
1.49913582E+02
 20
-2.98250000E+02
 40
6.00000000E+00
  0
CIRCLE
  8
0
 62
7
 10
1.49913582E+02
 20
-2.98250000E+02
 40
1.00500011E+01
  0
CIRCLE
  8
0
 62
7
 10
4.59137041E+01
 20
-2.98250000E+02
 40
1.00500011E+01
  0
CIRCLE
  8
0
 62
7
 10
1.49913582E+02
 20
-2.98250000E+02
 40
5.05000019E+00
  0
CIRCLE
  8
0
 62
7
 10
4.59137041E+01
 20
-2.98250000E+02
 40
5.05000019E+00
  0
ARC
  8
0
 62
7
 10
1.59913521E+02
 20
-2.88250000E+02
 40
6.00000000E+00
 50
3.59721781E-05
 51
9.00000162E+01
  0
ARC
  8
0
 62
7
 10
1.59913521E+02
 20
-2.88249969E+02
 40
5.40000057E+00
 50
3.59721781E-05
 51
9.00000162E+01
  0
ARC
  8
0
 62
7
 10
1.49913521E+02
 20
-2.98250000E+02
 40
1.50000000E+01
 50
1.66361265E+02
 51
2.83638905E+02
  0
ARC
  8
0
 62
7
 10
3.59136431E+01
 20
-2.88249969E+02
 40
5.40000057E+00
 50
9.00000162E+01
 51
1.80000005E+02
  0
ARC
  8
0
 62
7
 10
4.59136431E+01
 20
-2.98250000E+02
 40
1.50000000E+01
 50
2.56361114E+02
 51
1.36387044E+01
  0
ARC
  8
0
 62
7
 10
3.59136431E+01
 20
-2.88250000E+02
 40
6.00000000E+00
 50
9.00000162E+01
 51
1.80000005E+02
  0
ARC
  8
0
 62
7
 10
1.30231392E+02
 20
-3.46750000E+02
 40
2.00000000E+00
 50
1.86180824E+02
 51
2.69999984E+02
  0
ARC
  8
0
 62
7
 10
1.59813606E+02
 20
-3.46750000E+02
 40
2.00000000E+00
 50
2.69999984E+02
 51
3.59999964E+02
  0
ARC
  8
0
 62
7
 10
7.25866167E+01
 20
-3.29872711E+02
 40
2.00000000E+00
 50
3.21181183E+02
 51
4.49999671E+01
  0
ARC
  8
0
 62
7
 10
7.75364458E+01
 20
-3.24922943E+02
 40
2.00000000E+00
 50
2.25000000E+02
 51
3.08818391E+02
  0
ARC
  8
0
 62
7
 10
9.44136431E+01
 20
-3.17932220E+02
 40
2.00000000E+00
 50
2.76180848E+02
 51
3.59999964E+02
  0
ARC
  8
0
 62
7
 10
1.01413643E+02
 20
-3.17932220E+02
 40
2.00000000E+00
 50
1.79999995E+02
 51
2.63819175E+02
  0
ARC
  8
0
 62
7
 10
1.18291084E+02
 20
-3.24923126E+02
 40
2.00000000E+00
 50
2.31180351E+02
 51
3.14999603E+02
  0
ARC
  8
0
 62
7
 10
1.23240792E+02
 20
-3.29872955E+02
 40
2.00000000E+00
 50
1.35000410E+02
 51
2.18818375E+02
  0
ARC
  8
0
 62
7
 10
5.52020342E+01
 20
-3.12488159E+02
 40
2.00000000E+00
 50
4.49999876E+01
 51
1.23118449E+02
  0
ARC
  8
0
 62
7
 10
6.01518023E+01
 20
-3.07538391E+02
 40
2.00000000E+00
 50
1.46881374E+02
 51
2.24999996E+02
  0
ARC
  8
0
 62
7
 10
9.44136431E+01
 20
-2.88349976E+02
 40
2.00000000E+00
 50
3.59999981E+02
 51
9.00000162E+01
  0
ARC
  8
0
 62
7
 10
1.01413643E+02
 20
-2.88349976E+02
 40
2.00000000E+00
 50
9.00000162E+01
 51
1.80000005E+02
  0
ARC
  8
0
 62
7
 10
1.35675484E+02
 20
-3.07538605E+02
 40
2.00000000E+00
 50
3.15000012E+02
 51
3.31197136E+01
  0
ARC
  8
0
 62
7
 10
1.40625374E+02
 20
-3.12488312E+02
 40
2.00000000E+00
 50
5.68818530E+01
 51
1.35000001E+02
  0
ARC
  8
0
 62
7
 10
6.55958330E+01
 20
-3.46750000E+02
 40
2.00000000E+00
 50
2.69999984E+02
 51
3.53819189E+02
  0
ARC
  8
0
 62
7
 10
3.60135576E+01
 20
-3.46750000E+02
 40
2.00000000E+00
 50
1.79999995E+02
 51
2.69999984E+02
  0
ARC
  8
0
 62
7
 10
9.79136431E+01
 20
-3.50250000E+02
 40
3.00000000E+01
 50
0.00000000E+00
 51
1.80000000E+02
  0
ARC
  8
0
 62
7
 10
5.99134600E+01
 20
-2.88250122E+02
 40
4.50000048E+00
 50
2.92818444E+02
 51
3.59119744E+02
  0
ARC
  8
0
 62
7
 10
3.59136431E+01
 20
-3.12250092E+02
 40
4.50000048E+00
 50
2.70880750E+02
 51
3.37183416E+02
  0
ARC
  8
0
 62
7
 10
3.60135576E+01
 20
-3.18749298E+02
 40
2.00000000E+00
 50
9.08813221E+01
 51
1.79999977E+02
  0
ARC
  8
0
 62
7
 10
4.19049761E+01
 20
-3.14770630E+02
 40
2.00000000E+00
 50
7.63612693E+01
 51
1.57183799E+02
  0
ARC
  8
0
 62
7
 10
6.24342730E+01
 20
-2.94241425E+02
 40
2.00000000E+00
 50
1.12818865E+02
 51
1.93638718E+02
  0
ARC
  8
0
 62
7
 10
6.64127276E+01
 20
-2.88349976E+02
 40
2.00000000E+00
 50
9.00000162E+01
 51
1.79119908E+02
  0
ARC
  8
0
 62
7
 10
1.59913521E+02
 20
-3.12250061E+02
 40
4.50000048E+00
 50
2.02816584E+02
 51
2.69119217E+02
  0
ARC
  8
0
 62
7
 10
1.59813606E+02
 20
-3.18749298E+02
 40
2.00000000E+00
 50
3.59999981E+02
 51
8.91186828E+01
  0
ARC
  8
0
 62
7
 10
1.53922188E+02
 20
-3.14770630E+02
 40
2.00000000E+00
 50
2.28162145E+01
 51
1.03638736E+02
  0
ARC
  8
0
 62
7
 10
1.35913704E+02
 20
-2.88250122E+02
 40
4.50000048E+00
 50
1.80880256E+02
 51
2.47181551E+02
  0
ARC
  8
0
 62
7
 10
1.33392952E+02
 20
-2.94241425E+02
 40
2.00000000E+00
 50
3.46361278E+02
 51
6.71811327E+01
  0
ARC
  8
0
 62
7
 10
1.29414498E+02
 20
-2.88349976E+02
 40
2.00000000E+00
 50
8.80105841E-01
 51
9.00000162E+01
  0
ARC
  8
0
 62
2
 10
-4.20133232E+02
 20
-3.50250000E+02
 40
1.24174957E+01
 50
0.00000000E+00
 51
1.80000000E+02
  0
LINE
  8
0
 62
7
 10
-4.87533134E+02
 20
-2.88249969E+02
 11
-4.87533134E+02
 21
-3.50250000E+02
  0
LINE
  8
0
 62
7
 10
-4.84033195E+02
 20
-3.18749298E+02
 11
-4.84033195E+02
 21
-3.50250000E+02
  0
LINE
  8
0
 62
7
 10
-4.88133110E+02
 20
-2.88249969E+02
 11
-4.88133110E+02
 21
-3.50250000E+02
  0
LINE
  8
0
  6
CENTER
 62
2
 10
-4.72133110E+02
 20
-2.78385925E+02
 11
-4.72133110E+02
 21
-3.16395416E+02
  0
LINE
  8
0
 62
7
 10
-4.61430760E+02
 20
-3.11074093E+02
 11
-4.44046181E+02
 21
-3.28458677E+02
  0
LINE
  8
0
 62
7
 10
-4.21633232E+02
 20
-2.88349945E+02
 11
-4.21633232E+02
 21
-3.17932220E+02
  0
LINE
  8
0
 62
7
 10
-4.52451042E+02
 20
-3.48750000E+02
 11
-4.82033195E+02
 21
-3.48750000E+02
  0
LINE
  8
0
 62
7
 10
-4.65133232E+02
 20
-2.82249969E+02
 11
-4.65133232E+02
 21
-2.82849945E+02
  0
LINE
  8
0
 62
7
 10
-4.59309375E+02
 20
-3.08952449E+02
 11
-4.41924795E+02
 21
-3.26337033E+02
  0
LINE
  8
0
 62
7
 10
-4.18633232E+02
 20
-2.88349945E+02
 11
-4.18633232E+02
 21
-3.17932220E+02
  0
LINE
  8
0
 62
7
 10
-4.82133171E+02
 20
-2.82849976E+02
 11
-3.58133232E+02
 21
-2.82849976E+02
  0
LINE
  8
0
 62
7
 10
-4.51634147E+02
 20
-2.86349976E+02
 11
-3.88632499E+02
 21
-2.86349976E+02
  0
LINE
  8
0
 62
7
 10
-4.82133171E+02
 20
-2.82250000E+02
 11
-3.58133232E+02
 21
-2.82250000E+02
  0
LINE
  8
0
  6
CENTER
 62
2
 10
-4.92248833E+02
 20
-2.98250000E+02
 11
-4.54030083E+02
 21
-2.98250000E+02
  0
LINE
  8
0
 62
7
 10
-3.75133232E+02
 20
-2.82249969E+02
 11
-3.75133232E+02
 21
-2.82849945E+02
  0
LINE
  8
0
  6
CENTER
 62
2
 10
-3.68133232E+02
 20
-2.78638367E+02
 11
-3.68133232E+02
 21
-3.17069885E+02
  0
LINE
  8
0
 62
7
 10
-3.80957454E+02
 20
-3.08952292E+02
 11
-3.98342054E+02
 21
-3.26336897E+02
  0
LINE
  8
0
 62
7
 10
-3.78836133E+02
 20
-3.11073699E+02
 11
-3.96220669E+02
 21
-3.28458239E+02
  0
LINE
  8
0
 62
7
 10
-3.87815422E+02
 20
-3.48750000E+02
 11
-3.58233146E+02
 21
-3.48750000E+02
  0
LINE
  8
0
 62
7
 10
-3.52733146E+02
 20
-2.88249969E+02
 11
-3.52733146E+02
 21
-3.50250000E+02
  0
LINE
  8
0
 62
7
 10
-3.52133232E+02
 20
-2.88249969E+02
 11
-3.52133232E+02
 21
-3.50250000E+02
  0
LINE
  8
0
 62
7
 10
-3.56233146E+02
 20
-3.18749115E+02
 11
-3.56233146E+02
 21
-3.50250000E+02
  0
LINE
  8
0
  6
CENTER
 62
2
 10
-4.20133232E+02
 20
-2.74631378E+02
 11
-4.20133232E+02
 21
-3.50250000E+02
  0
LINE
  8
0
  6
CENTER
 62
2
 10
-3.86888115E+02
 20
-2.98250000E+02
 11
-3.47768181E+02
 21
-2.98250000E+02
  0
LINE
  8
0
  6
CENTER
 62
2
 10
-3.45729362E+02
 20
-3.50250000E+02
 11
-4.95646965E+02
 21
-3.50250000E+02
  0
LINE
  8
0
  6
CENTER
 62
2
 10
-4.34133110E+02
 20
-2.94949982E+02
 11
-4.34133110E+02
 21
-2.77960724E+02
  0
CIRCLE
  8
0
 62
2
 10
-4.72133171E+02
 20
-2.98250000E+02
 40
6.00000000E+00
  0
CIRCLE
  8
0
 62
2
 10
-3.68133293E+02
 20
-2.98250000E+02
 40
6.00000000E+00
  0
CIRCLE
  8
0
 62
7
 10
-4.72133171E+02
 20
-2.98250000E+02
 40
5.05000019E+00
  0
CIRCLE
  8
0
 62
7
 10
-3.68133293E+02
 20
-2.98250000E+02
 40
5.05000019E+00
  0
CIRCLE
  8
0
 62
7
 10
-4.72133171E+02
 20
-2.98250000E+02
 40
1.00500011E+01
  0
CIRCLE
  8
0
 62
7
 10
-3.68133293E+02
 20
-2.98250000E+02
 40
1.00500011E+01
  0
ARC
  8
0
 62
7
 10
-4.82133110E+02
 20
-2.88250000E+02
 40
6.00000000E+00
 50
8.99999818E+01
 51
1.79999964E+02
  0
ARC
  8
0
 62
7
 10
-4.82133110E+02
 20
-2.88249969E+02
 40
5.40000057E+00
 50
8.99999818E+01
 51
1.79999964E+02
  0
ARC
  8
0
 62
7
 10
-4.72133110E+02
 20
-2.98250000E+02
 40
1.50000000E+01
 50
2.56361093E+02
 51
1.36387352E+01
  0
ARC
  8
0
 62
7
 10
-4.23633232E+02
 20
-2.88349976E+02
 40
2.00000000E+00
 50
0.00000000E+00
 51
8.99999818E+01
  0
ARC
  8
0
 62
7
 10
-4.57894951E+02
 20
-3.07538330E+02
 40
2.00000000E+00
 50
1.46881880E+02
 51
2.24999545E+02
  0
ARC
  8
0
 62
7
 10
-4.62844902E+02
 20
-3.12488251E+02
 40
2.00000000E+00
 50
4.49995880E+01
 51
1.23118148E+02
  0
ARC
  8
0
 62
7
 10
-4.45460258E+02
 20
-3.29872833E+02
 40
2.00000000E+00
 50
3.21181173E+02
 51
4.50000012E+01
  0
ARC
  8
0
 62
7
 10
-4.40510307E+02
 20
-3.24922913E+02
 40
2.00000000E+00
 50
2.24999986E+02
 51
3.08818374E+02
  0
ARC
  8
0
 62
7
 10
-4.23633232E+02
 20
-3.17932220E+02
 40
2.00000000E+00
 50
2.76180827E+02
 51
0.00000000E+00
  0
ARC
  8
0
 62
7
 10
-4.52450981E+02
 20
-3.46750000E+02
 40
2.00000000E+00
 50
2.70000018E+02
 51
3.53819176E+02
  0
ARC
  8
0
 62
7
 10
-4.82033195E+02
 20
-3.46750000E+02
 40
2.00000000E+00
 50
1.79999977E+02
 51
2.70000028E+02
  0
ARC
  8
0
 62
7
 10
-4.16633232E+02
 20
-2.88349976E+02
 40
2.00000000E+00
 50
8.99999818E+01
 51
1.79999964E+02
  0
ARC
  8
0
 62
7
 10
-4.16633232E+02
 20
-3.17932220E+02
 40
2.00000000E+00
 50
1.79999977E+02
 51
2.63819144E+02
  0
ARC
  8
0
 62
7
 10
-3.58133232E+02
 20
-2.88249969E+02
 40
5.40000057E+00
 50
0.00000000E+00
 51
8.99999818E+01
  0
ARC
  8
0
 62
7
 10
-3.68133232E+02
 20
-2.98250000E+02
 40
1.50000000E+01
 50
1.66361279E+02
 51
2.83638878E+02
  0
ARC
  8
0
 62
7
 10
-3.58133232E+02
 20
-2.88250000E+02
 40
6.00000000E+00
 50
0.00000000E+00
 51
8.99999818E+01
  0
ARC
  8
0
 62
7
 10
-4.20133232E+02
 20
-3.50250000E+02
 40
2.80000000E+01
 50
0.00000000E+00
 51
1.80000000E+02
  0
ARC
  8
0
 62
7
 10
-3.99756035E+02
 20
-3.24922943E+02
 40
2.00000000E+00
 50
2.31181239E+02
 51
3.14999999E+02
  0
ARC
  8
0
 62
7
 10
-3.94806206E+02
 20
-3.29872711E+02
 40
2.00000000E+00
 50
1.35000014E+02
 51
2.18819248E+02
  0
ARC
  8
0
 62
7
 10
-3.77421684E+02
 20
-3.12488129E+02
 40
2.00000000E+00
 50
5.68805723E+01
 51
1.35000438E+02
  0
ARC
  8
0
 62
7
 10
-3.82371391E+02
 20
-3.07538361E+02
 40
2.00000000E+00
 50
3.15000412E+02
 51
3.31186208E+01
  0
ARC
  8
0
 62
7
 10
-3.87815422E+02
 20
-3.46750000E+02
 40
2.00000000E+00
 50
1.86180811E+02
 51
2.70000018E+02
  0
ARC
  8
0
 62
7
 10
-3.58233146E+02
 20
-3.46750000E+02
 40
2.00000000E+00
 50
2.70000018E+02
 51
0.00000000E+00
  0
ARC
  8
0
 62
7
 10
-4.20133232E+02
 20
-3.50250000E+02
 40
3.00000000E+01
 50
0.00000000E+00
 51
1.80000000E+02
  0
ARC
  8
0
 62
7
 10
-4.20133232E+02
 20
-3.50250000E+02
 40
2.75000000E+01
 50
0.00000000E+00
 51
1.80000000E+02
  0
ARC
  8
0
 62
7
 10
-4.58133293E+02
 20
-2.88250122E+02
 40
4.50000048E+00
 50
2.92818450E+02
 51
3.59119744E+02
  0
ARC
  8
0
 62
7
 10
-4.55612541E+02
 20
-2.94241425E+02
 40
2.00000000E+00
 50
1.12818859E+02
 51
1.93638704E+02
  0
ARC
  8
0
 62
7
 10
-4.51634086E+02
 20
-2.88349976E+02
 40
2.00000000E+00
 50
8.99999818E+01
 51
1.79119894E+02
  0
ARC
  8
0
 62
7
 10
-4.82133110E+02
 20
-3.12250061E+02
 40
4.50000048E+00
 50
2.70880778E+02
 51
3.37183422E+02
  0
ARC
  8
0
 62
7
 10
-4.82033195E+02
 20
-3.18749298E+02
 40
2.00000000E+00
 50
9.08813153E+01
 51
1.79999964E+02
  0
ARC
  8
0
 62
7
 10
-4.76141777E+02
 20
-3.14770630E+02
 40
2.00000000E+00
 50
7.63612624E+01
 51
1.57183786E+02
  0
ARC
  8
0
 62
7
 10
-3.82133293E+02
 20
-2.88250031E+02
 40
4.50000048E+00
 50
1.80880775E+02
 51
2.47183429E+02
  0
ARC
  8
0
 62
7
 10
-3.88632499E+02
 20
-2.88349976E+02
 40
2.00000000E+00
 50
8.81319802E-01
 51
8.99999681E+01
  0
ARC
  8
0
 62
7
 10
-3.84653801E+02
 20
-2.94241425E+02
 40
2.00000000E+00
 50
3.46361266E+02
 51
6.71837895E+01
  0
ARC
  8
0
 62
7
 10
-3.58133293E+02
 20
-3.12249878E+02
 40
4.50000048E+00
 50
2.02818455E+02
 51
2.69119750E+02
  0
ARC
  8
0
 62
7
 10
-3.64124565E+02
 20
-3.14770660E+02
 40
2.00000000E+00
 50
2.28188629E+01
 51
1.03638709E+02
  0
ARC
  8
0
 62
7
 10
-3.58233146E+02
 20
-3.18749115E+02
 40
2.00000000E+00
 50
0.00000000E+00
 51
8.91198986E+01
  0
CIRCLE
  8
0
 62
7
 10
-3.68133232E+02
 20
-2.98250000E+02
 40
1.05500011E+01
  0
CIRCLE
  8
0
 62
7
 10
-4.72133110E+02
 20
-2.98250000E+02
 40
1.05500011E+01
  0
ARC
  8
0
 62
7
 10
-4.20133232E+02
 20
-3.50250000E+02
 40
1.35000000E+01
 50
0.00000000E+00
 51
1.80000000E+02
  0
LINE
  8
0
 62
7
 10
5.69500000E+02
 20
3.99750000E+02
 11
5.69500000E+02
 21
-4.01250000E+02
  0
LINE
  8
0
 62
7
 10
-5.69500000E+02
 20
3.99750000E+02
 11
5.69500000E+02
 21
3.99750000E+02
  0
LINE
  8
0
 62
7
 10
-5.69500000E+02
 20
-4.01250000E+02
 11
5.69500000E+02
 21
-4.01250000E+02
  0
LINE
  8
0
 62
7
 10
-5.69500000E+02
 20
3.99750000E+02
 11
-5.69500000E+02
 21
-4.01250000E+02
  0
LINE
  8
0
 62
7
 10
-5.69500000E+02
 20
3.69750000E+02
 11
-3.39500000E+02
 21
3.69750000E+02
  0
LINE
  8
0
 62
7
 10
3.39500000E+02
 20
3.69750000E+02
 11
5.69500000E+02
 21
3.69750000E+02
  0
LINE
  8
0
 62
7
 10
3.39500000E+02
 20
-3.71250000E+02
 11
5.69500000E+02
 21
-3.71250000E+02
  0
LINE
  8
0
 62
7
 10
3.39500000E+02
 20
-3.71250000E+02
 11
3.39500000E+02
 21
-4.01250000E+02
  0
LINE
  8
0
 62
7
 10
3.39500000E+02
 20
3.99750000E+02
 11
3.39500000E+02
 21
3.69750000E+02
  0
LINE
  8
0
 62
7
 10
-3.39500000E+02
 20
3.99750000E+02
 11
-3.39500000E+02
 21
3.69750000E+02
  0
TEXT
  8
0
 62
7
 10
-5.42179687E+02
 20
3.33500000E+02
 40
1.25000000E+01
  1
MODEL:DDA125*75
 41
1.00000015E+00
  7
MONOTXT
  0
TEXT
  8
0
 62
7
 10
4.06285149E+02
 20
3.78500000E+02
 40
1.25000000E+01
  1
Ver. 1.0
 41
1.08108125E+00
  7
MONOTXT
  0
TEXT
  8
0
 62
7
 10
3.45070624E+02
 20
-3.95250000E+02
 40
1.80000000E+01
  1
KOGANEI CORP.
 41
1.04838710E+00
  7
MONOTXT
  0
TEXT
  8
0
 62
7
 10
-5.58964859E+02
 20
3.78500000E+02
 40
1.25000000E+01
  1
NEW DYNA CYLINDER
 41
1.07594953E+00
  7
MONOTXT
  0
ENDSEC
  0
EOF
