  0
SECTION
  2
HEADER
  9
$ACADVER
  1
AC1003
  9
$EXTMIN
 10
-1.38399994E+02
 20
-9.48000031E+01
  9
$EXTMAX
 10
1.38350006E+02
 20
9.45000000E+01
  9
$LIMMIN
 10
-1.38400994E+02
 20
-9.48010031E+01
  9
$LIMMAX
 10
1.38351006E+02
 20
9.45010000E+01
  9
$SNAPUNIT
 10
1
 20
1
  9
$SNAPBASE
 10
0
 20
0
  9
$GRIDMODE
 70
0
  9
$GRIDUNIT
 10
0
 20
0
  9
$LTSCALE
 40
4.61250000E+00
  9
$TEXTSIZE
 40
3.2
  9
$DIMTAD
 70
0
  9
$LUNITS
 70
2
  9
$LUPREC
 70
4
  9
$FILLETRAD
 40
0
  9
$AUNITS
 70
0
  9
$AUPREC
 70
0
  0
ENDSEC
  0
SECTION
  2
TABLES
  0
TABLE
  2
LTYPE
 70
2
  0
LTYPE
  2
CONTINUOUS
 70
64
  3
Solid-Line
 72
65
 73
0
 40
0
  0
LTYPE
  2
DASHED
 70
64
  3
DASHED
 72
65
 73
2
 40
.75
 49
.5
 49
-.25
  0
LTYPE
  2
HIDDEN
 70
64
  3
HIDDEN
 72
65
 73
2
 40
.375
 49
.25
 49
-.125
  0
LTYPE
  2
CENTER
 70
64
  3
CENTER
 72
65
 73
4
 40
2
 49
1.25
 49
-.25
 49
.25
 49
-.25
  0
LTYPE
  2
PHANTOM
 70
64
  3
PHANTOM
 72
65
 73
6
 40
2.5
 49
1.25
 49
-.25
 49
.25
 49
-.25
 49
.25
 49
-.25
  0
ENDTAB
  0
TABLE
  2
LAYER
 70
1
  0
LAYER
  2
1
 70
0
 62
7
  6
CONTINUOUS
 0
ENDTAB
  0
TABLE
  2
STYLE
 70
2
  0
STYLE
  2
MONOTXT
 70
0
 40
0
 41
1
 50
0
 71
0
 42
.2
  3
monotxt
  0
STYLE
  2
BIGFONT
 70
0
 40
0
 41
1
 50
0
 71
0
 42
.2
  3
txt
  4
bigfont
  0
ENDTAB
  0
ENDSEC
  0
SECTION
  2
ENTITIES
  0
LINE
  8
0
 62
4
 10
3.24646285E+01
 20
-4.83911070E+01
 11
3.24646285E+01
 21
-5.15911039E+01
  0
LINE
  8
0
  6
CENTER
 62
6
 10
4.19646247E+01
 20
-4.62597517E+01
 11
4.19646247E+01
 21
-5.32418341E+01
  0
LINE
  8
0
 62
4
 10
5.04645992E+01
 20
-4.83910974E+01
 11
5.92646117E+01
 21
-4.35910893E+01
  0
LINE
  8
0
 62
4
 10
6.24646247E+01
 20
-4.70911039E+01
 11
6.24646247E+01
 21
-3.15911001E+01
  0
LINE
  8
0
  6
CENTER
 62
6
 10
5.79687522E+01
 20
-4.00911039E+01
 11
6.33421805E+01
 21
-4.00911039E+01
  0
LINE
  8
0
 62
4
 10
5.92646125E+01
 20
-3.15911001E+01
 11
6.24646247E+01
 21
-3.15911001E+01
  0
LINE
  8
0
 62
4
 10
5.92646125E+01
 20
-3.15911001E+01
 11
5.92646125E+01
 21
-4.73911070E+01
  0
LINE
  8
0
 62
4
 10
3.24646285E+01
 20
-4.83911070E+01
 11
5.82646125E+01
 21
-4.83911070E+01
  0
LINE
  8
0
 62
4
 10
3.24646285E+01
 20
-5.15911039E+01
 11
5.79646247E+01
 21
-5.15911039E+01
  0
ARC
  8
0
 62
4
 10
5.82646125E+01
 20
-4.73911070E+01
 40
1.00000000E+00
 50
2.70000018E+02
 51
0.00000000E+00
  0
ARC
  8
0
 62
4
 10
5.79646247E+01
 20
-4.70911039E+01
 40
4.50000000E+00
 50
2.70000018E+02
 51
0.00000000E+00
  0
LINE
  8
0
 62
4
 10
-6.95353181E+01
 20
-5.15910582E+01
 11
-1.95353105E+01
 21
-5.15910582E+01
  0
LINE
  8
0
 62
4
 10
-4.95353181E+01
 20
-4.42502760E+01
 11
-4.95353181E+01
 21
-4.83910612E+01
  0
LINE
  8
0
 62
4
 10
-1.95352826E+01
 20
-4.83910746E+01
 11
-2.15112797E+01
 21
-3.71846415E+01
  0
LINE
  8
0
 62
4
 10
-2.55671270E+01
 20
-3.31288725E+01
 11
-3.42884067E+01
 21
-3.15910756E+01
  0
LINE
  8
0
  6
CENTER
 62
6
 10
-2.42881105E+01
 20
-4.00910582E+01
 11
-3.19480378E+01
 21
-4.00910582E+01
  0
LINE
  8
0
  6
CENTER
 62
6
 10
-2.80353181E+01
 20
-5.34572462E+01
 11
-2.80353181E+01
 21
-3.65000738E+01
  0
LINE
  8
0
  6
CENTER
 62
6
 10
-6.48551118E+01
 20
-4.00911039E+01
 11
-5.76854188E+01
 21
-4.00911039E+01
  0
LINE
  8
0
  6
CENTER
 62
6
 10
-6.10353181E+01
 20
-5.34572462E+01
 11
-6.10353181E+01
 21
-3.61936773E+01
  0
LINE
  8
0
  6
CENTER
 62
6
 10
-4.45353792E+01
 20
-2.99223379E+01
 11
-4.45353792E+01
 21
-5.50172819E+01
  0
LINE
  8
0
 62
4
 10
-6.35035009E+01
 20
-3.31288758E+01
 11
-5.47823264E+01
 21
-3.15910974E+01
  0
LINE
  8
0
 62
4
 10
-6.95352897E+01
 20
-4.83910821E+01
 11
-6.75592914E+01
 21
-3.71846416E+01
  0
LINE
  8
0
 62
4
 10
-6.95353181E+01
 20
-4.83910612E+01
 11
-1.95353105E+01
 21
-4.83910612E+01
  0
LINE
  8
0
 62
4
 10
-6.95353181E+01
 20
-4.83910612E+01
 11
-6.95353181E+01
 21
-5.15910582E+01
  0
LINE
  8
0
 62
4
 10
-1.95353105E+01
 20
-4.83910612E+01
 11
-1.95353105E+01
 21
-5.15910582E+01
  0
LINE
  8
0
 62
4
 10
-3.95353181E+01
 20
-4.42502760E+01
 11
-3.95353181E+01
 21
-4.83910612E+01
  0
LINE
  8
0
 62
4
 10
-4.88686464E+01
 20
-4.35910582E+01
 11
-4.02019899E+01
 21
-4.35910582E+01
  0
LINE
  8
0
 62
4
 10
-5.15353667E+01
 20
-4.83910344E+01
 11
-4.97917810E+01
 21
-4.42064262E+01
  0
LINE
  8
0
 62
4
 10
-3.92789552E+01
 20
-4.42064593E+01
 11
-3.75353636E+01
 21
-4.83910816E+01
  0
ARC
  8
0
 62
4
 10
-4.02019899E+01
 20
-4.45910582E+01
 40
1.00000000E+00
 50
2.26200668E+01
 51
8.99999818E+01
  0
ARC
  8
0
 62
4
 10
-6.26352784E+01
 20
-3.80528959E+01
 40
5.00000000E+00
 50
1.00000021E+02
 51
1.70000034E+02
  0
ARC
  8
0
 62
4
 10
-4.45353792E+01
 20
-2.35911001E+01
 40
1.30000000E+01
 50
2.17979849E+02
 51
3.22020272E+02
  0
ARC
  8
0
 62
4
 10
-2.64353578E+01
 20
-3.80528959E+01
 40
5.00000000E+00
 50
9.99992969E+00
 51
7.99999432E+01
  0
ARC
  8
0
 62
4
 10
-4.88686464E+01
 20
-4.45910582E+01
 40
1.00000000E+00
 50
8.99999818E+01
 51
1.57380358E+02
  0
CIRCLE
  8
0
 62
4
 10
-6.10353181E+01
 20
-4.00911039E+01
 40
2.75000000E+00
  0
CIRCLE
  8
0
 62
4
 10
-2.80353181E+01
 20
-4.00910582E+01
 40
2.75000000E+00
  0
LINE
  8
0
 62
4
 10
4.29646857E+01
 20
2.04088999E+01
 11
4.09646857E+01
 21
2.04088999E+01
  0
LINE
  8
0
  6
CENTER
 62
6
 10
6.40560935E+01
 20
2.49088999E+01
 11
3.42671797E+01
 21
2.49088999E+01
  0
LINE
  8
0
 62
4
 10
6.24646247E+01
 20
1.64088999E+01
 11
3.84646857E+01
 21
1.64088999E+01
  0
LINE
  8
0
 62
4
 10
5.92646735E+01
 20
5.44088694E+01
 11
6.24646247E+01
 21
5.44088694E+01
  0
LINE
  8
0
 62
4
 10
5.92646735E+01
 20
2.84089304E+01
 11
6.24646247E+01
 21
2.84089304E+01
  0
LINE
  8
0
 62
4
 10
6.24646247E+01
 20
1.64088999E+01
 11
6.24646247E+01
 21
6.64088999E+01
  0
LINE
  8
0
  6
CENTER
 62
6
 10
6.49533332E+01
 20
4.14088999E+01
 11
2.67969649E+01
 21
4.14088999E+01
  0
LINE
  8
0
  6
CENTER
 62
6
 10
4.19646247E+01
 20
1.84244944E+01
 11
4.19646247E+01
 21
3.16871897E+01
  0
LINE
  8
0
 62
4
 10
5.92646735E+01
 20
1.64088999E+01
 11
5.92646735E+01
 21
6.64088999E+01
  0
LINE
  8
0
 62
4
 10
4.29646857E+01
 20
2.94088999E+01
 11
4.09646857E+01
 21
2.94088999E+01
  0
LINE
  8
0
 62
4
 10
3.24646285E+01
 20
2.24088999E+01
 11
3.24646285E+01
 21
6.04088999E+01
  0
LINE
  8
0
 62
4
 10
5.12430582E+01
 20
4.65857993E+01
 11
5.92646341E+01
 21
4.84088848E+01
  0
LINE
  8
0
 62
4
 10
5.92646552E+01
 20
3.44088772E+01
 11
5.12430207E+01
 21
3.62319747E+01
  0
LINE
  8
0
 62
4
 10
5.92646735E+01
 20
4.64088999E+01
 11
5.20979254E+01
 21
4.64088999E+01
  0
LINE
  8
0
 62
4
 10
5.92646735E+01
 20
3.64088999E+01
 11
5.21277106E+01
 21
3.64088999E+01
  0
LINE
  8
0
 62
4
 10
5.04646247E+01
 20
3.72071482E+01
 11
5.04646247E+01
 21
4.56106821E+01
  0
LINE
  8
0
 62
4
 10
4.29646857E+01
 20
6.24088999E+01
 11
4.09646857E+01
 21
6.24088999E+01
  0
LINE
  8
0
  6
CENTER
 62
6
 10
6.34579375E+01
 20
5.79088999E+01
 11
3.42671797E+01
 21
5.79088999E+01
  0
LINE
  8
0
 62
4
 10
4.29646857E+01
 20
5.34088999E+01
 11
4.09646857E+01
 21
5.34088999E+01
  0
LINE
  8
0
 62
4
 10
6.24646247E+01
 20
6.64088999E+01
 11
3.84646857E+01
 21
6.64088999E+01
  0
LINE
  8
0
  6
CENTER
 62
6
 10
4.19646247E+01
 20
6.43933054E+01
 11
4.19646247E+01
 21
5.11306101E+01
  0
ARC
  8
0
 62
4
 10
5.14646857E+01
 20
4.56106821E+01
 40
1.00000000E+00
 50
1.02803998E+02
 51
1.79999991E+02
  0
ARC
  8
0
 62
4
 10
3.84646857E+01
 20
2.24088999E+01
 40
6.00000000E+00
 50
1.79999991E+02
 51
2.70000028E+02
  0
ARC
  8
0
 62
4
 10
5.14646857E+01
 20
3.72071482E+01
 40
1.00000000E+00
 50
1.79999991E+02
 51
2.57195827E+02
  0
ARC
  8
0
 62
4
 10
3.84646857E+01
 20
6.04088999E+01
 40
6.00000000E+00
 50
9.00000025E+01
 51
1.79999991E+02
  0
ARC
  8
0
 62
4
 10
4.29646857E+01
 20
5.79088999E+01
 40
4.50000000E+00
 50
2.70000052E+02
 51
9.00000025E+01
  0
ARC
  8
0
 62
4
 10
4.09646857E+01
 20
5.79088999E+01
 40
4.50000000E+00
 50
9.00000162E+01
 51
2.70000028E+02
  0
ARC
  8
0
 62
4
 10
4.29646857E+01
 20
2.49088999E+01
 40
4.50000000E+00
 50
2.70000052E+02
 51
9.00000025E+01
  0
ARC
  8
0
 62
4
 10
4.09646857E+01
 20
2.49088999E+01
 40
4.50000000E+00
 50
9.00000025E+01
 51
2.70000028E+02
  0
TEXT
  8
0
 62
7
 10
-1.32642850E+02
 20
8.79000001E+01
 40
3.19999981E+00
  1
NEW DYNA CYLINDER
 41
1.07594937E+00
  7
MONOTXT
  0
LINE
  8
0
 62
7
 10
-1.38399994E+02
 20
8.45000000E+01
 11
-7.33999939E+01
 21
8.45000000E+01
  0
LINE
  8
0
 62
7
 10
-7.33999939E+01
 20
9.45000000E+01
 11
-7.33999939E+01
 21
8.45000000E+01
  0
LINE
  8
0
 62
7
 10
7.33500061E+01
 20
-8.48000031E+01
 11
1.38350006E+02
 21
-8.48000031E+01
  0
LINE
  8
0
 62
7
 10
7.33500061E+01
 20
-8.48000031E+01
 11
7.33500061E+01
 21
-9.48000031E+01
  0
TEXT
  8
0
 62
7
 10
7.72426624E+01
 20
-9.20500031E+01
 40
4.50000000E+00
  1
KOGANEI CORP.
 41
1.04838710E+00
  7
MONOTXT
  0
LINE
  8
0
 62
7
 10
7.33500061E+01
 20
8.45000000E+01
 11
1.38350006E+02
 21
8.45000000E+01
  0
LINE
  8
0
 62
7
 10
7.33500061E+01
 20
9.45000000E+01
 11
7.33500061E+01
 21
8.45000000E+01
  0
TEXT
  8
0
 62
7
 10
9.35071493E+01
 20
8.79000001E+01
 40
3.19999981E+00
  1
Ver. 1.0
 41
1.08108108E+00
  7
MONOTXT
  0
LINE
  8
0
 62
7
 10
-1.38399994E+02
 20
9.45000000E+01
 11
1.38350006E+02
 21
9.45000000E+01
  0
LINE
  8
0
 62
7
 10
1.38350006E+02
 20
9.45000000E+01
 11
1.38350006E+02
 21
-9.48000031E+01
  0
LINE
  8
0
 62
7
 10
-1.38399994E+02
 20
-9.48000031E+01
 11
1.38350006E+02
 21
-9.48000031E+01
  0
LINE
  8
0
 62
7
 10
-1.38399994E+02
 20
9.45000000E+01
 11
-1.38399994E+02
 21
-9.48000031E+01
  0
TEXT
  8
0
 62
7
 10
-1.29085994E+02
 20
7.29000001E+01
 40
3.19999981E+00
  1
MODEL:DDA32-1
 41
1.00000000E+00
  7
MONOTXT
  0
ENDSEC
  0
EOF
