  0
SECTION
  2
HEADER
  9
$ACADVER
  1
AC1003
  9
$EXTMIN
 10
-1.38399994E+02
 20
-9.48000031E+01
  9
$EXTMAX
 10
1.38350006E+02
 20
9.45000000E+01
  9
$LIMMIN
 10
-1.38400994E+02
 20
-9.48010031E+01
  9
$LIMMAX
 10
1.38351006E+02
 20
9.45010000E+01
  9
$SNAPUNIT
 10
1
 20
1
  9
$SNAPBASE
 10
0
 20
0
  9
$GRIDMODE
 70
0
  9
$GRIDUNIT
 10
0
 20
0
  9
$LTSCALE
 40
4.61250000E+00
  9
$TEXTSIZE
 40
3.2
  9
$DIMTAD
 70
0
  9
$LUNITS
 70
2
  9
$LUPREC
 70
4
  9
$FILLETRAD
 40
0
  9
$AUNITS
 70
0
  9
$AUPREC
 70
0
  0
ENDSEC
  0
SECTION
  2
TABLES
  0
TABLE
  2
LTYPE
 70
2
  0
LTYPE
  2
CONTINUOUS
 70
64
  3
Solid-Line
 72
65
 73
0
 40
0
  0
LTYPE
  2
DASHED
 70
64
  3
DASHED
 72
65
 73
2
 40
.75
 49
.5
 49
-.25
  0
LTYPE
  2
HIDDEN
 70
64
  3
HIDDEN
 72
65
 73
2
 40
.375
 49
.25
 49
-.125
  0
LTYPE
  2
CENTER
 70
64
  3
CENTER
 72
65
 73
4
 40
2
 49
1.25
 49
-.25
 49
.25
 49
-.25
  0
LTYPE
  2
PHANTOM
 70
64
  3
PHANTOM
 72
65
 73
6
 40
2.5
 49
1.25
 49
-.25
 49
.25
 49
-.25
 49
.25
 49
-.25
  0
ENDTAB
  0
TABLE
  2
LAYER
 70
1
  0
LAYER
  2
1
 70
0
 62
7
  6
CONTINUOUS
 0
ENDTAB
  0
TABLE
  2
STYLE
 70
2
  0
STYLE
  2
MONOTXT
 70
0
 40
0
 41
1
 50
0
 71
0
 42
.2
  3
monotxt
  0
STYLE
  2
BIGFONT
 70
0
 40
0
 41
1
 50
0
 71
0
 42
.2
  3
txt
  4
bigfont
  0
ENDTAB
  0
ENDSEC
  0
SECTION
  2
ENTITIES
  0
LINE
  8
0
 62
4
 10
3.82114222E+01
 20
-6.03738178E+01
 11
6.17114222E+01
 21
-6.03738178E+01
  0
LINE
  8
0
 62
4
 10
6.17114222E+01
 20
-6.03738178E+01
 11
6.17114222E+01
 21
-6.83738063E+01
  0
LINE
  8
0
 62
4
 10
2.87446558E+01
 20
-6.13738178E+01
 11
3.82114222E+01
 21
-6.13738178E+01
  0
LINE
  8
0
  6
CENTER
 62
6
 10
4.77114222E+01
 20
-5.68738178E+01
 11
4.77114222E+01
 21
-7.18738216E+01
  0
LINE
  8
0
 62
4
 10
2.47114222E+01
 20
-6.83738063E+01
 11
6.17114222E+01
 21
-6.83738063E+01
  0
LINE
  8
0
  6
CENTER
 62
6
 10
2.17563441E+01
 20
-6.28738178E+01
 11
6.45036681E+01
 21
-6.28738178E+01
  0
LINE
  8
0
 62
4
 10
2.77114222E+01
 20
-5.43738178E+01
 11
3.82114222E+01
 21
-5.43738178E+01
  0
LINE
  8
0
 62
4
 10
2.47114222E+01
 20
-5.73738178E+01
 11
2.47114222E+01
 21
-6.83738216E+01
  0
LINE
  8
0
 62
4
 10
3.82114222E+01
 20
-5.43738178E+01
 11
3.82114222E+01
 21
-6.13738178E+01
  0
LINE
  8
0
 62
4
 10
2.57114222E+01
 20
-6.43738178E+01
 11
2.57114222E+01
 21
-6.83738216E+01
  0
ARC
  8
0
 62
4
 10
2.87446558E+01
 20
-6.43738178E+01
 40
3.00000000E+00
 50
8.99999818E+01
 51
1.79999964E+02
  0
ARC
  8
0
 62
4
 10
2.77114222E+01
 20
-5.73738178E+01
 40
3.00000000E+00
 50
8.99999818E+01
 51
1.79999964E+02
  0
LINE
  8
0
 62
4
 10
-3.87886388E+01
 20
-6.83738063E+01
 11
-3.87886388E+01
 21
-6.23738178E+01
  0
LINE
  8
0
 62
4
 10
-1.19788639E+02
 20
-6.23738178E+01
 11
-1.19788639E+02
 21
-6.83738063E+01
  0
LINE
  8
0
  6
CENTER
 62
6
 10
-5.90611913E+01
 20
-6.28737720E+01
 11
-6.66243322E+01
 21
-6.28737720E+01
  0
LINE
  8
0
  6
CENTER
 62
6
 10
-6.27885778E+01
 20
-6.66855281E+01
 11
-6.27885778E+01
 21
-5.91223835E+01
  0
LINE
  8
0
  6
CENTER
 62
6
 10
-1.00658481E+02
 20
-6.28738178E+01
 11
-9.18754766E+01
 21
-6.28738178E+01
  0
LINE
  8
0
  6
CENTER
 62
6
 10
-9.57885778E+01
 20
-6.69295009E+01
 11
-9.57885778E+01
 21
-5.91223835E+01
  0
LINE
  8
0
  6
CENTER
 62
6
 10
-7.92886388E+01
 20
-5.15597919E+01
 11
-7.92886388E+01
 21
-7.12409176E+01
  0
LINE
  8
0
 62
4
 10
-5.46992834E+01
 20
-6.03738178E+01
 11
-4.07886388E+01
 21
-6.03738178E+01
  0
LINE
  8
0
 62
4
 10
-6.67016943E+01
 20
-5.43738178E+01
 11
-5.99527319E+01
 21
-5.43738178E+01
  0
LINE
  8
0
 62
4
 10
-5.32886519E+01
 20
-6.83738195E+01
 11
-5.50286891E+01
 21
-5.85055754E+01
  0
LINE
  8
0
 62
4
 10
-8.98798037E+01
 20
-6.18319246E+01
 11
-8.87262940E+01
 21
-6.83738052E+01
  0
LINE
  8
0
 62
4
 10
-8.68755717E+01
 20
-5.93738151E+01
 11
-8.52886319E+01
 21
-6.83738006E+01
  0
LINE
  8
0
 62
4
 10
-9.18755803E+01
 20
-5.43738334E+01
 11
-8.68755749E+01
 21
-5.93738387E+01
  0
LINE
  8
0
 62
4
 10
-9.86245458E+01
 20
-5.43738178E+01
 11
-9.18755834E+01
 21
-5.43738178E+01
  0
LINE
  8
0
 62
4
 10
-8.65229223E+01
 20
-6.13738178E+01
 11
-7.20543554E+01
 21
-6.13738178E+01
  0
LINE
  8
0
 62
4
 10
-1.02850997E+02
 20
-6.83738166E+01
 11
-1.01697486E+02
 21
-6.18319285E+01
  0
LINE
  8
0
 62
4
 10
-8.60139196E+01
 20
-6.42605671E+01
 11
-7.25633581E+01
 21
-6.42605671E+01
  0
LINE
  8
0
  6
CENTER
 62
6
 10
-1.10788639E+02
 20
-5.68738178E+01
 11
-1.10788639E+02
 21
-7.18738216E+01
  0
LINE
  8
0
 62
4
 10
-5.68798323E+01
 20
-6.18319264E+01
 11
-5.57263213E+01
 21
-6.83738144E+01
  0
LINE
  8
0
 62
4
 10
-1.03548597E+02
 20
-5.85055753E+01
 11
-1.05288635E+02
 21
-6.83738194E+01
  0
LINE
  8
0
 62
4
 10
-3.87886388E+01
 20
-6.83738063E+01
 11
-1.19788639E+02
 21
-6.83738063E+01
  0
LINE
  8
0
 62
4
 10
-7.17016955E+01
 20
-5.93738387E+01
 11
-6.67017010E+01
 21
-5.43738442E+01
  0
LINE
  8
0
 62
4
 10
-7.32886560E+01
 20
-6.83738081E+01
 11
-7.17017162E+01
 21
-5.93738225E+01
  0
LINE
  8
0
  6
CENTER
 62
6
 10
-4.77886388E+01
 20
-7.18738216E+01
 11
-4.77886388E+01
 21
-5.68738178E+01
  0
LINE
  8
0
 62
4
 10
-6.98509939E+01
 20
-6.83738126E+01
 11
-6.86974855E+01
 21
-6.18319396E+01
  0
LINE
  8
0
 62
4
 10
-1.17788639E+02
 20
-6.03738178E+01
 11
-1.03878025E+02
 21
-6.03738178E+01
  0
ARC
  8
0
 62
4
 10
-9.86245458E+01
 20
-5.93738178E+01
 40
5.00000000E+00
 50
8.99998180E+01
 51
1.69999966E+02
  0
ARC
  8
0
 62
4
 10
-9.57886388E+01
 20
-6.28738178E+01
 40
6.00000000E+00
 50
9.99999460E+00
 51
1.69999966E+02
  0
ARC
  8
0
 62
4
 10
-6.27886388E+01
 20
-6.28738178E+01
 40
6.00000000E+00
 50
1.00000321E+01
 51
1.69999966E+02
  0
ARC
  8
0
 62
4
 10
-1.17788639E+02
 20
-6.23738178E+01
 40
2.00000000E+00
 50
8.99999818E+01
 51
1.79999964E+02
  0
ARC
  8
0
 62
4
 10
-4.07886388E+01
 20
-6.23738178E+01
 40
2.00000000E+00
 50
0.00000000E+00
 51
8.99999818E+01
  0
ARC
  8
0
 62
4
 10
-5.99527319E+01
 20
-5.93738178E+01
 40
5.00000000E+00
 50
1.00000321E+01
 51
9.00001457E+01
  0
CIRCLE
  8
0
 62
4
 10
-9.57885778E+01
 20
-6.28738178E+01
 40
2.75000000E+00
  0
CIRCLE
  8
0
 62
4
 10
-6.27885778E+01
 20
-6.28737720E+01
 40
2.75000000E+00
  0
LINE
  8
0
 62
4
 10
2.48735011E+01
 20
4.96261822E+01
 11
2.48735011E+01
 21
6.96261822E+01
  0
LINE
  8
0
 62
4
 10
3.80024073E+01
 20
2.31262127E+01
 11
3.80024073E+01
 21
6.43272320E+01
  0
LINE
  8
0
 62
4
 10
3.83735011E+01
 20
3.12621273E+00
 11
3.83735011E+01
 21
2.26431195E+01
  0
LINE
  8
0
 62
4
 10
2.48735011E+01
 20
6.96261822E+01
 11
3.83735011E+01
 21
6.96261822E+01
  0
LINE
  8
0
  6
CENTER
 62
6
 10
4.03965647E+01
 20
6.01261822E+01
 11
2.20190699E+01
 21
6.01261822E+01
  0
LINE
  8
0
  6
CENTER
 62
6
 10
3.97212145E+01
 20
2.71262127E+01
 11
2.15628321E+01
 21
2.71262127E+01
  0
LINE
  8
0
  6
CENTER
 62
6
 10
4.01703455E+01
 20
4.36261822E+01
 11
2.11594279E+01
 21
4.36261822E+01
  0
LINE
  8
0
 62
4
 10
3.08735011E+01
 20
5.12131268E+01
 11
3.80024073E+01
 21
5.12131268E+01
  0
LINE
  8
0
  6
CENTER
 62
6
 10
4.03735011E+01
 20
7.51261822E+01
 11
5.53735011E+01
 21
7.51261822E+01
  0
LINE
  8
0
  6
CENTER
 62
6
 10
5.53735011E+01
 20
1.21262127E+01
 11
4.03735011E+01
 21
1.21262127E+01
  0
LINE
  8
0
  6
CENTER
 62
6
 10
4.78735011E+01
 20
4.62621273E+00
 11
4.78735011E+01
 21
1.96262127E+01
  0
LINE
  8
0
 62
4
 10
5.95171570E+01
 20
8.04202657E+01
 11
6.15267854E+01
 21
7.29202517E+01
  0
LINE
  8
0
  6
CENTER
 62
6
 10
4.78735011E+01
 20
6.76261822E+01
 11
4.78735011E+01
 21
8.26261822E+01
  0
LINE
  8
0
 62
4
 10
6.15266946E+01
 20
1.43321341E+01
 11
5.95170706E+01
 21
6.83213484E+00
  0
LINE
  8
0
 62
4
 10
3.83735011E+01
 20
6.48103253E+01
 11
3.83735011E+01
 21
8.41261822E+01
  0
LINE
  8
0
 62
4
 10
3.35954249E+01
 20
8.41261822E+01
 11
5.46874659E+01
 21
8.41261822E+01
  0
LINE
  8
0
 62
4
 10
3.83735011E+01
 20
6.66261822E+01
 11
5.66971095E+01
 21
6.66261822E+01
  0
LINE
  8
0
 62
4
 10
2.58735580E+01
 20
6.96260722E+01
 11
2.87658412E+01
 21
8.04202225E+01
  0
LINE
  8
0
 62
4
 10
2.58735011E+01
 20
3.73616864E+01
 11
2.58735011E+01
 21
4.98906781E+01
  0
LINE
  8
0
 62
4
 10
5.66971095E+01
 20
2.06262127E+01
 11
3.83735011E+01
 21
2.06262127E+01
  0
LINE
  8
0
 62
4
 10
3.83735011E+01
 20
1.76262127E+01
 11
2.48735011E+01
 21
1.76262127E+01
  0
LINE
  8
0
 62
4
 10
5.46874659E+01
 20
3.12621273E+00
 11
3.35954249E+01
 21
3.12621273E+00
  0
LINE
  8
0
 62
4
 10
2.48735011E+01
 20
1.76262127E+01
 11
2.48735011E+01
 21
3.76261822E+01
  0
LINE
  8
0
 62
4
 10
3.80024073E+01
 20
3.60392376E+01
 11
3.08735011E+01
 21
3.60392376E+01
  0
LINE
  8
0
 62
4
 10
3.80024073E+01
 20
3.10392376E+01
 11
2.48735011E+01
 21
3.10392376E+01
  0
LINE
  8
0
 62
4
 10
3.08735082E+01
 20
3.60392629E+01
 11
2.48735269E+01
 21
3.76261992E+01
  0
LINE
  8
0
 62
4
 10
2.48735011E+01
 20
5.62131268E+01
 11
3.80024073E+01
 21
5.62131268E+01
  0
LINE
  8
0
 62
4
 10
2.48735154E+01
 20
4.96261130E+01
 11
3.08735559E+01
 21
5.12130653E+01
  0
LINE
  8
0
 62
4
 10
3.08735011E+01
 20
3.60392376E+01
 11
3.08735011E+01
 21
5.12131268E+01
  0
LINE
  8
0
 62
4
 10
2.87658379E+01
 20
6.83209544E+00
 11
2.58735695E+01
 21
1.76261867E+01
  0
ARC
  8
0
 62
4
 10
3.35954249E+01
 20
7.91261822E+01
 40
5.00000000E+00
 50
9.00000162E+01
 51
1.65000035E+02
  0
ARC
  8
0
 62
4
 10
5.46874659E+01
 20
7.91261822E+01
 40
5.00000000E+00
 50
1.49999919E+01
 51
9.00000162E+01
  0
CIRCLE
  8
0
 62
4
 10
4.78735011E+01
 20
7.51261822E+01
 40
4.50000000E+00
  0
CIRCLE
  8
0
 62
4
 10
4.78735621E+01
 20
1.21262127E+01
 40
4.50000000E+00
  0
ARC
  8
0
 62
4
 10
3.85024073E+01
 20
6.43272320E+01
 40
5.00000000E-01
 50
1.04940304E+02
 51
1.79999951E+02
  0
ARC
  8
0
 62
4
 10
3.85024073E+01
 20
2.31262127E+01
 40
5.00000000E-01
 50
1.79999951E+02
 51
2.55059700E+02
  0
ARC
  8
0
 62
4
 10
3.35954249E+01
 20
8.12621273E+00
 40
5.00000000E+00
 50
1.94999964E+02
 51
2.69999984E+02
  0
ARC
  8
0
 62
4
 10
5.46874659E+01
 20
8.12621273E+00
 40
5.00000000E+00
 50
2.69999984E+02
 51
3.45000008E+02
  0
ARC
  8
0
 62
4
 10
5.66971095E+01
 20
1.56262127E+01
 40
5.00000000E+00
 50
3.45000025E+02
 51
9.00000162E+01
  0
ARC
  8
0
 62
4
 10
5.66971095E+01
 20
7.16261822E+01
 40
5.00000000E+00
 50
2.69999998E+02
 51
1.49999919E+01
  0
LINE
  8
0
 62
7
 10
-7.33999939E+01
 20
9.45000000E+01
 11
-7.33999939E+01
 21
8.45000000E+01
  0
TEXT
  8
0
 62
7
 10
-1.32642850E+02
 20
8.79000001E+01
 40
3.19999981E+00
  1
NEW DYNA CYLINDER
 41
1.07594937E+00
  7
MONOTXT
  0
LINE
  8
0
 62
7
 10
-1.38399994E+02
 20
8.45000000E+01
 11
-7.33999939E+01
 21
8.45000000E+01
  0
LINE
  8
0
 62
7
 10
7.33500061E+01
 20
-8.48000031E+01
 11
1.38350006E+02
 21
-8.48000031E+01
  0
LINE
  8
0
 62
7
 10
7.33500061E+01
 20
-8.48000031E+01
 11
7.33500061E+01
 21
-9.48000031E+01
  0
TEXT
  8
0
 62
7
 10
7.72426624E+01
 20
-9.20500031E+01
 40
4.50000000E+00
  1
KOGANEI CORP.
 41
1.04838710E+00
  7
MONOTXT
  0
LINE
  8
0
 62
7
 10
7.33500061E+01
 20
8.45000000E+01
 11
1.38350006E+02
 21
8.45000000E+01
  0
LINE
  8
0
 62
7
 10
7.33500061E+01
 20
9.45000000E+01
 11
7.33500061E+01
 21
8.45000000E+01
  0
TEXT
  8
0
 62
7
 10
9.35071493E+01
 20
8.79000001E+01
 40
3.19999981E+00
  1
Ver. 1.0
 41
1.08108108E+00
  7
MONOTXT
  0
LINE
  8
0
 62
7
 10
-1.38399994E+02
 20
9.45000000E+01
 11
1.38350006E+02
 21
9.45000000E+01
  0
LINE
  8
0
 62
7
 10
1.38350006E+02
 20
9.45000000E+01
 11
1.38350006E+02
 21
-9.48000031E+01
  0
LINE
  8
0
 62
7
 10
-1.38399994E+02
 20
-9.48000031E+01
 11
1.38350006E+02
 21
-9.48000031E+01
  0
LINE
  8
0
 62
7
 10
-1.38399994E+02
 20
9.45000000E+01
 11
-1.38399994E+02
 21
-9.48000031E+01
  0
TEXT
  8
0
 62
7
 10
-1.29085994E+02
 20
7.29000001E+01
 40
3.19999981E+00
  1
MODEL:DDA32-2
 41
1.00000000E+00
  7
MONOTXT
  0
ENDSEC
  0
EOF
