  0
SECTION
  2
HEADER
  9
$ACADVER
  1
AC1003
  9
$EXTMIN
 10
-1.38399994E+02
 20
-9.48000031E+01
  9
$EXTMAX
 10
1.38350006E+02
 20
9.45000000E+01
  9
$LIMMIN
 10
-1.38400994E+02
 20
-9.48010031E+01
  9
$LIMMAX
 10
1.38351006E+02
 20
9.45010000E+01
  9
$SNAPUNIT
 10
1
 20
1
  9
$SNAPBASE
 10
0
 20
0
  9
$GRIDMODE
 70
0
  9
$GRIDUNIT
 10
0
 20
0
  9
$LTSCALE
 40
4.61250000E+00
  9
$TEXTSIZE
 40
3.2
  9
$DIMTAD
 70
0
  9
$LUNITS
 70
2
  9
$LUPREC
 70
4
  9
$FILLETRAD
 40
0
  9
$AUNITS
 70
0
  9
$AUPREC
 70
0
  0
ENDSEC
  0
SECTION
  2
TABLES
  0
TABLE
  2
LTYPE
 70
2
  0
LTYPE
  2
CONTINUOUS
 70
64
  3
Solid-Line
 72
65
 73
0
 40
0
  0
LTYPE
  2
DASHED
 70
64
  3
DASHED
 72
65
 73
2
 40
.75
 49
.5
 49
-.25
  0
LTYPE
  2
HIDDEN
 70
64
  3
HIDDEN
 72
65
 73
2
 40
.375
 49
.25
 49
-.125
  0
LTYPE
  2
CENTER
 70
64
  3
CENTER
 72
65
 73
4
 40
2
 49
1.25
 49
-.25
 49
.25
 49
-.25
  0
LTYPE
  2
PHANTOM
 70
64
  3
PHANTOM
 72
65
 73
6
 40
2.5
 49
1.25
 49
-.25
 49
.25
 49
-.25
 49
.25
 49
-.25
  0
ENDTAB
  0
TABLE
  2
LAYER
 70
1
  0
LAYER
  2
1
 70
0
 62
7
  6
CONTINUOUS
 0
ENDTAB
  0
TABLE
  2
STYLE
 70
2
  0
STYLE
  2
MONOTXT
 70
0
 40
0
 41
1
 50
0
 71
0
 42
.2
  3
monotxt
  0
STYLE
  2
BIGFONT
 70
0
 40
0
 41
1
 50
0
 71
0
 42
.2
  3
txt
  4
bigfont
  0
ENDTAB
  0
ENDSEC
  0
SECTION
  2
ENTITIES
  0
LINE
  8
0
 62
4
 10
4.21637686E+01
 20
-1.92114497E+01
 11
5.21637676E+01
 21
-1.92114497E+01
  0
LINE
  8
0
 62
4
 10
4.21637686E+01
 20
-6.62114497E+01
 11
5.21637676E+01
 21
-6.62114497E+01
  0
LINE
  8
0
 62
4
 10
4.21637686E+01
 20
-6.62114497E+01
 11
4.21637686E+01
 21
-1.92114497E+01
  0
LINE
  8
0
  6
CENTER
 62
6
 10
3.92704122E+01
 20
-2.62114497E+01
 11
5.43172291E+01
 21
-2.62114497E+01
  0
LINE
  8
0
 62
4
 10
5.21637676E+01
 20
-6.62114497E+01
 11
5.21637676E+01
 21
-1.92114497E+01
  0
LINE
  8
0
  6
CENTER
 62
6
 10
3.73771470E+01
 20
-4.27114497E+01
 11
5.66036175E+01
 21
-4.27114497E+01
  0
LINE
  8
0
  6
CENTER
 62
6
 10
3.84187053E+01
 20
-5.92114497E+01
 11
5.46011322E+01
 21
-5.92114497E+01
  0
LINE
  8
0
 62
4
 10
-6.58362934E+01
 20
-1.92114497E+01
 11
-3.83629342E+00
 21
-1.92114497E+01
  0
LINE
  8
0
 62
4
 10
-6.58362934E+01
 20
-6.62114497E+01
 11
-3.83629342E+00
 21
-6.62114497E+01
  0
LINE
  8
0
  6
CENTER
 62
6
 10
-2.18453571E+01
 20
-2.62114497E+01
 11
-8.36293417E-01
 21
-2.62114497E+01
  0
LINE
  8
0
  6
CENTER
 62
6
 10
-2.20237171E+01
 20
-5.92114497E+01
 11
-8.36293417E-01
 21
-5.92114497E+01
  0
LINE
  8
0
  6
CENTER
 62
6
 10
-6.88362934E+01
 20
-2.62114497E+01
 11
-4.75287678E+01
 21
-2.62114497E+01
  0
LINE
  8
0
 62
4
 10
1.16370658E+00
 20
-2.42114497E+01
 11
1.16370658E+00
 21
-6.12114497E+01
  0
LINE
  8
0
  6
CENTER
 62
6
 10
-6.38362934E+01
 20
-5.42114497E+01
 11
-6.38362934E+01
 21
-6.42114497E+01
  0
LINE
  8
0
  6
CENTER
 62
6
 10
-6.88362934E+01
 20
-5.92114497E+01
 11
-4.75287678E+01
 21
-5.92114497E+01
  0
LINE
  8
0
  6
CENTER
 62
6
 10
-5.83629342E+00
 20
-5.42114497E+01
 11
-5.83629342E+00
 21
-6.42114497E+01
  0
LINE
  8
0
  6
CENTER
 62
6
 10
-6.38362934E+01
 20
-2.12114497E+01
 11
-6.38362934E+01
 21
-3.12114497E+01
  0
LINE
  8
0
  6
CENTER
 62
6
 10
-5.83629342E+00
 20
-2.12114497E+01
 11
-5.83629342E+00
 21
-3.12114497E+01
  0
LINE
  8
0
  6
CENTER
 62
6
 10
-5.13362934E+01
 20
-2.28242885E+01
 11
-5.13362934E+01
 21
-3.01369258E+01
  0
LINE
  8
0
  6
CENTER
 62
6
 10
-1.83362934E+01
 20
-2.22000362E+01
 11
-1.83362934E+01
 21
-3.02260982E+01
  0
LINE
  8
0
  6
CENTER
 62
6
 10
-1.83362324E+01
 20
-6.26870662E+01
 11
-1.83362324E+01
 21
-5.52852565E+01
  0
LINE
  8
0
  6
CENTER
 62
6
 10
-5.13362324E+01
 20
-6.30437785E+01
 11
-5.13362324E+01
 21
-5.53744289E+01
  0
LINE
  8
0
  6
CENTER
 62
6
 10
-3.48362934E+01
 20
-1.83814021E+01
 11
-3.48362934E+01
 21
-6.75785457E+01
  0
LINE
  8
0
  6
CENTER
 62
6
 10
-7.70686543E+01
 20
-4.27114497E+01
 11
5.17234306E+00
 21
-4.27114497E+01
  0
LINE
  8
0
 62
4
 10
-7.08362934E+01
 20
-2.42114497E+01
 11
-7.08362934E+01
 21
-6.12114497E+01
  0
ARC
  8
0
 62
4
 10
-6.58362934E+01
 20
-2.42114497E+01
 40
5.00000000E+00
 50
8.99999818E+01
 51
1.79999964E+02
  0
ARC
  8
0
 62
4
 10
-3.83629342E+00
 20
-2.42114497E+01
 40
5.00000000E+00
 50
0.00000000E+00
 51
8.99999818E+01
  0
CIRCLE
  8
0
 62
4
 10
-5.83629342E+00
 20
-5.92114497E+01
 40
3.50000000E+00
  0
CIRCLE
  8
0
 62
4
 10
-5.13362934E+01
 20
-2.62114497E+01
 40
2.75000000E+00
  0
CIRCLE
  8
0
 62
4
 10
-1.83362934E+01
 20
-2.62114040E+01
 40
2.75000000E+00
  0
CIRCLE
  8
0
 62
4
 10
-3.48362934E+01
 20
-4.27114497E+01
 40
1.30000000E+01
  0
ARC
  8
0
 62
4
 10
-3.83629342E+00
 20
-6.12114497E+01
 40
5.00000000E+00
 50
2.70000018E+02
 51
0.00000000E+00
  0
CIRCLE
  8
0
 62
4
 10
-5.83629342E+00
 20
-2.62114497E+01
 40
3.50000000E+00
  0
CIRCLE
  8
0
 62
4
 10
-5.13362324E+01
 20
-5.92114497E+01
 40
2.75000000E+00
  0
CIRCLE
  8
0
 62
4
 10
-6.38362934E+01
 20
-2.62114497E+01
 40
3.50000000E+00
  0
CIRCLE
  8
0
 62
4
 10
-1.83362324E+01
 20
-5.92114040E+01
 40
2.75000000E+00
  0
CIRCLE
  8
0
 62
4
 10
-6.38362934E+01
 20
-5.92114497E+01
 40
3.50000000E+00
  0
ARC
  8
0
 62
4
 10
-6.58362934E+01
 20
-6.12114497E+01
 40
5.00000000E+00
 50
1.79999964E+02
 51
2.70000001E+02
  0
LINE
  8
0
 62
4
 10
4.21637686E+01
 20
8.32885655E+01
 11
5.21637676E+01
 21
8.32885655E+01
  0
LINE
  8
0
 62
4
 10
4.21637686E+01
 20
1.12885503E+01
 11
5.21637676E+01
 21
1.12885503E+01
  0
LINE
  8
0
 62
4
 10
4.21637686E+01
 20
1.12885503E+01
 11
4.21637686E+01
 21
8.32885655E+01
  0
LINE
  8
0
 62
4
 10
5.21637676E+01
 20
1.12885503E+01
 11
5.21637676E+01
 21
8.32885655E+01
  0
LINE
  8
0
  6
CENTER
 62
6
 10
3.96533921E+01
 20
6.37885503E+01
 11
5.48164471E+01
 21
6.37885503E+01
  0
LINE
  8
0
  6
CENTER
 62
6
 10
3.96533921E+01
 20
3.07885808E+01
 11
5.48164471E+01
 21
3.07885808E+01
  0
LINE
  8
0
  6
CENTER
 62
6
 10
3.51218982E+01
 20
4.72885503E+01
 11
6.02194012E+01
 21
4.72885503E+01
  0
LINE
  8
0
  6
CENTER
 62
6
 10
3.96533921E+01
 20
7.62885655E+01
 11
5.48164471E+01
 21
7.62885655E+01
  0
LINE
  8
0
  6
CENTER
 62
6
 10
3.96533921E+01
 20
1.82885503E+01
 11
5.41193035E+01
 21
1.82885503E+01
  0
LINE
  8
0
 62
7
 10
7.33500061E+01
 20
-8.48000031E+01
 11
1.38350006E+02
 21
-8.48000031E+01
  0
LINE
  8
0
 62
7
 10
7.33500061E+01
 20
-8.48000031E+01
 11
7.33500061E+01
 21
-9.48000031E+01
  0
TEXT
  8
0
 62
7
 10
7.72426624E+01
 20
-9.20500031E+01
 40
4.50000000E+00
  1
KOGANEI CORP.
 41
1.04838710E+00
  7
MONOTXT
  0
TEXT
  8
0
 62
7
 10
-1.32642850E+02
 20
8.79000001E+01
 40
3.19999981E+00
  1
NEW DYNA CYLINDER
 41
1.07594937E+00
  7
MONOTXT
  0
LINE
  8
0
 62
7
 10
-1.38399994E+02
 20
8.45000000E+01
 11
-7.33999939E+01
 21
8.45000000E+01
  0
LINE
  8
0
 62
7
 10
-7.33999939E+01
 20
9.45000000E+01
 11
-7.33999939E+01
 21
8.45000000E+01
  0
TEXT
  8
0
 62
7
 10
9.35071493E+01
 20
8.79000001E+01
 40
3.19999981E+00
  1
Ver. 1.0
 41
1.08108108E+00
  7
MONOTXT
  0
LINE
  8
0
 62
7
 10
7.33500061E+01
 20
8.45000000E+01
 11
1.38350006E+02
 21
8.45000000E+01
  0
LINE
  8
0
 62
7
 10
7.33500061E+01
 20
9.45000000E+01
 11
7.33500061E+01
 21
8.45000000E+01
  0
LINE
  8
0
 62
7
 10
-1.38399994E+02
 20
9.45000000E+01
 11
1.38350006E+02
 21
9.45000000E+01
  0
LINE
  8
0
 62
7
 10
1.38350006E+02
 20
9.45000000E+01
 11
1.38350006E+02
 21
-9.48000031E+01
  0
LINE
  8
0
 62
7
 10
-1.38399994E+02
 20
-9.48000031E+01
 11
1.38350006E+02
 21
-9.48000031E+01
  0
LINE
  8
0
 62
7
 10
-1.38399994E+02
 20
9.45000000E+01
 11
-1.38399994E+02
 21
-9.48000031E+01
  0
TEXT
  8
0
 62
7
 10
-1.29085994E+02
 20
7.29000001E+01
 40
3.19999981E+00
  1
MODEL:DDA32-3
 41
1.00000000E+00
  7
MONOTXT
  0
ENDSEC
  0
EOF
