  0
SECTION
  2
HEADER
  9
$ACADVER
  1
AC1003
  9
$EXTMIN
 10
-1.38399994E+02
 20
-9.48000031E+01
  9
$EXTMAX
 10
1.38350006E+02
 20
9.45000000E+01
  9
$LIMMIN
 10
-1.38400994E+02
 20
-9.48010031E+01
  9
$LIMMAX
 10
1.38351006E+02
 20
9.45010000E+01
  9
$SNAPUNIT
 10
1
 20
1
  9
$SNAPBASE
 10
0
 20
0
  9
$GRIDMODE
 70
0
  9
$GRIDUNIT
 10
0
 20
0
  9
$LTSCALE
 40
4.61250000E+00
  9
$TEXTSIZE
 40
3.2
  9
$DIMTAD
 70
0
  9
$LUNITS
 70
2
  9
$LUPREC
 70
4
  9
$FILLETRAD
 40
0
  9
$AUNITS
 70
0
  9
$AUPREC
 70
0
  0
ENDSEC
  0
SECTION
  2
TABLES
  0
TABLE
  2
LTYPE
 70
2
  0
LTYPE
  2
CONTINUOUS
 70
64
  3
Solid-Line
 72
65
 73
0
 40
0
  0
LTYPE
  2
DASHED
 70
64
  3
DASHED
 72
65
 73
2
 40
.75
 49
.5
 49
-.25
  0
LTYPE
  2
HIDDEN
 70
64
  3
HIDDEN
 72
65
 73
2
 40
.375
 49
.25
 49
-.125
  0
LTYPE
  2
CENTER
 70
64
  3
CENTER
 72
65
 73
4
 40
2
 49
1.25
 49
-.25
 49
.25
 49
-.25
  0
LTYPE
  2
PHANTOM
 70
64
  3
PHANTOM
 72
65
 73
6
 40
2.5
 49
1.25
 49
-.25
 49
.25
 49
-.25
 49
.25
 49
-.25
  0
ENDTAB
  0
TABLE
  2
LAYER
 70
1
  0
LAYER
  2
1
 70
0
 62
7
  6
CONTINUOUS
 0
ENDTAB
  0
TABLE
  2
STYLE
 70
2
  0
STYLE
  2
MONOTXT
 70
0
 40
0
 41
1
 50
0
 71
0
 42
.2
  3
monotxt
  0
STYLE
  2
BIGFONT
 70
0
 40
0
 41
1
 50
0
 71
0
 42
.2
  3
txt
  4
bigfont
  0
ENDTAB
  0
ENDSEC
  0
SECTION
  2
ENTITIES
  0
LINE
  8
0
 62
4
 10
-2.78347958E+01
 20
-3.35521510E+01
 11
-1.39402693E+01
 21
-3.60021302E+01
  0
LINE
  8
0
 62
4
 10
-2.70945871E+01
 20
-6.02171458E+01
 11
-1.32050252E+01
 21
-5.77680421E+01
  0
ARC
  8
0
 62
4
 10
-2.63999939E+01
 20
-2.54436188E+01
 40
4.00000143E+00
 50
1.80047260E+02
 51
2.60000020E+02
  0
ARC
  8
0
 62
4
 10
-2.63999939E+01
 20
-6.41563873E+01
 40
4.00000763E+00
 50
9.99999798E+01
 51
1.79887239E+02
  0
ARC
  8
0
 62
4
 10
-1.93999939E+01
 20
-4.48000031E+01
 40
1.50000000E+01
 50
3.13357550E+02
 51
3.30073513E+02
  0
ARC
  8
0
 62
4
 10
-2.63999939E+01
 20
-2.54436188E+01
 40
8.23449993E+00
 50
2.40937645E+02
 51
2.60000020E+02
  0
ARC
  8
0
 62
4
 10
-2.63999939E+01
 20
-6.41563873E+01
 40
8.23449993E+00
 50
9.99999798E+01
 51
1.19062355E+02
  0
ARC
  8
0
 62
4
 10
-1.93999939E+01
 20
-4.48000031E+01
 40
1.07655001E+01
 50
3.13357608E+02
 51
3.24510470E+02
  0
ARC
  8
0
 62
4
 10
-1.45941467E+01
 20
-4.98895874E+01
 40
3.76550007E+00
 50
2.80000071E+02
 51
3.13357605E+02
  0
ARC
  8
0
 62
4
 10
-1.93999939E+01
 20
-4.48000031E+01
 40
1.07655001E+01
 50
3.54895297E+01
 51
4.66423954E+01
  0
ARC
  8
0
 62
4
 10
-1.45941467E+01
 20
-3.97104187E+01
 40
3.76550007E+00
 50
4.66423988E+01
 51
7.99999839E+01
  0
ARC
  8
0
 62
4
 10
-1.45941467E+01
 20
-4.98895874E+01
 40
8.00000000E+00
 50
2.80000071E+02
 51
3.13357605E+02
  0
ARC
  8
0
 62
4
 10
-1.45941467E+01
 20
-3.97104187E+01
 40
8.00000000E+00
 50
4.66423988E+01
 51
7.99999839E+01
  0
ARC
  8
0
 62
4
 10
-1.93999939E+01
 20
-4.48000031E+01
 40
1.50000000E+01
 50
2.99264329E+01
 51
4.66423954E+01
  0
ARC
  8
0
 62
4
 10
-3.23999939E+01
 20
-2.53000031E+01
 40
2.00000000E+00
 50
0.00000000E+00
 51
8.99999818E+01
  0
ARC
  8
0
 62
4
 10
-3.23999939E+01
 20
-6.43000031E+01
 40
2.00000000E+00
 50
2.70000018E+02
 51
0.00000000E+00
  0
CIRCLE
  8
0
 62
4
 10
-1.93999939E+01
 20
-4.48000031E+01
 40
6.00000000E+00
  0
LINE
  8
0
 62
4
 10
-3.08999634E+01
 20
-3.43000031E+01
 11
-3.03999939E+01
 21
-3.43000031E+01
  0
LINE
  8
0
 62
4
 10
-3.08999634E+01
 20
-5.53000031E+01
 11
-3.03999939E+01
 21
-5.53000031E+01
  0
LINE
  8
0
 62
4
 10
-1.06344910E+01
 20
-3.85500488E+01
 11
-1.06344910E+01
 21
-5.10499573E+01
  0
LINE
  8
0
 62
4
 10
-3.08999634E+01
 20
-2.39771652E+01
 11
-3.08999634E+01
 21
-3.43000031E+01
  0
LINE
  8
0
 62
4
 10
-3.08999634E+01
 20
-6.56228409E+01
 11
-3.08999634E+01
 21
-5.53000031E+01
  0
LINE
  8
0
 62
4
 10
-2.78299518E+01
 20
-5.60469816E+01
 11
-1.39403391E+01
 21
-5.35978688E+01
  0
LINE
  8
0
 62
4
 10
-6.39999391E+00
 20
-3.73166962E+01
 11
-6.39999391E+00
 21
-5.22833099E+01
  0
LINE
  8
0
 62
4
 10
-3.23999939E+01
 20
-2.33000031E+01
 11
-3.83999939E+01
 21
-2.33000031E+01
  0
LINE
  8
0
 62
4
 10
-3.03999939E+01
 20
-2.53000031E+01
 11
-3.03999939E+01
 21
-6.43000031E+01
  0
LINE
  8
0
 62
4
 10
-3.83999939E+01
 20
-6.63000031E+01
 11
-3.23999939E+01
 21
-6.63000031E+01
  0
LINE
  8
0
  6
CENTER
 62
6
 10
-1.93999939E+01
 20
-3.68516998E+01
 11
-1.93999939E+01
 21
-5.28729477E+01
  0
LINE
  8
0
 62
4
 10
-2.70945920E+01
 20
-2.93828478E+01
 11
-1.32049869E+01
 21
-3.18319592E+01
  0
LINE
  8
0
  6
CENTER
 62
6
 10
-4.05799484E+01
 20
-6.13000031E+01
 11
-2.88591385E+01
 21
-6.13000031E+01
  0
LINE
  8
0
  6
CENTER
 62
6
 10
-4.18760529E+01
 20
-4.48000031E+01
 11
-4.07604982E+00
 21
-4.48000031E+01
  0
LINE
  8
0
  6
CENTER
 62
6
 10
-4.05799484E+01
 20
-2.83000031E+01
 11
-2.88591385E+01
 21
-2.83000031E+01
  0
LINE
  8
0
 62
4
 10
-3.83999939E+01
 20
-6.63000031E+01
 11
-3.83999939E+01
 21
-2.33000031E+01
  0
LINE
  8
0
 62
4
 10
3.96000061E+01
 20
-5.08000031E+01
 11
3.86000061E+01
 21
-4.98000031E+01
  0
LINE
  8
0
 62
4
 10
8.46000061E+01
 20
-4.98000031E+01
 11
8.36000061E+01
 21
-5.08000031E+01
  0
LINE
  8
0
 62
4
 10
8.46000061E+01
 20
-3.98000031E+01
 11
8.36000061E+01
 21
-3.88000031E+01
  0
LINE
  8
0
 62
4
 10
3.96000061E+01
 20
-3.88000031E+01
 11
3.86000061E+01
 21
-3.98000031E+01
  0
LINE
  8
0
 62
4
 10
8.36000061E+01
 20
-5.08000031E+01
 11
8.36000061E+01
 21
-3.88000031E+01
  0
LINE
  8
0
 62
4
 10
3.96000061E+01
 20
-3.88000031E+01
 11
3.96000061E+01
 21
-5.08000031E+01
  0
LINE
  8
0
 62
4
 10
6.96000051E+01
 20
-3.88000031E+01
 11
5.36000061E+01
 21
-3.88000031E+01
  0
LINE
  8
0
 62
4
 10
6.96000051E+01
 20
-5.08000031E+01
 11
5.36000061E+01
 21
-5.08000031E+01
  0
LINE
  8
0
 62
4
 10
4.51000061E+01
 20
-5.08000031E+01
 11
3.96000061E+01
 21
-5.08000031E+01
  0
LINE
  8
0
 62
4
 10
4.51000061E+01
 20
-3.88000031E+01
 11
3.96000061E+01
 21
-3.88000031E+01
  0
LINE
  8
0
 62
4
 10
8.31000055E+01
 20
-3.88000031E+01
 11
8.31000055E+01
 21
-2.83000031E+01
  0
LINE
  8
0
 62
4
 10
4.01000061E+01
 20
-3.88000031E+01
 11
4.01000061E+01
 21
-2.83000031E+01
  0
LINE
  8
0
 62
4
 10
8.46000061E+01
 20
-4.98000031E+01
 11
8.46000061E+01
 21
-3.98000031E+01
  0
LINE
  8
0
 62
4
 10
3.86000061E+01
 20
-3.98000031E+01
 11
3.86000061E+01
 21
-4.98000031E+01
  0
LINE
  8
0
 62
4
 10
8.36000061E+01
 20
-5.08000031E+01
 11
7.81000056E+01
 21
-5.08000031E+01
  0
LINE
  8
0
 62
4
 10
8.36000061E+01
 20
-3.88000031E+01
 11
7.81000056E+01
 21
-3.88000031E+01
  0
CIRCLE
  8
0
 62
4
 10
4.51000061E+01
 20
-2.83000031E+01
 40
2.75000000E+00
  0
CIRCLE
  8
0
 62
4
 10
7.81000056E+01
 20
-2.83000031E+01
 40
2.75000000E+00
  0
CIRCLE
  8
0
 62
4
 10
7.81000056E+01
 20
-6.13000031E+01
 40
2.75000000E+00
  0
ARC
  8
0
 62
4
 10
4.51000061E+01
 20
-6.13000031E+01
 40
5.00000000E+00
 50
1.79999995E+02
 51
2.69999998E+02
  0
ARC
  8
0
 62
4
 10
4.51000061E+01
 20
-2.83000031E+01
 40
5.00000000E+00
 50
9.00000025E+01
 51
1.80000005E+02
  0
ARC
  8
0
 62
4
 10
7.81000056E+01
 20
-2.83000031E+01
 40
5.00000000E+00
 50
0.00000000E+00
 51
9.00000025E+01
  0
ARC
  8
0
 62
4
 10
7.81000056E+01
 20
-6.13000031E+01
 40
5.00000000E+00
 50
2.69999998E+02
 51
0.00000000E+00
  0
CIRCLE
  8
0
 62
4
 10
4.51000061E+01
 20
-6.13000031E+01
 40
2.75000000E+00
  0
ARC
  8
0
 62
4
 10
7.81000056E+01
 20
-2.83000031E+01
 40
6.00000000E+00
 50
1.80000036E+02
 51
2.70000073E+02
  0
ARC
  8
0
 62
4
 10
7.81000056E+01
 20
-2.83000031E+01
 40
6.35824299E+00
 50
1.99324991E+02
 51
2.70000018E+02
  0
ARC
  8
0
 62
4
 10
4.51000061E+01
 20
-2.83000031E+01
 40
6.35824299E+00
 50
2.70000018E+02
 51
3.40675011E+02
  0
ARC
  8
0
 62
4
 10
4.51000061E+01
 20
-2.83000031E+01
 40
6.00000000E+00
 50
2.69999963E+02
 51
3.59999964E+02
  0
ARC
  8
0
 62
4
 10
7.81000056E+01
 20
-6.13000031E+01
 40
6.00000000E+00
 50
8.99999274E+01
 51
1.79999964E+02
  0
ARC
  8
0
 62
4
 10
7.81000056E+01
 20
-6.13000031E+01
 40
6.35824299E+00
 50
8.99999818E+01
 51
1.60675009E+02
  0
ARC
  8
0
 62
4
 10
4.51000061E+01
 20
-6.13000031E+01
 40
6.35824299E+00
 50
1.93249889E+01
 51
8.99999818E+01
  0
ARC
  8
0
 62
4
 10
4.51000061E+01
 20
-6.13000031E+01
 40
6.00000000E+00
 50
3.59721781E-05
 51
9.00000369E+01
  0
LINE
  8
0
 62
4
 10
8.31000055E+01
 20
-6.13000031E+01
 11
8.31000055E+01
 21
-5.08000031E+01
  0
LINE
  8
0
 62
4
 10
4.01000061E+01
 20
-5.53000031E+01
 11
4.51000061E+01
 21
-5.53000031E+01
  0
LINE
  8
0
 62
4
 10
5.11000061E+01
 20
-6.63000031E+01
 11
5.11000061E+01
 21
-6.13000031E+01
  0
LINE
  8
0
 62
4
 10
7.81000056E+01
 20
-5.53000031E+01
 11
8.31000055E+01
 21
-5.53000031E+01
  0
LINE
  8
0
 62
4
 10
7.21000051E+01
 20
-6.13000031E+01
 11
7.21000051E+01
 21
-6.63000031E+01
  0
LINE
  8
0
 62
4
 10
7.21000662E+01
 20
-5.91958924E+01
 11
5.11000061E+01
 21
-5.91958924E+01
  0
LINE
  8
0
 62
4
 10
7.81000056E+01
 20
-6.63000031E+01
 11
4.51000061E+01
 21
-6.63000031E+01
  0
LINE
  8
0
 62
4
 10
4.51000061E+01
 20
-3.43000031E+01
 11
4.01000061E+01
 21
-3.43000031E+01
  0
LINE
  8
0
 62
4
 10
5.11000061E+01
 20
-2.83000031E+01
 11
5.11000061E+01
 21
-2.33000031E+01
  0
LINE
  8
0
 62
4
 10
4.01000061E+01
 20
-6.13000031E+01
 11
4.01000061E+01
 21
-5.08000031E+01
  0
LINE
  8
0
 62
4
 10
5.36000061E+01
 20
-3.04040985E+01
 11
5.36000061E+01
 21
-5.91958924E+01
  0
LINE
  8
0
 62
4
 10
7.16000051E+01
 20
-5.91958924E+01
 11
7.16000051E+01
 21
-3.04040985E+01
  0
LINE
  8
0
  6
CENTER
 62
6
 10
8.59990532E+01
 20
-4.48000031E+01
 11
3.66401672E+01
 21
-4.48000031E+01
  0
LINE
  8
0
  6
CENTER
 62
6
 10
7.42638416E+01
 20
-2.83000031E+01
 11
8.18552406E+01
 21
-2.83000031E+01
  0
LINE
  8
0
  6
CENTER
 62
6
 10
7.45758162E+01
 20
-6.13000031E+01
 11
8.19592324E+01
 21
-6.13000031E+01
  0
LINE
  8
0
  6
CENTER
 62
6
 10
6.16000061E+01
 20
-2.04699555E+01
 11
6.16000061E+01
 21
-6.96670990E+01
  0
LINE
  8
0
 62
4
 10
5.16000061E+01
 20
-3.04040985E+01
 11
5.16000061E+01
 21
-5.91958924E+01
  0
LINE
  8
0
 62
4
 10
7.81000056E+01
 20
-5.49417572E+01
 11
7.81000056E+01
 21
-3.46582489E+01
  0
LINE
  8
0
 62
4
 10
4.51000061E+01
 20
-3.46582489E+01
 11
4.51000061E+01
 21
-5.49417572E+01
  0
LINE
  8
0
 62
4
 10
5.11000061E+01
 20
-3.04040985E+01
 11
7.21000662E+01
 21
-3.04040985E+01
  0
LINE
  8
0
 62
4
 10
8.31000055E+01
 20
-3.43000031E+01
 11
7.81000056E+01
 21
-3.43000031E+01
  0
LINE
  8
0
 62
4
 10
7.21000051E+01
 20
-2.33000031E+01
 11
7.21000051E+01
 21
-2.83000031E+01
  0
LINE
  8
0
 62
4
 10
6.96000051E+01
 20
-5.91958924E+01
 11
6.96000051E+01
 21
-3.04040985E+01
  0
LINE
  8
0
 62
4
 10
4.51000061E+01
 20
-2.33000031E+01
 11
7.81000056E+01
 21
-2.33000031E+01
  0
LINE
  8
0
  6
CENTER
 62
6
 10
4.51000061E+01
 20
-3.27571259E+01
 11
4.51000061E+01
 21
-2.42297974E+01
  0
LINE
  8
0
  6
CENTER
 62
6
 10
7.81000056E+01
 20
-6.50985642E+01
 11
7.81000056E+01
 21
-5.75071640E+01
  0
LINE
  8
0
  6
CENTER
 62
6
 10
4.51000061E+01
 20
-6.48905793E+01
 11
4.51000061E+01
 21
-5.71951905E+01
  0
LINE
  8
0
  6
CENTER
 62
6
 10
4.09864731E+01
 20
-2.83000031E+01
 11
4.87858582E+01
 21
-2.83000031E+01
  0
LINE
  8
0
  6
CENTER
 62
6
 10
4.15064316E+01
 20
-6.13000031E+01
 11
4.90978317E+01
 21
-6.13000031E+01
  0
LINE
  8
0
  6
CENTER
 62
6
 10
7.81000056E+01
 20
-3.23411560E+01
 11
7.81000056E+01
 21
-2.44377823E+01
  0
LINE
  8
0
 62
4
 10
-6.39999390E+00
 20
3.51999969E+01
 11
-3.03999939E+01
 21
3.51999969E+01
  0
LINE
  8
0
 62
4
 10
-6.39999390E+00
 20
3.71999969E+01
 11
-6.39999390E+00
 21
3.51999969E+01
  0
LINE
  8
0
 62
4
 10
-8.89999390E+00
 20
3.08698699E+01
 11
-8.89999390E+00
 21
2.86999969E+01
  0
ARC
  8
0
 62
4
 10
-3.89999390E+00
 20
3.08698699E+01
 40
5.00000000E+00
 50
1.20000000E+02
 51
1.80000000E+02
  0
ARC
  8
0
 62
4
 10
-3.89999390E+00
 20
5.95301240E+01
 40
5.00000000E+00
 50
1.80000000E+02
 51
2.40000000E+02
  0
LINE
  8
0
 62
4
 10
-2.43999939E+01
 20
2.21999969E+01
 11
-2.53999939E+01
 21
2.31999969E+01
  0
LINE
  8
0
 62
4
 10
-1.33999939E+01
 20
2.31999969E+01
 11
-1.43999939E+01
 21
2.21999969E+01
  0
LINE
  8
0
 62
4
 10
-2.53999939E+01
 20
6.71999969E+01
 11
-2.43999939E+01
 21
6.81999969E+01
  0
LINE
  8
0
 62
4
 10
-1.33999939E+01
 20
6.71999969E+01
 11
-1.43999939E+01
 21
6.81999969E+01
  0
LINE
  8
0
 62
4
 10
-2.53999939E+01
 20
2.31999969E+01
 11
-1.33999939E+01
 21
2.31999969E+01
  0
LINE
  8
0
 62
4
 10
-1.33999939E+01
 20
6.71999969E+01
 11
-2.53999939E+01
 21
6.71999969E+01
  0
LINE
  8
0
 62
4
 10
-1.33999939E+01
 20
3.71999969E+01
 11
-1.33999939E+01
 21
5.31999969E+01
  0
LINE
  8
0
 62
4
 10
-2.53999939E+01
 20
3.71999969E+01
 11
-2.53999939E+01
 21
5.31999969E+01
  0
LINE
  8
0
 62
4
 10
-1.33999939E+01
 20
6.16999969E+01
 11
-1.33999939E+01
 21
6.71999969E+01
  0
LINE
  8
0
 62
4
 10
-2.53999939E+01
 20
6.16999969E+01
 11
-2.53999939E+01
 21
6.71999969E+01
  0
LINE
  8
0
 62
4
 10
-2.43999939E+01
 20
2.21999969E+01
 11
-1.43999939E+01
 21
2.21999969E+01
  0
LINE
  8
0
 62
4
 10
-1.43999939E+01
 20
6.81999969E+01
 11
-2.43999939E+01
 21
6.81999969E+01
  0
LINE
  8
0
 62
4
 10
-2.53999939E+01
 20
2.31999969E+01
 11
-2.53999939E+01
 21
2.86999969E+01
  0
LINE
  8
0
 62
4
 10
-1.33999939E+01
 20
2.31999969E+01
 11
-1.33999939E+01
 21
2.86999969E+01
  0
ARC
  8
0
 62
4
 10
-3.23999939E+01
 20
6.46999664E+01
 40
2.00000000E+00
 50
1.79860890E-05
 51
8.99999818E+01
  0
ARC
  8
0
 62
4
 10
-3.23999939E+01
 20
2.56999969E+01
 40
2.00000000E+00
 50
2.70000018E+02
 51
6.83245181E-07
  0
LINE
  8
0
 62
4
 10
-3.03999967E+01
 20
3.61999706E+01
 11
-2.83999788E+01
 21
3.71999794E+01
  0
LINE
  8
0
 62
4
 10
-3.08999634E+01
 20
5.56999969E+01
 11
-3.03999939E+01
 21
5.56999969E+01
  0
LINE
  8
0
 62
4
 10
-3.08999634E+01
 20
3.46999969E+01
 11
-3.03999939E+01
 21
3.46999969E+01
  0
LINE
  8
0
 62
4
 10
-3.83999939E+01
 20
2.37000275E+01
 11
-3.23999939E+01
 21
2.37000275E+01
  0
LINE
  8
0
 62
4
 10
-3.08999634E+01
 20
6.60228119E+01
 11
-3.08999634E+01
 21
5.56999969E+01
  0
LINE
  8
0
 62
4
 10
-3.08999634E+01
 20
2.43771515E+01
 11
-3.08999634E+01
 21
3.46999969E+01
  0
LINE
  8
0
  6
CENTER
 62
6
 10
-1.93999939E+01
 20
6.95701141E+01
 11
-1.93999939E+01
 21
1.99424286E+01
  0
LINE
  8
0
  6
CENTER
 62
6
 10
-4.06580429E+01
 20
2.87000275E+01
 11
-2.86429596E+01
 21
2.87000275E+01
  0
LINE
  8
0
  6
CENTER
 62
6
 10
-4.11055222E+01
 20
6.16999969E+01
 11
-2.87736130E+01
 21
6.16999969E+01
  0
LINE
  8
0
 62
4
 10
-3.83999939E+01
 20
2.37000275E+01
 11
-3.83999939E+01
 21
6.66999969E+01
  0
LINE
  8
0
 62
4
 10
-8.89999390E+00
 20
6.16999969E+01
 11
-3.03999939E+01
 21
6.16999969E+01
  0
LINE
  8
0
 62
4
 10
-2.83999939E+01
 20
3.71999969E+01
 11
-6.39999390E+00
 21
3.71999969E+01
  0
LINE
  8
0
 62
4
 10
-2.83999991E+01
 20
5.31999607E+01
 11
-3.03999997E+01
 21
5.41999611E+01
  0
LINE
  8
0
 62
4
 10
-3.03999939E+01
 20
2.56999969E+01
 11
-3.03999939E+01
 21
6.46999664E+01
  0
LINE
  8
0
 62
4
 10
-3.03999939E+01
 20
2.86999969E+01
 11
-8.89999390E+00
 21
2.86999969E+01
  0
LINE
  8
0
 62
4
 10
-6.39999390E+00
 20
5.31999969E+01
 11
-2.83999939E+01
 21
5.31999969E+01
  0
LINE
  8
0
 62
4
 10
-3.23999939E+01
 20
6.66999969E+01
 11
-3.83999939E+01
 21
6.66999969E+01
  0
LINE
  8
0
 62
4
 10
-8.89999390E+00
 20
5.95301240E+01
 11
-8.89999390E+00
 21
6.16999969E+01
  0
LINE
  8
0
 62
4
 10
-6.39999390E+00
 20
5.31999969E+01
 11
-6.39999390E+00
 21
5.51999969E+01
  0
LINE
  8
0
 62
4
 10
-6.39999390E+00
 20
5.51999969E+01
 11
-3.03999939E+01
 21
5.51999969E+01
  0
LINE
  8
0
  6
CENTER
 62
6
 10
-4.31937408E+01
 20
4.51999969E+01
 11
2.58453369E+00
 21
4.51999969E+01
  0
LINE
  8
0
 62
7
 10
7.33500061E+01
 20
-8.48000031E+01
 11
1.38350006E+02
 21
-8.48000031E+01
  0
LINE
  8
0
 62
7
 10
7.33500061E+01
 20
-8.48000031E+01
 11
7.33500061E+01
 21
-9.48000031E+01
  0
TEXT
  8
0
 62
7
 10
7.72426624E+01
 20
-9.20500031E+01
 40
4.50000000E+00
  1
KOGANEI CORP.
 41
1.04838710E+00
  7
MONOTXT
  0
LINE
  8
0
 62
7
 10
7.33500061E+01
 20
9.45000000E+01
 11
7.33500061E+01
 21
8.45000000E+01
  0
TEXT
  8
0
 62
7
 10
9.35071493E+01
 20
8.79000001E+01
 40
3.19999981E+00
  1
Ver. 1.0
 41
1.08108108E+00
  7
MONOTXT
  0
LINE
  8
0
 62
7
 10
7.33500061E+01
 20
8.45000000E+01
 11
1.38350006E+02
 21
8.45000000E+01
  0
TEXT
  8
0
 62
7
 10
-1.32642850E+02
 20
8.79000001E+01
 40
3.19999981E+00
  1
NEW DYNA CYLINDER
 41
1.07594937E+00
  7
MONOTXT
  0
LINE
  8
0
 62
7
 10
-1.38399994E+02
 20
8.45000000E+01
 11
-7.33999939E+01
 21
8.45000000E+01
  0
LINE
  8
0
 62
7
 10
-7.33999939E+01
 20
9.45000000E+01
 11
-7.33999939E+01
 21
8.45000000E+01
  0
TEXT
  8
0
 62
7
 10
-1.29085994E+02
 20
7.29000001E+01
 40
3.19999981E+00
  1
MODEL:DDA32-7
 41
1.00000000E+00
  7
MONOTXT
  0
LINE
  8
0
 62
7
 10
-1.38399994E+02
 20
9.45000000E+01
 11
1.38350006E+02
 21
9.45000000E+01
  0
LINE
  8
0
 62
7
 10
1.38350006E+02
 20
9.45000000E+01
 11
1.38350006E+02
 21
-9.48000031E+01
  0
LINE
  8
0
 62
7
 10
-1.38399994E+02
 20
-9.48000031E+01
 11
1.38350006E+02
 21
-9.48000031E+01
  0
LINE
  8
0
 62
7
 10
-1.38399994E+02
 20
9.45000000E+01
 11
-1.38399994E+02
 21
-9.48000031E+01
  0
ENDSEC
  0
EOF
