  0
SECTION
  2
HEADER
  9
$ACADVER
  1
AC1003
  9
$EXTMIN
 10
-1.38399994E+02
 20
-9.48000031E+01
  9
$EXTMAX
 10
1.38350006E+02
 20
9.45000000E+01
  9
$LIMMIN
 10
-1.38400994E+02
 20
-9.48010031E+01
  9
$LIMMAX
 10
1.38351006E+02
 20
9.45010000E+01
  9
$SNAPUNIT
 10
1
 20
1
  9
$SNAPBASE
 10
0
 20
0
  9
$GRIDMODE
 70
0
  9
$GRIDUNIT
 10
0
 20
0
  9
$LTSCALE
 40
4.61250000E+00
  9
$TEXTSIZE
 40
3.2
  9
$DIMTAD
 70
0
  9
$LUNITS
 70
2
  9
$LUPREC
 70
4
  9
$FILLETRAD
 40
0
  9
$AUNITS
 70
0
  9
$AUPREC
 70
0
  0
ENDSEC
  0
SECTION
  2
TABLES
  0
TABLE
  2
LTYPE
 70
2
  0
LTYPE
  2
CONTINUOUS
 70
64
  3
Solid-Line
 72
65
 73
0
 40
0
  0
LTYPE
  2
DASHED
 70
64
  3
DASHED
 72
65
 73
2
 40
.75
 49
.5
 49
-.25
  0
LTYPE
  2
HIDDEN
 70
64
  3
HIDDEN
 72
65
 73
2
 40
.375
 49
.25
 49
-.125
  0
LTYPE
  2
CENTER
 70
64
  3
CENTER
 72
65
 73
4
 40
2
 49
1.25
 49
-.25
 49
.25
 49
-.25
  0
LTYPE
  2
PHANTOM
 70
64
  3
PHANTOM
 72
65
 73
6
 40
2.5
 49
1.25
 49
-.25
 49
.25
 49
-.25
 49
.25
 49
-.25
  0
ENDTAB
  0
TABLE
  2
LAYER
 70
1
  0
LAYER
  2
1
 70
0
 62
7
  6
CONTINUOUS
 0
ENDTAB
  0
TABLE
  2
STYLE
 70
2
  0
STYLE
  2
MONOTXT
 70
0
 40
0
 41
1
 50
0
 71
0
 42
.2
  3
monotxt
  0
STYLE
  2
BIGFONT
 70
0
 40
0
 41
1
 50
0
 71
0
 42
.2
  3
txt
  4
bigfont
  0
ENDTAB
  0
ENDSEC
  0
SECTION
  2
ENTITIES
  0
LINE
  8
0
 62
4
 10
-3.66279773E+00
 20
-6.22285897E+01
 11
-4.63999939E+01
 21
-2.96258829E+01
  0
LINE
  8
0
 62
4
 10
-3.40003156E+00
 20
-6.97999589E+01
 11
-2.90003483E+00
 21
-6.92999545E+01
  0
LINE
  8
0
 62
4
 10
-6.58999993E+01
 20
-6.92999851E+01
 11
-6.53999863E+01
 21
-6.97999947E+01
  0
LINE
  8
0
 62
4
 10
-6.58999939E+01
 20
-6.38000031E+01
 11
-6.58999939E+01
 21
-6.93000031E+01
  0
LINE
  8
0
 62
4
 10
-2.89999391E+00
 20
-6.38000031E+01
 11
-2.89999391E+00
 21
-6.92999878E+01
  0
LINE
  8
0
  6
CENTER
 62
6
 10
-5.43999939E+01
 20
-5.77455750E+01
 11
-5.43999939E+01
 21
-7.30994415E+01
  0
LINE
  8
0
  6
CENTER
 62
6
 10
-1.43999939E+01
 20
-5.85608368E+01
 11
-1.43999939E+01
 21
-7.27597504E+01
  0
LINE
  8
0
 62
4
 10
-4.89999391E+00
 20
-6.18000031E+01
 11
-6.38999939E+01
 21
-6.18000031E+01
  0
LINE
  8
0
 62
4
 10
-3.39999391E+00
 20
-6.98000031E+01
 11
-6.53999939E+01
 21
-6.98000031E+01
  0
ARC
  8
0
 62
4
 10
-6.58999939E+01
 20
-5.70917969E+01
 40
5.00000000E+00
 50
2.86601531E+02
 51
3.44026544E+02
  0
ARC
  8
0
 62
4
 10
-4.89999391E+00
 20
-6.38000031E+01
 40
2.00000000E+00
 50
0.00000000E+00
 51
8.99999818E+01
  0
ARC
  8
0
 62
4
 10
-6.38999939E+01
 20
-6.38000031E+01
 40
2.00000000E+00
 50
8.99999818E+01
 51
1.79999964E+02
  0
ARC
  8
0
 62
4
 10
-7.30219116E+01
 20
-5.50531845E+01
 40
1.24079590E+01
 50
3.44026544E+02
 51
2.75104283E+01
  0
LINE
  8
0
 62
4
 10
-6.78347958E+01
 20
-2.35521510E+01
 11
-5.39402693E+01
 21
-2.60021302E+01
  0
LINE
  8
0
 62
4
 10
-6.70945871E+01
 20
-5.02171458E+01
 11
-5.32050252E+01
 21
-4.77680421E+01
  0
ARC
  8
0
 62
4
 10
-6.63999939E+01
 20
-1.54436188E+01
 40
4.00000143E+00
 50
1.80047260E+02
 51
2.60000020E+02
  0
ARC
  8
0
 62
4
 10
-6.63999939E+01
 20
-5.41563873E+01
 40
4.00000763E+00
 50
9.99999798E+01
 51
1.79887239E+02
  0
ARC
  8
0
 62
4
 10
-5.93999939E+01
 20
-3.48000031E+01
 40
1.50000000E+01
 50
3.13357550E+02
 51
3.30073513E+02
  0
ARC
  8
0
 62
4
 10
-6.63999939E+01
 20
-1.54436188E+01
 40
8.23449993E+00
 50
2.40937645E+02
 51
2.60000020E+02
  0
ARC
  8
0
 62
4
 10
-6.63999939E+01
 20
-5.41563873E+01
 40
8.23449993E+00
 50
9.99999798E+01
 51
1.19062355E+02
  0
ARC
  8
0
 62
4
 10
-5.93999939E+01
 20
-3.48000031E+01
 40
1.07655001E+01
 50
3.13357608E+02
 51
3.24510470E+02
  0
ARC
  8
0
 62
4
 10
-5.45941467E+01
 20
-3.98895874E+01
 40
3.76550007E+00
 50
2.80000071E+02
 51
3.13357605E+02
  0
ARC
  8
0
 62
4
 10
-5.93999939E+01
 20
-3.48000031E+01
 40
1.07655001E+01
 50
3.54895297E+01
 51
4.66423954E+01
  0
ARC
  8
0
 62
4
 10
-5.45941467E+01
 20
-2.97104187E+01
 40
3.76550007E+00
 50
4.66423988E+01
 51
7.99999839E+01
  0
ARC
  8
0
 62
4
 10
-5.45941467E+01
 20
-3.98895874E+01
 40
8.00000000E+00
 50
2.80000071E+02
 51
3.13357605E+02
  0
ARC
  8
0
 62
4
 10
-5.45941467E+01
 20
-2.97104187E+01
 40
8.00000000E+00
 50
4.66423988E+01
 51
7.99999839E+01
  0
ARC
  8
0
 62
4
 10
-5.93999939E+01
 20
-3.48000031E+01
 40
1.50000000E+01
 50
2.99264329E+01
 51
4.66423954E+01
  0
ARC
  8
0
 62
4
 10
-7.23999939E+01
 20
-1.53000031E+01
 40
2.00000000E+00
 50
0.00000000E+00
 51
8.99999818E+01
  0
ARC
  8
0
 62
4
 10
-7.23999939E+01
 20
-5.43000031E+01
 40
2.00000000E+00
 50
2.70000018E+02
 51
0.00000000E+00
  0
CIRCLE
  8
0
 62
4
 10
-5.93999939E+01
 20
-3.48000031E+01
 40
6.00000000E+00
  0
LINE
  8
0
 62
4
 10
-7.08999634E+01
 20
-2.43000031E+01
 11
-7.03999939E+01
 21
-2.43000031E+01
  0
LINE
  8
0
 62
4
 10
-7.08999634E+01
 20
-4.53000031E+01
 11
-7.03999939E+01
 21
-4.53000031E+01
  0
LINE
  8
0
 62
4
 10
-5.06344910E+01
 20
-2.85500488E+01
 11
-5.06344910E+01
 21
-4.10499573E+01
  0
LINE
  8
0
 62
4
 10
-7.08999634E+01
 20
-1.39771652E+01
 11
-7.08999634E+01
 21
-2.43000031E+01
  0
LINE
  8
0
 62
4
 10
-7.08999634E+01
 20
-5.56228409E+01
 11
-7.08999634E+01
 21
-4.53000031E+01
  0
LINE
  8
0
 62
4
 10
-6.78299518E+01
 20
-4.60469816E+01
 11
-5.39403391E+01
 21
-4.35978688E+01
  0
LINE
  8
0
 62
4
 10
-4.63999939E+01
 20
-2.73166962E+01
 11
-4.63999939E+01
 21
-4.22833099E+01
  0
LINE
  8
0
 62
4
 10
-7.23999939E+01
 20
-1.33000031E+01
 11
-7.83999939E+01
 21
-1.33000031E+01
  0
LINE
  8
0
 62
4
 10
-7.03999939E+01
 20
-1.53000031E+01
 11
-7.03999939E+01
 21
-5.43000031E+01
  0
LINE
  8
0
 62
4
 10
-7.83999939E+01
 20
-5.63000031E+01
 11
-7.23999939E+01
 21
-5.63000031E+01
  0
LINE
  8
0
  6
CENTER
 62
6
 10
-5.93999939E+01
 20
-2.68516998E+01
 11
-5.93999939E+01
 21
-4.28729477E+01
  0
LINE
  8
0
 62
4
 10
-6.70945920E+01
 20
-1.93828478E+01
 11
-5.32049869E+01
 21
-2.18319592E+01
  0
LINE
  8
0
  6
CENTER
 62
6
 10
-8.05799484E+01
 20
-5.13000031E+01
 11
-6.88591385E+01
 21
-5.13000031E+01
  0
LINE
  8
0
  6
CENTER
 62
6
 10
-8.18760529E+01
 20
-3.48000031E+01
 11
-4.40760498E+01
 21
-3.48000031E+01
  0
LINE
  8
0
  6
CENTER
 62
6
 10
-8.05799484E+01
 20
-1.83000031E+01
 11
-6.88591385E+01
 21
-1.83000031E+01
  0
LINE
  8
0
 62
4
 10
-7.83999939E+01
 20
-5.63000031E+01
 11
-7.83999939E+01
 21
-1.33000031E+01
  0
LINE
  8
0
 62
4
 10
5.41993482E+01
 20
-5.63000031E+01
 11
4.51000061E+01
 21
-5.63000031E+01
  0
LINE
  8
0
 62
4
 10
5.46000061E+01
 20
-4.91958924E+01
 11
5.11000061E+01
 21
-4.91958924E+01
  0
LINE
  8
0
 62
4
 10
5.36000061E+01
 20
-4.47779999E+01
 11
5.36000061E+01
 21
-2.30793610E+01
  0
LINE
  8
0
 62
4
 10
6.86000061E+01
 20
-5.38000031E+01
 11
6.86000061E+01
 21
-2.73717041E+01
  0
LINE
  8
0
 62
4
 10
4.66000061E+01
 20
-6.18000031E+01
 11
2.11000061E+01
 21
-6.18000031E+01
  0
LINE
  8
0
 62
4
 10
1.96000192E+01
 20
-6.98000058E+01
 11
1.91000079E+01
 21
-6.92999945E+01
  0
LINE
  8
0
  6
CENTER
 62
6
 10
2.91000061E+01
 20
-5.76059265E+01
 11
2.91000061E+01
 21
-7.36825562E+01
  0
LINE
  8
0
 62
4
 10
1.91000061E+01
 20
-6.38000031E+01
 11
1.91000061E+01
 21
-6.93000031E+01
  0
LINE
  8
0
 62
4
 10
7.66000061E+01
 20
-6.18000031E+01
 11
1.02100007E+02
 21
-6.18000031E+01
  0
LINE
  8
0
 62
4
 10
1.03600006E+02
 20
-6.98000311E+01
 11
1.04100019E+02
 21
-6.93000217E+01
  0
LINE
  8
0
  6
CENTER
 62
6
 10
9.41000066E+01
 20
-5.76059265E+01
 11
9.41000066E+01
 21
-7.36825562E+01
  0
LINE
  8
0
 62
4
 10
1.04100007E+02
 20
-6.38000031E+01
 11
1.04100007E+02
 21
-6.93000031E+01
  0
LINE
  8
0
 62
4
 10
1.96000061E+01
 20
-6.98000031E+01
 11
1.03600007E+02
 21
-6.98000031E+01
  0
LINE
  8
0
 62
4
 10
5.46000061E+01
 20
-5.38000031E+01
 11
5.46000061E+01
 21
-2.73717041E+01
  0
LINE
  8
0
 62
4
 10
6.96000061E+01
 20
-4.47779999E+01
 11
6.96000061E+01
 21
-2.30793610E+01
  0
LINE
  8
0
 62
4
 10
6.16000150E+01
 20
-2.28000464E+01
 11
5.36000089E+01
 21
-2.30794198E+01
  0
LINE
  8
0
 62
4
 10
6.16000075E+01
 20
-2.28000345E+01
 11
6.96000141E+01
 21
-2.30794003E+01
  0
ARC
  8
0
 62
4
 10
7.15907898E+01
 20
-2.76066437E+01
 40
3.00000000E+00
 50
1.31574688E+02
 51
1.75508446E+02
  0
ARC
  8
0
 62
4
 10
5.16092224E+01
 20
-2.76066437E+01
 40
3.00000000E+00
 50
0.00000000E+00
 51
4.84253377E+01
  0
ARC
  8
0
 62
4
 10
2.11000061E+01
 20
-6.38000031E+01
 40
2.00000000E+00
 50
8.99999274E+01
 51
1.79999964E+02
  0
ARC
  8
0
 62
4
 10
4.66000061E+01
 20
-5.38000031E+01
 40
8.00000000E+00
 50
2.69999963E+02
 51
3.59999945E+02
  0
ARC
  8
0
 62
4
 10
5.16000061E+01
 20
-4.70140686E+01
 40
3.00000000E+00
 50
0.00000000E+00
 51
4.81896825E+01
  0
ARC
  8
0
 62
4
 10
7.66000061E+01
 20
-5.38000031E+01
 40
8.00000000E+00
 50
1.79999964E+02
 51
2.69999946E+02
  0
ARC
  8
0
 62
4
 10
1.02100007E+02
 20
-6.38000031E+01
 40
2.00000000E+00
 50
3.59999945E+02
 51
8.99999818E+01
  0
ARC
  8
0
 62
4
 10
7.16000061E+01
 20
-4.70140686E+01
 40
3.00000000E+00
 50
1.31810302E+02
 51
1.79999964E+02
  0
LINE
  8
0
 62
4
 10
3.96000061E+01
 20
-4.08000031E+01
 11
3.86000061E+01
 21
-3.98000031E+01
  0
LINE
  8
0
 62
4
 10
8.46000061E+01
 20
-3.98000031E+01
 11
8.36000061E+01
 21
-4.08000031E+01
  0
LINE
  8
0
 62
4
 10
8.46000061E+01
 20
-2.98000031E+01
 11
8.36000061E+01
 21
-2.88000031E+01
  0
LINE
  8
0
 62
4
 10
3.96000061E+01
 20
-2.88000031E+01
 11
3.86000061E+01
 21
-2.98000031E+01
  0
LINE
  8
0
 62
4
 10
8.36000061E+01
 20
-4.08000031E+01
 11
8.36000061E+01
 21
-2.88000031E+01
  0
LINE
  8
0
 62
4
 10
3.96000061E+01
 20
-2.88000031E+01
 11
3.96000061E+01
 21
-4.08000031E+01
  0
LINE
  8
0
 62
4
 10
4.51000061E+01
 20
-4.08000031E+01
 11
3.96000061E+01
 21
-4.08000031E+01
  0
LINE
  8
0
 62
4
 10
4.51000061E+01
 20
-2.88000031E+01
 11
3.96000061E+01
 21
-2.88000031E+01
  0
LINE
  8
0
 62
4
 10
8.31000055E+01
 20
-2.88000031E+01
 11
8.31000055E+01
 21
-1.83000031E+01
  0
LINE
  8
0
 62
4
 10
4.01000061E+01
 20
-2.88000031E+01
 11
4.01000061E+01
 21
-1.83000031E+01
  0
LINE
  8
0
 62
4
 10
8.46000061E+01
 20
-3.98000031E+01
 11
8.46000061E+01
 21
-2.98000031E+01
  0
LINE
  8
0
 62
4
 10
3.86000061E+01
 20
-2.98000031E+01
 11
3.86000061E+01
 21
-3.98000031E+01
  0
LINE
  8
0
 62
4
 10
8.36000061E+01
 20
-4.08000031E+01
 11
7.81000056E+01
 21
-4.08000031E+01
  0
LINE
  8
0
 62
4
 10
8.36000061E+01
 20
-2.88000031E+01
 11
7.81000056E+01
 21
-2.88000031E+01
  0
CIRCLE
  8
0
 62
4
 10
4.51000061E+01
 20
-1.83000031E+01
 40
2.75000000E+00
  0
CIRCLE
  8
0
 62
4
 10
7.81000056E+01
 20
-1.83000031E+01
 40
2.75000000E+00
  0
CIRCLE
  8
0
 62
4
 10
7.81000056E+01
 20
-5.13000031E+01
 40
2.75000000E+00
  0
ARC
  8
0
 62
4
 10
4.51000061E+01
 20
-5.13000031E+01
 40
5.00000000E+00
 50
1.79999995E+02
 51
2.69999998E+02
  0
ARC
  8
0
 62
4
 10
4.51000061E+01
 20
-1.83000031E+01
 40
5.00000000E+00
 50
9.00000025E+01
 51
1.80000005E+02
  0
ARC
  8
0
 62
4
 10
7.81000056E+01
 20
-1.83000031E+01
 40
5.00000000E+00
 50
0.00000000E+00
 51
9.00000025E+01
  0
ARC
  8
0
 62
4
 10
7.81000056E+01
 20
-5.13000031E+01
 40
5.00000000E+00
 50
2.69999998E+02
 51
0.00000000E+00
  0
CIRCLE
  8
0
 62
4
 10
4.51000061E+01
 20
-5.13000031E+01
 40
2.75000000E+00
  0
ARC
  8
0
 62
4
 10
7.81000056E+01
 20
-1.83000031E+01
 40
6.00000000E+00
 50
1.80000036E+02
 51
2.70000073E+02
  0
ARC
  8
0
 62
4
 10
7.81000056E+01
 20
-1.83000031E+01
 40
6.35824299E+00
 50
1.99324991E+02
 51
2.70000018E+02
  0
ARC
  8
0
 62
4
 10
4.51000061E+01
 20
-1.83000031E+01
 40
6.35824299E+00
 50
2.70000018E+02
 51
3.40675011E+02
  0
ARC
  8
0
 62
4
 10
4.51000061E+01
 20
-1.83000031E+01
 40
6.00000000E+00
 50
2.69999963E+02
 51
3.59999964E+02
  0
ARC
  8
0
 62
4
 10
7.81000056E+01
 20
-5.13000031E+01
 40
6.00000000E+00
 50
8.99999274E+01
 51
1.79999964E+02
  0
ARC
  8
0
 62
4
 10
7.81000056E+01
 20
-5.13000031E+01
 40
6.35824299E+00
 50
8.99999818E+01
 51
1.60675009E+02
  0
ARC
  8
0
 62
4
 10
4.51000061E+01
 20
-5.13000031E+01
 40
6.35824299E+00
 50
1.93249889E+01
 51
8.99999818E+01
  0
ARC
  8
0
 62
4
 10
4.51000061E+01
 20
-5.13000031E+01
 40
6.00000000E+00
 50
3.59721781E-05
 51
9.00000369E+01
  0
LINE
  8
0
 62
4
 10
8.31000055E+01
 20
-5.13000031E+01
 11
8.31000055E+01
 21
-4.08000031E+01
  0
LINE
  8
0
 62
4
 10
4.01000061E+01
 20
-4.53000031E+01
 11
4.51000061E+01
 21
-4.53000031E+01
  0
LINE
  8
0
 62
4
 10
5.11000061E+01
 20
-5.63000031E+01
 11
5.11000061E+01
 21
-5.13000031E+01
  0
LINE
  8
0
 62
4
 10
7.81000056E+01
 20
-4.53000031E+01
 11
8.31000055E+01
 21
-4.53000031E+01
  0
LINE
  8
0
 62
4
 10
7.21000051E+01
 20
-5.13000031E+01
 11
7.21000051E+01
 21
-5.63000031E+01
  0
LINE
  8
0
 62
4
 10
7.21000662E+01
 20
-4.91958924E+01
 11
6.86000061E+01
 21
-4.91958924E+01
  0
LINE
  8
0
 62
4
 10
7.81000056E+01
 20
-5.63000031E+01
 11
6.90006640E+01
 21
-5.63000031E+01
  0
LINE
  8
0
 62
4
 10
4.51000061E+01
 20
-2.43000031E+01
 11
4.01000061E+01
 21
-2.43000031E+01
  0
LINE
  8
0
 62
4
 10
5.11000061E+01
 20
-1.83000031E+01
 11
5.11000061E+01
 21
-1.33000031E+01
  0
LINE
  8
0
 62
4
 10
4.01000061E+01
 20
-5.13000031E+01
 11
4.01000061E+01
 21
-4.08000031E+01
  0
LINE
  8
0
 62
4
 10
5.36000061E+01
 20
-2.04040985E+01
 11
5.36000061E+01
 21
-4.91958924E+01
  0
LINE
  8
0
 62
4
 10
7.16000051E+01
 20
-4.91958924E+01
 11
7.16000051E+01
 21
-2.04040985E+01
  0
LINE
  8
0
  6
CENTER
 62
6
 10
8.59990532E+01
 20
-3.48000031E+01
 11
3.66401672E+01
 21
-3.48000031E+01
  0
LINE
  8
0
  6
CENTER
 62
6
 10
7.42638416E+01
 20
-1.83000031E+01
 11
8.18552406E+01
 21
-1.83000031E+01
  0
LINE
  8
0
  6
CENTER
 62
6
 10
7.45758162E+01
 20
-5.13000031E+01
 11
8.19592324E+01
 21
-5.13000031E+01
  0
LINE
  8
0
  6
CENTER
 62
6
 10
6.16000061E+01
 20
-1.04699555E+01
 11
6.16000061E+01
 21
-5.96670990E+01
  0
LINE
  8
0
 62
4
 10
5.16000061E+01
 20
-2.04040985E+01
 11
5.16000061E+01
 21
-4.91958924E+01
  0
LINE
  8
0
 62
4
 10
7.81000056E+01
 20
-4.49417572E+01
 11
7.81000056E+01
 21
-2.46582489E+01
  0
LINE
  8
0
 62
4
 10
4.51000061E+01
 20
-2.46582489E+01
 11
4.51000061E+01
 21
-4.49417572E+01
  0
LINE
  8
0
 62
4
 10
5.11000061E+01
 20
-2.04040985E+01
 11
7.21000662E+01
 21
-2.04040985E+01
  0
LINE
  8
0
 62
4
 10
8.31000055E+01
 20
-2.43000031E+01
 11
7.81000056E+01
 21
-2.43000031E+01
  0
LINE
  8
0
 62
4
 10
7.21000051E+01
 20
-1.33000031E+01
 11
7.21000051E+01
 21
-1.83000031E+01
  0
LINE
  8
0
 62
4
 10
6.96000051E+01
 20
-4.91958924E+01
 11
6.96000051E+01
 21
-2.04040985E+01
  0
LINE
  8
0
 62
4
 10
4.51000061E+01
 20
-1.33000031E+01
 11
7.81000056E+01
 21
-1.33000031E+01
  0
LINE
  8
0
  6
CENTER
 62
6
 10
4.51000061E+01
 20
-2.27571259E+01
 11
4.51000061E+01
 21
-1.42297974E+01
  0
LINE
  8
0
  6
CENTER
 62
6
 10
7.81000056E+01
 20
-5.50985642E+01
 11
7.81000056E+01
 21
-4.75071640E+01
  0
LINE
  8
0
  6
CENTER
 62
6
 10
4.51000061E+01
 20
-5.48905793E+01
 11
4.51000061E+01
 21
-4.71951905E+01
  0
LINE
  8
0
  6
CENTER
 62
6
 10
4.09864731E+01
 20
-1.83000031E+01
 11
4.87858582E+01
 21
-1.83000031E+01
  0
LINE
  8
0
  6
CENTER
 62
6
 10
4.15064316E+01
 20
-5.13000031E+01
 11
4.90978317E+01
 21
-5.13000031E+01
  0
LINE
  8
0
  6
CENTER
 62
6
 10
7.81000056E+01
 20
-2.23411560E+01
 11
7.81000056E+01
 21
-1.44377823E+01
  0
LINE
  8
0
  6
CENTER
 62
6
 10
-8.31937408E+01
 20
4.51999984E+01
 11
-3.74154663E+01
 21
4.51999844E+01
  0
LINE
  8
0
 62
4
 10
-4.63999908E+01
 20
5.51999872E+01
 11
-7.03999908E+01
 21
5.51999945E+01
  0
LINE
  8
0
 62
4
 10
-4.63999915E+01
 20
5.31999872E+01
 11
-7.03999915E+01
 21
5.31999945E+01
  0
LINE
  8
0
 62
4
 10
-7.03999989E+01
 20
2.86999945E+01
 11
-4.88999989E+01
 21
2.86999880E+01
  0
LINE
  8
0
 62
4
 10
-6.83999966E+01
 20
5.31999577E+01
 11
-7.03999970E+01
 21
5.41999587E+01
  0
LINE
  8
0
 62
4
 10
-7.03999963E+01
 20
3.71999945E+01
 11
-4.63999963E+01
 21
3.71999872E+01
  0
LINE
  8
0
 62
4
 10
-4.88999889E+01
 20
6.16999880E+01
 11
-7.03999889E+01
 21
6.16999945E+01
  0
LINE
  8
0
  6
CENTER
 62
6
 10
-8.11055171E+01
 20
6.16999978E+01
 11
-6.87736079E+01
 21
6.16999940E+01
  0
LINE
  8
0
  6
CENTER
 62
6
 10
-8.06580479E+01
 20
2.87000282E+01
 11
-6.86429646E+01
 21
2.87000245E+01
  0
LINE
  8
0
 62
4
 10
-7.03999994E+01
 20
3.61999682E+01
 11
-6.83999813E+01
 21
3.71999764E+01
  0
LINE
  8
0
 62
4
 10
-4.63999969E+01
 20
3.51999872E+01
 11
-7.03999969E+01
 21
3.51999945E+01
  0
LINE
  8
0
  6
CENTER
 62
6
 10
-1.44000000E+01
 20
2.51999774E+01
 11
-1.44000076E+01
 21
1.99977428E-01
  0
LINE
  8
0
  6
CENTER
 62
6
 10
-1.90000381E+00
 20
1.26999736E+01
 11
-2.69000038E+01
 21
1.26999812E+01
  0
LINE
  8
0
 62
4
 10
-9.22845229E+00
 20
2.69997585E+00
 11
-5.95715462E+01
 21
2.69999121E+00
  0
LINE
  8
0
 62
4
 10
-4.23148859E+00
 20
7.52548188E+00
 11
-2.91585226E+00
 21
4.51999969E+01
  0
LINE
  8
0
 62
4
 10
-6.45685135E+01
 20
7.52551129E+00
 11
-6.51055946E+01
 21
2.29055868E+01
  0
LINE
  8
0
  6
CENTER
 62
6
 10
-5.44000000E+01
 20
2.51999896E+01
 11
-5.44000076E+01
 21
1.99989628E-01
  0
LINE
  8
0
  6
CENTER
 62
6
 10
-6.69000038E+01
 20
1.26999934E+01
 11
-4.19000038E+01
 21
1.26999858E+01
  0
LINE
  8
0
 62
4
 10
-7.39999603E+00
 20
3.81999753E+01
 11
-4.97407858E+01
 21
3.81999882E+01
  0
LINE
  8
0
 62
4
 10
-4.23147542E+00
 20
8.28744712E+01
 11
-2.91586314E+00
 21
4.51999858E+01
  0
LINE
  8
0
 62
4
 10
-7.39999176E+00
 20
5.21999753E+01
 11
-4.97407816E+01
 21
5.21999882E+01
  0
LINE
  8
0
 62
4
 10
-6.45684915E+01
 20
8.28744794E+01
 11
-6.51055820E+01
 21
6.74943980E+01
  0
LINE
  8
0
  6
CENTER
 62
6
 10
-5.43999878E+01
 20
6.51999896E+01
 11
-5.43999802E+01
 21
9.01999896E+01
  0
LINE
  8
0
  6
CENTER
 62
6
 10
-6.68999840E+01
 20
7.76999934E+01
 11
-4.18999840E+01
 21
7.76999858E+01
  0
LINE
  8
0
 62
4
 10
-9.22842637E+00
 20
8.76999759E+01
 11
-5.95715202E+01
 21
8.76999912E+01
  0
LINE
  8
0
  6
CENTER
 62
6
 10
-1.89998398E+00
 20
7.76999736E+01
 11
-2.68999840E+01
 21
7.76999812E+01
  0
LINE
  8
0
  6
CENTER
 62
6
 10
-1.43999878E+01
 20
6.51999774E+01
 11
-1.43999802E+01
 21
9.01999774E+01
  0
ARC
  8
0
 62
4
 10
-9.22842789E+00
 20
8.26999759E+01
 40
5.00000000E+00
 50
1.99999852E+00
 51
9.00000191E+01
  0
CIRCLE
  8
0
 62
4
 10
-1.43999840E+01
 20
7.76999774E+01
 40
8.50000000E+00
  0
CIRCLE
  8
0
 62
4
 10
-1.43999840E+01
 20
7.76999774E+01
 40
4.50000000E+00
  0
ARC
  8
0
 62
4
 10
-5.95715218E+01
 20
8.26999912E+01
 40
5.00000000E+00
 50
9.00000191E+01
 51
1.77999958E+02
  0
CIRCLE
  8
0
 62
4
 10
-5.43999840E+01
 20
7.76999896E+01
 40
8.50000000E+00
  0
CIRCLE
  8
0
 62
4
 10
-5.43999840E+01
 20
7.76999896E+01
 40
4.50000000E+00
  0
ARC
  8
0
 62
4
 10
-4.51639221E+01
 20
5.51999868E+01
 40
3.00000000E+00
 50
2.21810338E+02
 51
2.70000001E+02
  0
ARC
  8
0
 62
4
 10
-7.39999085E+00
 20
5.51999753E+01
 40
3.00000000E+00
 50
2.70000001E+02
 51
3.59999982E+02
  0
ARC
  8
0
 62
4
 10
-7.39999695E+00
 20
3.51999753E+01
 40
3.00000000E+00
 50
3.59999982E+02
 51
8.99999647E+01
  0
ARC
  8
0
 62
4
 10
-4.51639282E+01
 20
3.51999868E+01
 40
3.00000000E+00
 50
8.99999647E+01
 51
1.38189627E+02
  0
CIRCLE
  8
0
 62
4
 10
-5.44000038E+01
 20
1.26999896E+01
 40
8.50000000E+00
  0
CIRCLE
  8
0
 62
4
 10
-5.44000038E+01
 20
1.26999896E+01
 40
4.50000000E+00
  0
CIRCLE
  8
0
 62
4
 10
-1.44000038E+01
 20
1.26999774E+01
 40
8.50000000E+00
  0
CIRCLE
  8
0
 62
4
 10
-1.44000038E+01
 20
1.26999774E+01
 40
4.50000000E+00
  0
ARC
  8
0
 62
4
 10
-5.95715446E+01
 20
7.69999121E+00
 40
5.00000000E+00
 50
1.82000007E+02
 51
2.70000001E+02
  0
ARC
  8
0
 62
4
 10
-9.22845077E+00
 20
7.69997585E+00
 40
5.00000000E+00
 50
2.69999946E+02
 51
3.57999967E+02
  0
CIRCLE
  8
0
 62
4
 10
-5.93999939E+01
 20
4.51999912E+01
 40
3.00000000E+00
  0
CIRCLE
  8
0
 62
4
 10
-5.93999939E+01
 20
4.51999912E+01
 40
1.50000000E+00
  0
ARC
  8
0
 62
4
 10
-4.97407806E+01
 20
5.51999882E+01
 40
3.00000000E+00
 50
2.21810338E+02
 51
2.70000001E+02
  0
ARC
  8
0
 62
4
 10
-4.97407867E+01
 20
3.51999882E+01
 40
3.00000000E+00
 50
8.99999647E+01
 51
1.38189627E+02
  0
LINE
  8
0
 62
4
 10
-4.63999963E+01
 20
3.71999872E+01
 11
-4.63999969E+01
 21
3.51999872E+01
  0
LINE
  8
0
 62
4
 10
-4.88999983E+01
 20
3.08698609E+01
 11
-4.88999989E+01
 21
2.86999880E+01
  0
ARC
  8
0
 62
4
 10
-4.38999983E+01
 20
3.08698594E+01
 40
5.00000000E+00
 50
1.19999983E+02
 51
1.79999983E+02
  0
ARC
  8
0
 62
4
 10
-4.38999895E+01
 20
5.95301134E+01
 40
5.00000000E+00
 50
1.79999983E+02
 51
2.39999983E+02
  0
LINE
  8
0
 62
4
 10
-6.44000009E+01
 20
2.21999927E+01
 11
-6.54000006E+01
 21
2.31999930E+01
  0
LINE
  8
0
 62
4
 10
-5.34000006E+01
 20
2.31999893E+01
 11
-5.44000009E+01
 21
2.21999896E+01
  0
LINE
  8
0
 62
4
 10
-6.53999872E+01
 20
6.71999930E+01
 11
-6.43999869E+01
 21
6.81999927E+01
  0
LINE
  8
0
 62
4
 10
-5.33999872E+01
 20
6.71999893E+01
 11
-5.43999869E+01
 21
6.81999896E+01
  0
LINE
  8
0
 62
4
 10
-6.54000006E+01
 20
2.31999930E+01
 11
-5.34000006E+01
 21
2.31999893E+01
  0
LINE
  8
0
 62
4
 10
-5.33999872E+01
 20
6.71999893E+01
 11
-6.53999872E+01
 21
6.71999930E+01
  0
LINE
  8
0
 62
4
 10
-5.33999889E+01
 20
6.16999893E+01
 11
-5.33999872E+01
 21
6.71999893E+01
  0
LINE
  8
0
 62
4
 10
-6.53999889E+01
 20
6.16999930E+01
 11
-6.53999872E+01
 21
6.71999930E+01
  0
LINE
  8
0
 62
4
 10
-6.44000009E+01
 20
2.21999927E+01
 11
-5.44000009E+01
 21
2.21999896E+01
  0
LINE
  8
0
 62
4
 10
-5.43999869E+01
 20
6.81999896E+01
 11
-6.43999869E+01
 21
6.81999927E+01
  0
LINE
  8
0
 62
4
 10
-6.54000006E+01
 20
2.31999930E+01
 11
-6.53999989E+01
 21
2.86999930E+01
  0
LINE
  8
0
 62
4
 10
-5.34000006E+01
 20
2.31999893E+01
 11
-5.33999989E+01
 21
2.86999893E+01
  0
LINE
  8
0
  6
CENTER
 62
6
 10
-5.93999865E+01
 20
6.95701083E+01
 11
-5.94000016E+01
 21
1.99424228E+01
  0
LINE
  8
0
 62
4
 10
-4.88999895E+01
 20
5.95301150E+01
 11
-4.88999889E+01
 21
6.16999880E+01
  0
LINE
  8
0
 62
4
 10
-4.63999915E+01
 20
5.31999872E+01
 11
-4.63999908E+01
 21
5.51999872E+01
  0
ARC
  8
0
 62
4
 10
-7.23999879E+01
 20
6.46999646E+01
 40
2.00000000E+00
 50
5.10455465E-07
 51
8.99999647E+01
  0
ARC
  8
0
 62
4
 10
-7.23999998E+01
 20
2.56999951E+01
 40
2.00000000E+00
 50
2.70000001E+02
 51
3.59999983E+02
  0
LINE
  8
0
 62
4
 10
-7.08999602E+01
 20
5.56999947E+01
 11
-7.03999907E+01
 21
5.56999945E+01
  0
LINE
  8
0
 62
4
 10
-7.08999666E+01
 20
3.46999947E+01
 11
-7.03999971E+01
 21
3.46999945E+01
  0
LINE
  8
0
 62
4
 10
-7.84000005E+01
 20
2.37000275E+01
 11
-7.24000005E+01
 21
2.37000256E+01
  0
LINE
  8
0
 62
4
 10
-7.08999570E+01
 20
6.60228096E+01
 11
-7.08999602E+01
 21
5.56999947E+01
  0
LINE
  8
0
 62
4
 10
-7.08999697E+01
 20
2.43771492E+01
 11
-7.08999666E+01
 21
3.46999947E+01
  0
LINE
  8
0
 62
4
 10
-7.84000005E+01
 20
2.37000275E+01
 11
-7.83999873E+01
 21
6.66999969E+01
  0
LINE
  8
0
 62
4
 10
-7.03999998E+01
 20
2.56999945E+01
 11
-7.03999879E+01
 21
6.46999640E+01
  0
LINE
  8
0
 62
4
 10
-7.23999873E+01
 20
6.66999951E+01
 11
-7.83999873E+01
 21
6.66999969E+01
  0
LINE
  8
0
 62
7
 10
7.33500061E+01
 20
-8.48000031E+01
 11
1.38350006E+02
 21
-8.48000031E+01
  0
LINE
  8
0
 62
7
 10
7.33500061E+01
 20
-8.48000031E+01
 11
7.33500061E+01
 21
-9.48000031E+01
  0
TEXT
  8
0
 62
7
 10
7.72426624E+01
 20
-9.20500031E+01
 40
4.50000000E+00
  1
KOGANEI CORP.
 41
1.04838710E+00
  7
MONOTXT
  0
LINE
  8
0
 62
7
 10
7.33500061E+01
 20
9.45000000E+01
 11
7.33500061E+01
 21
8.45000000E+01
  0
TEXT
  8
0
 62
7
 10
9.35071493E+01
 20
8.79000001E+01
 40
3.19999981E+00
  1
Ver. 1.0
 41
1.08108108E+00
  7
MONOTXT
  0
LINE
  8
0
 62
7
 10
7.33500061E+01
 20
8.45000000E+01
 11
1.38350006E+02
 21
8.45000000E+01
  0
TEXT
  8
0
 62
7
 10
-1.32642850E+02
 20
8.79000001E+01
 40
3.19999981E+00
  1
NEW DYNA CYLINDER
 41
1.07594937E+00
  7
MONOTXT
  0
LINE
  8
0
 62
7
 10
-1.38399994E+02
 20
8.45000000E+01
 11
-7.33999939E+01
 21
8.45000000E+01
  0
LINE
  8
0
 62
7
 10
-7.33999939E+01
 20
9.45000000E+01
 11
-7.33999939E+01
 21
8.45000000E+01
  0
TEXT
  8
0
 62
7
 10
-1.29085994E+02
 20
7.29000001E+01
 40
3.19999981E+00
  1
MODEL:DDA32-7C
 41
1.00000000E+00
  7
MONOTXT
  0
LINE
  8
0
 62
7
 10
-1.38399994E+02
 20
9.45000000E+01
 11
1.38350006E+02
 21
9.45000000E+01
  0
LINE
  8
0
 62
7
 10
1.38350006E+02
 20
9.45000000E+01
 11
1.38350006E+02
 21
-9.48000031E+01
  0
LINE
  8
0
 62
7
 10
-1.38399994E+02
 20
-9.48000031E+01
 11
1.38350006E+02
 21
-9.48000031E+01
  0
LINE
  8
0
 62
7
 10
-1.38399994E+02
 20
9.45000000E+01
 11
-1.38399994E+02
 21
-9.48000031E+01
  0
ENDSEC
  0
EOF
